  0
SECTION
  2
HEADER
  9
$ACADVER
  1
AC1006
  9
$EXTMIN
 10
1.446720
 20
3.346200
  9
$EXTMAX
 10
7.053200
 20
8.467360
  9
$LTSCALE
 40
0.044000
  9
$PDMODE
 70
    35
  9
$PDSIZE
 40
0.035200
  0
ENDSEC
  0
SECTION
  2
TABLES
  0
TABLE
  2
LTYPE
 70
     9
  0
LTYPE
  2
CONTINUOUS
 70
    64
  3
Solid line
 72
    65
 73
     0
 40
0.000000
  0
LTYPE
  2
DASHED
 70
    64
  3
__ __ __ __ __ __ __ __ __ __ __ __ __ __ __
 72
    65
 73
     2
 40
0.000330
 49
0.000220
 49
-0.000110
  0
LTYPE
  2
HIDDEN
 70
    64
  3
 _ _ _ _ _ _ _ _ _ _ _ _ _ _ _ _ _ _ _ _ _ _
 72
    65
 73
     2
 40
0.000165
 49
0.000110
 49
-0.000055
  0
LTYPE
  2
CENTER
 70
    64
  3
____ _ ____ _ ____ _ ____ _ ____ _ ____ _ ____
 72
    65
 73
     4
 40
0.000880
 49
0.000550
 49
-0.000110
 49
0.000110
 49
-0.000110
  0
LTYPE
  2
PHANTOM
 70
    64
  3
_____ _ _ _____ _ _ _____ _ _ _____ _ _ ____
 72
    65
 73
     6
 40
0.001100
 49
0.000550
 49
-0.000110
 49
0.000110
 49
-0.000110
 49
0.000110
 49
-0.000110
  0
LTYPE
  2
DOT
 70
    64
  3
...............................................
 72
    65
 73
     2
 40
0.000110
 49
0.000000
 49
-0.000110
  0
LTYPE
  2
DASHDOT
 70
    64
  3
__ . __ . __ . __ . __ . __ . __ . __ . __ . __
 72
    65
 73
     4
 40
0.000440
 49
0.000220
 49
-0.000110
 49
0.000000
 49
-0.000110
  0
LTYPE
  2
BORDER
 70
    64
  3
__ __ . __ __ . __ __ . __ __ . __ __ . __ __
 72
    65
 73
     6
 40
0.000770
 49
0.000220
 49
-0.000110
 49
0.000220
 49
-0.000110
 49
0.000000
 49
-0.000110
  0
LTYPE
  2
DIVIDE
 70
    64
  3
__ . . __ . . __ . . __ . . __ . . __ . . __
 72
    65
 73
     6
 40
0.000550
 49
0.000220
 49
-0.000110
 49
0.000000
 49
-0.000110
 49
0.000000
 49
-0.000110
  0
LTYPE
  2
DOTDOT
 70
    64
  3
 . .  . .  . .  . .  . .  . . 
 72
    65
 73
     5
 40
0.000242
 49
-0.000110
 49
0.000000
 49
-0.000110
 49
0.000000
 49
-0.000110
  0
ENDTAB
  0
TABLE
  2
STYLE
 70
     2
  0
STYLE
 70
     0
  2
SN0
 40
0.000000
 41
0.000440
 50
0.000000
 71
     0
 42
0.000000
  3
ROMAND
  0
STYLE
 70
    68
  2
SV0
 40
0.000000
 41
0.000440
 50
0.000000
 71
     0
 42
0.000000
  3
ROMAND
  0
ENDTAB
  0
TABLE
  2
LAYER
 70
     3
  0
LAYER
  2
FOREGROUND
 70
    64
 62
     7
  6
CONTINUOUS
  0
LAYER
  2
BACKGROUND
 70
    65
 62
    -7
  6
CONTINUOUS
  0
LAYER
  2
0
 70
    64
 62
     7
  6
CONTINUOUS
  0
ENDTAB
  0
ENDSEC
  0
SECTION
  2
ENTITIES
  0
POLYLINE
  8
FOREGROUND
  6
CONTINUOUS
 66
     1
 40
0.000000
 41
0.000000
  0
VERTEX
  8
FOREGROUND
  6
CONTINUOUS
 10
0.000000
 20
11.813560
  0
VERTEX
  8
FOREGROUND
  6
CONTINUOUS
 10
8.499920
 20
11.813560
  0
VERTEX
  8
FOREGROUND
  6
CONTINUOUS
 10
8.499920
 20
0.813560
  0
VERTEX
  8
FOREGROUND
  6
CONTINUOUS
 10
0.000000
 20
0.813560
  0
VERTEX
  8
FOREGROUND
  6
CONTINUOUS
 10
0.000000
 20
11.813560
  0
SEQEND
  8
0
  0
POLYLINE
  8
FOREGROUND
  6
CONTINUOUS
 66
     1
 40
0.000000
 41
0.000000
  0
VERTEX
  8
FOREGROUND
  6
CONTINUOUS
 10
0.000000
 20
11.813560
  0
VERTEX
  8
FOREGROUND
  6
CONTINUOUS
 10
8.499920
 20
11.813560
  0
VERTEX
  8
FOREGROUND
  6
CONTINUOUS
 10
8.499920
 20
0.813560
  0
VERTEX
  8
FOREGROUND
  6
CONTINUOUS
 10
0.000000
 20
0.813560
  0
VERTEX
  8
FOREGROUND
  6
CONTINUOUS
 10
0.000000
 20
11.813560
  0
SEQEND
  8
0
  0
POLYLINE
  8
0
  6
CONTINUOUS
 66
     1
 40
0.014080
 41
0.014080
  0
VERTEX
  8
0
  6
CONTINUOUS
 10
4.462920
 20
7.378800
  0
VERTEX
  8
0
  6
CONTINUOUS
 10
4.495040
 20
7.420600
  0
VERTEX
  8
0
  6
CONTINUOUS
 10
4.513960
 20
7.455800
  0
VERTEX
  8
0
  6
CONTINUOUS
 10
4.523640
 20
7.480440
  0
VERTEX
  8
0
  6
CONTINUOUS
 10
4.534200
 20
7.520040
  0
VERTEX
  8
0
  6
CONTINUOUS
 10
4.538160
 20
7.547320
  0
VERTEX
  8
0
  6
CONTINUOUS
 10
4.539480
 20
7.575480
  0
VERTEX
  8
0
  6
CONTINUOUS
 10
4.538160
 20
7.605400
  0
VERTEX
  8
0
  6
CONTINUOUS
 10
4.533760
 20
7.634000
  0
VERTEX
  8
0
  6
CONTINUOUS
 10
4.521880
 20
7.675360
  0
VERTEX
  8
0
  6
CONTINUOUS
 10
4.510880
 20
7.701760
  0
VERTEX
  8
0
  6
CONTINUOUS
 10
4.489760
 20
7.738280
  0
VERTEX
  8
0
  6
CONTINUOUS
 10
4.463800
 20
7.770840
  0
VERTEX
  8
0
  6
CONTINUOUS
 10
4.433440
 20
7.799880
  0
VERTEX
  8
0
  6
CONTINUOUS
 10
4.399560
 20
7.824080
  0
VERTEX
  8
0
  6
CONTINUOUS
 10
4.374920
 20
7.837720
  0
VERTEX
  8
0
  6
CONTINUOUS
 10
4.335320
 20
7.853120
  0
VERTEX
  8
0
  6
CONTINUOUS
 10
4.307160
 20
7.860600
  0
VERTEX
  8
0
  6
CONTINUOUS
 10
4.278560
 20
7.865000
  0
VERTEX
  8
0
  6
CONTINUOUS
 10
4.248640
 20
7.866320
  0
VERTEX
  8
0
  6
CONTINUOUS
 10
4.212120
 20
7.864120
  0
VERTEX
  8
0
  6
CONTINUOUS
 10
4.176480
 20
7.857520
  0
VERTEX
  8
0
  6
CONTINUOUS
 10
4.143040
 20
7.846520
  0
VERTEX
  8
0
  6
CONTINUOUS
 10
4.111360
 20
7.832000
  0
VERTEX
  8
0
  6
CONTINUOUS
 10
4.081880
 20
7.813960
  0
VERTEX
  8
0
  6
CONTINUOUS
 10
4.054600
 20
7.792400
  0
VERTEX
  8
0
  6
CONTINUOUS
 10
4.030400
 20
7.768200
  0
VERTEX
  8
0
  6
CONTINUOUS
 10
4.009280
 20
7.740920
  0
VERTEX
  8
0
  6
CONTINUOUS
 10
4.007520
 20
7.778760
  0
VERTEX
  8
0
  6
CONTINUOUS
 10
4.002680
 20
7.816160
  0
VERTEX
  8
0
  6
CONTINUOUS
 10
3.989040
 20
7.871600
  0
VERTEX
  8
0
  6
CONTINUOUS
 10
3.968800
 20
7.925720
  0
VERTEX
  8
0
  6
CONTINUOUS
 10
3.942400
 20
7.978080
  0
VERTEX
  8
0
  6
CONTINUOUS
 10
3.910280
 20
8.028680
  0
VERTEX
  8
0
  6
CONTINUOUS
 10
3.886080
 20
8.061240
  0
VERTEX
  8
0
  6
CONTINUOUS
 10
3.859680
 20
8.092920
  0
VERTEX
  8
0
  6
CONTINUOUS
 10
3.801160
 20
8.151880
  0
VERTEX
  8
0
  6
CONTINUOUS
 10
3.769040
 20
8.179600
  0
VERTEX
  8
0
  6
CONTINUOUS
 10
3.736040
 20
8.205560
  0
VERTEX
  8
0
  6
CONTINUOUS
 10
3.701280
 20
8.230200
  0
VERTEX
  8
0
  6
CONTINUOUS
 10
3.628680
 20
8.274200
  0
VERTEX
  8
0
  6
CONTINUOUS
 10
3.552120
 20
8.310720
  0
VERTEX
  8
0
  6
CONTINUOUS
 10
3.513400
 20
8.325680
  0
VERTEX
  8
0
  6
CONTINUOUS
 10
3.473800
 20
8.338880
  0
VERTEX
  8
0
  6
CONTINUOUS
 10
3.434200
 20
8.349440
  0
VERTEX
  8
0
  6
CONTINUOUS
 10
3.394600
 20
8.357800
  0
VERTEX
  8
0
  6
CONTINUOUS
 10
3.335200
 20
8.365720
  0
VERTEX
  8
0
  6
CONTINUOUS
 10
3.295600
 20
8.367920
  0
VERTEX
  8
0
  6
CONTINUOUS
 10
3.256880
 20
8.367040
  0
VERTEX
  8
0
  6
CONTINUOUS
 10
3.218600
 20
8.363520
  0
VERTEX
  8
0
  6
CONTINUOUS
 10
3.181200
 20
8.357360
  0
VERTEX
  8
0
  6
CONTINUOUS
 10
3.126640
 20
8.341960
  0
VERTEX
  8
0
  6
CONTINUOUS
 10
3.075160
 20
8.319960
  0
VERTEX
  8
0
  6
CONTINUOUS
 10
3.058440
 20
8.310720
  0
VERTEX
  8
0
  6
CONTINUOUS
 10
3.042160
 20
8.459880
  0
VERTEX
  8
0
  6
CONTINUOUS
 10
2.242240
 20
8.459880
  0
VERTEX
  8
0
  6
CONTINUOUS
 10
2.242240
 20
8.379360
  0
VERTEX
  8
0
  6
CONTINUOUS
 10
2.175360
 20
8.379360
  0
VERTEX
  8
0
  6
CONTINUOUS
 10
2.104960
 20
8.376280
  0
VERTEX
  8
0
  6
CONTINUOUS
 10
2.052160
 20
8.369680
  0
VERTEX
  8
0
  6
CONTINUOUS
 10
2.001120
 20
8.357800
  0
VERTEX
  8
0
  6
CONTINUOUS
 10
1.969440
 20
8.345920
  0
VERTEX
  8
0
  6
CONTINUOUS
 10
1.939080
 20
8.330960
  0
VERTEX
  8
0
  6
CONTINUOUS
 10
1.911800
 20
8.311600
  0
VERTEX
  8
0
  6
CONTINUOUS
 10
1.887160
 20
8.288280
  0
VERTEX
  8
0
  6
CONTINUOUS
 10
1.866040
 20
8.259240
  0
VERTEX
  8
0
  6
CONTINUOUS
 10
1.848440
 20
8.225360
  0
VERTEX
  8
0
  6
CONTINUOUS
 10
1.835680
 20
8.185320
  0
VERTEX
  8
0
  6
CONTINUOUS
 10
1.827320
 20
8.139120
  0
VERTEX
  8
0
  6
CONTINUOUS
 10
1.824680
 20
8.085880
  0
VERTEX
  8
0
  6
CONTINUOUS
 10
1.678160
 20
8.085880
  0
VERTEX
  8
0
  6
CONTINUOUS
 10
1.678160
 20
6.707360
  0
VERTEX
  8
0
  6
CONTINUOUS
 10
4.002680
 20
6.707360
  0
VERTEX
  8
0
  6
CONTINUOUS
 10
4.002680
 20
7.379240
  0
VERTEX
  8
0
  6
CONTINUOUS
 10
4.462920
 20
7.378800
  0
SEQEND
  8
0
  0
POLYLINE
  8
0
  6
CONTINUOUS
 66
     1
 40
0.014080
 41
0.014080
  0
VERTEX
  8
0
  6
CONTINUOUS
 10
7.045720
 20
6.730680
  0
VERTEX
  8
0
  6
CONTINUOUS
 10
7.045720
 20
6.707360
  0
VERTEX
  8
0
  6
CONTINUOUS
 10
4.005320
 20
6.707360
  0
VERTEX
  8
0
  6
CONTINUOUS
 10
4.005320
 20
7.379240
  0
VERTEX
  8
0
  6
CONTINUOUS
 10
4.961440
 20
7.379240
  0
VERTEX
  8
0
  6
CONTINUOUS
 10
4.985200
 20
7.199280
  0
VERTEX
  8
0
  6
CONTINUOUS
 10
5.903480
 20
7.199280
  0
VERTEX
  8
0
  6
CONTINUOUS
 10
5.906120
 20
7.225680
  0
VERTEX
  8
0
  6
CONTINUOUS
 10
5.911400
 20
7.250320
  0
VERTEX
  8
0
  6
CONTINUOUS
 10
5.923720
 20
7.284640
  0
VERTEX
  8
0
  6
CONTINUOUS
 10
5.940880
 20
7.315440
  0
VERTEX
  8
0
  6
CONTINUOUS
 10
5.954960
 20
7.333920
  0
VERTEX
  8
0
  6
CONTINUOUS
 10
5.970800
 20
7.351080
  0
VERTEX
  8
0
  6
CONTINUOUS
 10
5.987960
 20
7.366040
  0
VERTEX
  8
0
  6
CONTINUOUS
 10
6.006880
 20
7.379680
  0
VERTEX
  8
0
  6
CONTINUOUS
 10
6.027120
 20
7.391560
  0
VERTEX
  8
0
  6
CONTINUOUS
 10
6.048240
 20
7.401680
  0
VERTEX
  8
0
  6
CONTINUOUS
 10
6.093120
 20
7.417080
  0
VERTEX
  8
0
  6
CONTINUOUS
 10
6.140200
 20
7.425440
  0
VERTEX
  8
0
  6
CONTINUOUS
 10
6.163960
 20
7.427200
  0
VERTEX
  8
0
  6
CONTINUOUS
 10
6.211920
 20
7.425000
  0
VERTEX
  8
0
  6
CONTINUOUS
 10
6.235680
 20
7.421480
  0
VERTEX
  8
0
  6
CONTINUOUS
 10
6.259000
 20
7.415760
  0
VERTEX
  8
0
  6
CONTINUOUS
 10
6.303000
 20
7.399480
  0
VERTEX
  8
0
  6
CONTINUOUS
 10
6.324120
 20
7.388480
  0
VERTEX
  8
0
  6
CONTINUOUS
 10
6.343480
 20
7.375720
  0
VERTEX
  8
0
  6
CONTINUOUS
 10
6.361960
 20
7.360760
  0
VERTEX
  8
0
  6
CONTINUOUS
 10
6.386600
 20
7.335240
  0
VERTEX
  8
0
  6
CONTINUOUS
 10
6.407280
 20
7.305760
  0
VERTEX
  8
0
  6
CONTINUOUS
 10
6.423120
 20
7.271440
  0
VERTEX
  8
0
  6
CONTINUOUS
 10
6.431040
 20
7.246360
  0
VERTEX
  8
0
  6
CONTINUOUS
 10
6.436760
 20
7.219080
  0
VERTEX
  8
0
  6
CONTINUOUS
 10
6.438520
 20
7.205000
  0
VERTEX
  8
0
  6
CONTINUOUS
 10
6.625960
 20
7.205000
  0
VERTEX
  8
0
  6
CONTINUOUS
 10
6.641800
 20
7.122720
  0
VERTEX
  8
0
  6
CONTINUOUS
 10
6.688000
 20
7.120960
  0
VERTEX
  8
0
  6
CONTINUOUS
 10
6.732000
 20
7.115240
  0
VERTEX
  8
0
  6
CONTINUOUS
 10
6.773360
 20
7.106440
  0
VERTEX
  8
0
  6
CONTINUOUS
 10
6.812520
 20
7.093680
  0
VERTEX
  8
0
  6
CONTINUOUS
 10
6.849480
 20
7.078280
  0
VERTEX
  8
0
  6
CONTINUOUS
 10
6.883360
 20
7.059360
  0
VERTEX
  8
0
  6
CONTINUOUS
 10
6.914160
 20
7.037800
  0
VERTEX
  8
0
  6
CONTINUOUS
 10
6.942320
 20
7.013160
  0
VERTEX
  8
0
  6
CONTINUOUS
 10
6.967400
 20
6.985880
  0
VERTEX
  8
0
  6
CONTINUOUS
 10
6.989400
 20
6.955960
  0
VERTEX
  8
0
  6
CONTINUOUS
 10
7.015800
 20
6.906680
  0
VERTEX
  8
0
  6
CONTINUOUS
 10
7.029000
 20
6.871040
  0
VERTEX
  8
0
  6
CONTINUOUS
 10
7.038240
 20
6.833200
  0
VERTEX
  8
0
  6
CONTINUOUS
 10
7.043960
 20
6.793600
  0
VERTEX
  8
0
  6
CONTINUOUS
 10
7.045720
 20
6.752240
  0
VERTEX
  8
0
  6
CONTINUOUS
 10
7.045280
 20
6.730680
  0
VERTEX
  8
0
  6
CONTINUOUS
 10
7.045720
 20
6.730680
  0
SEQEND
  8
0
  0
SOLID
  8
0
 62
    15
 10
6.179800
 20
4.448400
 11
6.183760
 21
5.186280
 12
6.190800
 22
4.394280
 13
6.194760
 23
5.132160
  0
POLYLINE
  8
0
  6
CONTINUOUS
 66
     1
 40
0.000000
 41
0.000000
  0
VERTEX
  8
0
  6
CONTINUOUS
 10
6.179800
 20
4.448400
  0
VERTEX
  8
0
  6
CONTINUOUS
 10
6.183760
 20
5.186280
  0
VERTEX
  8
0
  6
CONTINUOUS
 10
6.194760
 20
5.132160
  0
VERTEX
  8
0
  6
CONTINUOUS
 10
6.190800
 20
4.394280
  0
VERTEX
  8
0
  6
CONTINUOUS
 10
6.179800
 20
4.448400
  0
SEQEND
  8
0
  0
SOLID
  8
0
 62
    15
 10
3.757600
 20
4.568960
 11
3.762000
 21
5.306840
 12
4.713720
 22
4.568960
 13
4.718120
 23
5.306840
  0
POLYLINE
  8
0
  6
CONTINUOUS
 66
     1
 40
0.000000
 41
0.000000
  0
VERTEX
  8
0
  6
CONTINUOUS
 10
3.757600
 20
4.568960
  0
VERTEX
  8
0
  6
CONTINUOUS
 10
3.762000
 20
5.306840
  0
VERTEX
  8
0
  6
CONTINUOUS
 10
4.718120
 20
5.306840
  0
VERTEX
  8
0
  6
CONTINUOUS
 10
4.713720
 20
4.568960
  0
VERTEX
  8
0
  6
CONTINUOUS
 10
3.757600
 20
4.568960
  0
SEQEND
  8
0
  0
SOLID
  8
0
 62
    15
 10
4.713720
 20
4.568960
 11
4.718120
 21
5.306840
 12
4.737480
 22
4.389000
 13
4.741440
 23
5.126880
  0
POLYLINE
  8
0
  6
CONTINUOUS
 66
     1
 40
0.000000
 41
0.000000
  0
VERTEX
  8
0
  6
CONTINUOUS
 10
4.713720
 20
4.568960
  0
VERTEX
  8
0
  6
CONTINUOUS
 10
4.718120
 20
5.306840
  0
VERTEX
  8
0
  6
CONTINUOUS
 10
4.741440
 20
5.126880
  0
VERTEX
  8
0
  6
CONTINUOUS
 10
4.737480
 20
4.389000
  0
VERTEX
  8
0
  6
CONTINUOUS
 10
4.713720
 20
4.568960
  0
SEQEND
  8
0
  0
SOLID
  8
0
 62
    15
 10
4.737480
 20
4.389000
 11
4.741440
 21
5.126880
 12
5.655760
 22
4.389000
 13
5.659720
 23
5.126880
  0
POLYLINE
  8
0
  6
CONTINUOUS
 66
     1
 40
0.000000
 41
0.000000
  0
VERTEX
  8
0
  6
CONTINUOUS
 10
4.737480
 20
4.389000
  0
VERTEX
  8
0
  6
CONTINUOUS
 10
4.741440
 20
5.126880
  0
VERTEX
  8
0
  6
CONTINUOUS
 10
5.659720
 20
5.126880
  0
VERTEX
  8
0
  6
CONTINUOUS
 10
5.655760
 20
4.389000
  0
VERTEX
  8
0
  6
CONTINUOUS
 10
4.737480
 20
4.389000
  0
SEQEND
  8
0
  0
SOLID
  8
0
 62
    15
 10
5.655760
 20
4.389000
 11
5.659720
 21
5.126880
 12
5.663680
 22
4.440040
 13
5.667640
 23
5.177920
  0
POLYLINE
  8
0
  6
CONTINUOUS
 66
     1
 40
0.000000
 41
0.000000
  0
VERTEX
  8
0
  6
CONTINUOUS
 10
5.655760
 20
4.389000
  0
VERTEX
  8
0
  6
CONTINUOUS
 10
5.659720
 20
5.126880
  0
VERTEX
  8
0
  6
CONTINUOUS
 10
5.667640
 20
5.177920
  0
VERTEX
  8
0
  6
CONTINUOUS
 10
5.663680
 20
4.440040
  0
VERTEX
  8
0
  6
CONTINUOUS
 10
5.655760
 20
4.389000
  0
SEQEND
  8
0
  0
SOLID
  8
0
 62
    15
 10
5.663680
 20
4.440040
 11
5.667640
 21
5.177920
 12
5.681280
 22
4.484920
 13
5.685240
 23
5.223240
  0
POLYLINE
  8
0
  6
CONTINUOUS
 66
     1
 40
0.000000
 41
0.000000
  0
VERTEX
  8
0
  6
CONTINUOUS
 10
5.663680
 20
4.440040
  0
VERTEX
  8
0
  6
CONTINUOUS
 10
5.667640
 20
5.177920
  0
VERTEX
  8
0
  6
CONTINUOUS
 10
5.685240
 20
5.223240
  0
VERTEX
  8
0
  6
CONTINUOUS
 10
5.681280
 20
4.484920
  0
VERTEX
  8
0
  6
CONTINUOUS
 10
5.663680
 20
4.440040
  0
SEQEND
  8
0
  0
SOLID
  8
0
 62
    15
 10
5.681280
 20
4.484920
 11
5.685240
 21
5.223240
 12
5.707240
 22
4.523640
 13
5.711200
 23
5.261520
  0
POLYLINE
  8
0
  6
CONTINUOUS
 66
     1
 40
0.000000
 41
0.000000
  0
VERTEX
  8
0
  6
CONTINUOUS
 10
5.681280
 20
4.484920
  0
VERTEX
  8
0
  6
CONTINUOUS
 10
5.685240
 20
5.223240
  0
VERTEX
  8
0
  6
CONTINUOUS
 10
5.711200
 20
5.261520
  0
VERTEX
  8
0
  6
CONTINUOUS
 10
5.707240
 20
4.523640
  0
VERTEX
  8
0
  6
CONTINUOUS
 10
5.681280
 20
4.484920
  0
SEQEND
  8
0
  0
SOLID
  8
0
 62
    15
 10
5.707240
 20
4.523640
 11
5.711200
 21
5.261520
 12
5.740240
 22
4.555320
 13
5.744640
 23
5.293640
  0
POLYLINE
  8
0
  6
CONTINUOUS
 66
     1
 40
0.000000
 41
0.000000
  0
VERTEX
  8
0
  6
CONTINUOUS
 10
5.707240
 20
4.523640
  0
VERTEX
  8
0
  6
CONTINUOUS
 10
5.711200
 20
5.261520
  0
VERTEX
  8
0
  6
CONTINUOUS
 10
5.744640
 20
5.293640
  0
VERTEX
  8
0
  6
CONTINUOUS
 10
5.740240
 20
4.555320
  0
VERTEX
  8
0
  6
CONTINUOUS
 10
5.707240
 20
4.523640
  0
SEQEND
  8
0
  0
SOLID
  8
0
 62
    15
 10
5.740240
 20
4.555320
 11
5.744640
 21
5.293640
 12
5.779400
 22
4.580840
 13
5.783360
 23
5.319160
  0
POLYLINE
  8
0
  6
CONTINUOUS
 66
     1
 40
0.000000
 41
0.000000
  0
VERTEX
  8
0
  6
CONTINUOUS
 10
5.740240
 20
4.555320
  0
VERTEX
  8
0
  6
CONTINUOUS
 10
5.744640
 20
5.293640
  0
VERTEX
  8
0
  6
CONTINUOUS
 10
5.783360
 20
5.319160
  0
VERTEX
  8
0
  6
CONTINUOUS
 10
5.779400
 20
4.580840
  0
VERTEX
  8
0
  6
CONTINUOUS
 10
5.740240
 20
4.555320
  0
SEQEND
  8
0
  0
SOLID
  8
0
 62
    15
 10
5.779400
 20
4.580840
 11
5.783360
 21
5.319160
 12
5.822520
 22
4.599760
 13
5.826480
 23
5.337640
  0
POLYLINE
  8
0
  6
CONTINUOUS
 66
     1
 40
0.000000
 41
0.000000
  0
VERTEX
  8
0
  6
CONTINUOUS
 10
5.779400
 20
4.580840
  0
VERTEX
  8
0
  6
CONTINUOUS
 10
5.783360
 20
5.319160
  0
VERTEX
  8
0
  6
CONTINUOUS
 10
5.826480
 20
5.337640
  0
VERTEX
  8
0
  6
CONTINUOUS
 10
5.822520
 20
4.599760
  0
VERTEX
  8
0
  6
CONTINUOUS
 10
5.779400
 20
4.580840
  0
SEQEND
  8
0
  0
SOLID
  8
0
 62
    15
 10
5.822520
 20
4.599760
 11
5.826480
 21
5.337640
 12
5.868720
 22
4.611640
 13
5.872680
 23
5.349520
  0
POLYLINE
  8
0
  6
CONTINUOUS
 66
     1
 40
0.000000
 41
0.000000
  0
VERTEX
  8
0
  6
CONTINUOUS
 10
5.822520
 20
4.599760
  0
VERTEX
  8
0
  6
CONTINUOUS
 10
5.826480
 20
5.337640
  0
VERTEX
  8
0
  6
CONTINUOUS
 10
5.872680
 20
5.349520
  0
VERTEX
  8
0
  6
CONTINUOUS
 10
5.868720
 20
4.611640
  0
VERTEX
  8
0
  6
CONTINUOUS
 10
5.822520
 20
4.599760
  0
SEQEND
  8
0
  0
SOLID
  8
0
 62
    15
 10
5.868720
 20
4.611640
 11
5.872680
 21
5.349520
 12
5.916240
 22
4.616480
 13
5.920640
 23
5.354360
  0
POLYLINE
  8
0
  6
CONTINUOUS
 66
     1
 40
0.000000
 41
0.000000
  0
VERTEX
  8
0
  6
CONTINUOUS
 10
5.868720
 20
4.611640
  0
VERTEX
  8
0
  6
CONTINUOUS
 10
5.872680
 20
5.349520
  0
VERTEX
  8
0
  6
CONTINUOUS
 10
5.920640
 20
5.354360
  0
VERTEX
  8
0
  6
CONTINUOUS
 10
5.916240
 20
4.616480
  0
VERTEX
  8
0
  6
CONTINUOUS
 10
5.868720
 20
4.611640
  0
SEQEND
  8
0
  0
SOLID
  8
0
 62
    15
 10
5.916240
 20
4.616480
 11
5.920640
 21
5.354360
 12
5.964200
 22
4.614280
 13
5.968600
 23
5.352160
  0
POLYLINE
  8
0
  6
CONTINUOUS
 66
     1
 40
0.000000
 41
0.000000
  0
VERTEX
  8
0
  6
CONTINUOUS
 10
5.916240
 20
4.616480
  0
VERTEX
  8
0
  6
CONTINUOUS
 10
5.920640
 20
5.354360
  0
VERTEX
  8
0
  6
CONTINUOUS
 10
5.968600
 20
5.352160
  0
VERTEX
  8
0
  6
CONTINUOUS
 10
5.964200
 20
4.614280
  0
VERTEX
  8
0
  6
CONTINUOUS
 10
5.916240
 20
4.616480
  0
SEQEND
  8
0
  0
SOLID
  8
0
 62
    15
 10
5.964200
 20
4.614280
 11
5.968600
 21
5.352160
 12
6.011280
 22
4.605040
 13
6.015240
 23
5.342920
  0
POLYLINE
  8
0
  6
CONTINUOUS
 66
     1
 40
0.000000
 41
0.000000
  0
VERTEX
  8
0
  6
CONTINUOUS
 10
5.964200
 20
4.614280
  0
VERTEX
  8
0
  6
CONTINUOUS
 10
5.968600
 20
5.352160
  0
VERTEX
  8
0
  6
CONTINUOUS
 10
6.015240
 20
5.342920
  0
VERTEX
  8
0
  6
CONTINUOUS
 10
6.011280
 20
4.605040
  0
VERTEX
  8
0
  6
CONTINUOUS
 10
5.964200
 20
4.614280
  0
SEQEND
  8
0
  0
SOLID
  8
0
 62
    15
 10
6.011280
 20
4.605040
 11
6.015240
 21
5.342920
 12
6.055720
 22
4.588760
 13
6.059680
 23
5.326640
  0
POLYLINE
  8
0
  6
CONTINUOUS
 66
     1
 40
0.000000
 41
0.000000
  0
VERTEX
  8
0
  6
CONTINUOUS
 10
6.011280
 20
4.605040
  0
VERTEX
  8
0
  6
CONTINUOUS
 10
6.015240
 20
5.342920
  0
VERTEX
  8
0
  6
CONTINUOUS
 10
6.059680
 20
5.326640
  0
VERTEX
  8
0
  6
CONTINUOUS
 10
6.055720
 20
4.588760
  0
VERTEX
  8
0
  6
CONTINUOUS
 10
6.011280
 20
4.605040
  0
SEQEND
  8
0
  0
SOLID
  8
0
 62
    15
 10
6.055720
 20
4.588760
 11
6.059680
 21
5.326640
 12
6.095760
 22
4.565000
 13
6.100160
 23
5.302880
  0
POLYLINE
  8
0
  6
CONTINUOUS
 66
     1
 40
0.000000
 41
0.000000
  0
VERTEX
  8
0
  6
CONTINUOUS
 10
6.055720
 20
4.588760
  0
VERTEX
  8
0
  6
CONTINUOUS
 10
6.059680
 20
5.326640
  0
VERTEX
  8
0
  6
CONTINUOUS
 10
6.100160
 20
5.302880
  0
VERTEX
  8
0
  6
CONTINUOUS
 10
6.095760
 20
4.565000
  0
VERTEX
  8
0
  6
CONTINUOUS
 10
6.055720
 20
4.588760
  0
SEQEND
  8
0
  0
SOLID
  8
0
 62
    15
 10
6.095760
 20
4.565000
 11
6.100160
 21
5.302880
 12
6.130960
 22
4.533760
 13
6.134920
 23
5.271640
  0
POLYLINE
  8
0
  6
CONTINUOUS
 66
     1
 40
0.000000
 41
0.000000
  0
VERTEX
  8
0
  6
CONTINUOUS
 10
6.095760
 20
4.565000
  0
VERTEX
  8
0
  6
CONTINUOUS
 10
6.100160
 20
5.302880
  0
VERTEX
  8
0
  6
CONTINUOUS
 10
6.134920
 20
5.271640
  0
VERTEX
  8
0
  6
CONTINUOUS
 10
6.130960
 20
4.533760
  0
VERTEX
  8
0
  6
CONTINUOUS
 10
6.095760
 20
4.565000
  0
SEQEND
  8
0
  0
SOLID
  8
0
 62
    15
 10
6.130960
 20
4.533760
 11
6.134920
 21
5.271640
 12
6.159560
 22
4.494600
 13
6.163520
 23
5.232920
  0
POLYLINE
  8
0
  6
CONTINUOUS
 66
     1
 40
0.000000
 41
0.000000
  0
VERTEX
  8
0
  6
CONTINUOUS
 10
6.130960
 20
4.533760
  0
VERTEX
  8
0
  6
CONTINUOUS
 10
6.134920
 20
5.271640
  0
VERTEX
  8
0
  6
CONTINUOUS
 10
6.163520
 20
5.232920
  0
VERTEX
  8
0
  6
CONTINUOUS
 10
6.159560
 20
4.494600
  0
VERTEX
  8
0
  6
CONTINUOUS
 10
6.130960
 20
4.533760
  0
SEQEND
  8
0
  0
SOLID
  8
0
 62
    15
 10
6.159560
 20
4.494600
 11
6.163520
 21
5.232920
 12
6.179800
 22
4.448400
 13
6.183760
 23
5.186280
  0
POLYLINE
  8
0
  6
CONTINUOUS
 66
     1
 40
0.000000
 41
0.000000
  0
VERTEX
  8
0
  6
CONTINUOUS
 10
6.159560
 20
4.494600
  0
VERTEX
  8
0
  6
CONTINUOUS
 10
6.163520
 20
5.232920
  0
VERTEX
  8
0
  6
CONTINUOUS
 10
6.183760
 20
5.186280
  0
VERTEX
  8
0
  6
CONTINUOUS
 10
6.179800
 20
4.448400
  0
VERTEX
  8
0
  6
CONTINUOUS
 10
6.159560
 20
4.494600
  0
SEQEND
  8
0
  0
SOLID
  8
0
 62
    15
 10
6.798000
 20
3.920400
 11
6.801960
 21
4.658280
 12
6.798000
 22
3.896640
 13
6.801960
 23
4.634520
  0
POLYLINE
  8
0
  6
CONTINUOUS
 66
     1
 40
0.000000
 41
0.000000
  0
VERTEX
  8
0
  6
CONTINUOUS
 10
6.798000
 20
3.920400
  0
VERTEX
  8
0
  6
CONTINUOUS
 10
6.801960
 20
4.658280
  0
VERTEX
  8
0
  6
CONTINUOUS
 10
6.801960
 20
4.634520
  0
VERTEX
  8
0
  6
CONTINUOUS
 10
6.798000
 20
3.896640
  0
VERTEX
  8
0
  6
CONTINUOUS
 10
6.798000
 20
3.920400
  0
SEQEND
  8
0
  0
SOLID
  8
0
 62
    15
 10
6.190800
 20
4.394280
 11
6.194760
 21
5.132160
 12
6.378240
 22
4.394280
 13
6.382640
 23
5.132160
  0
POLYLINE
  8
0
  6
CONTINUOUS
 66
     1
 40
0.000000
 41
0.000000
  0
VERTEX
  8
0
  6
CONTINUOUS
 10
6.190800
 20
4.394280
  0
VERTEX
  8
0
  6
CONTINUOUS
 10
6.194760
 20
5.132160
  0
VERTEX
  8
0
  6
CONTINUOUS
 10
6.382640
 20
5.132160
  0
VERTEX
  8
0
  6
CONTINUOUS
 10
6.378240
 20
4.394280
  0
VERTEX
  8
0
  6
CONTINUOUS
 10
6.190800
 20
4.394280
  0
SEQEND
  8
0
  0
SOLID
  8
0
 62
    15
 10
6.378240
 20
4.394280
 11
6.382640
 21
5.132160
 12
6.394080
 22
4.312440
 13
6.398040
 23
5.050320
  0
POLYLINE
  8
0
  6
CONTINUOUS
 66
     1
 40
0.000000
 41
0.000000
  0
VERTEX
  8
0
  6
CONTINUOUS
 10
6.378240
 20
4.394280
  0
VERTEX
  8
0
  6
CONTINUOUS
 10
6.382640
 20
5.132160
  0
VERTEX
  8
0
  6
CONTINUOUS
 10
6.398040
 20
5.050320
  0
VERTEX
  8
0
  6
CONTINUOUS
 10
6.394080
 20
4.312440
  0
VERTEX
  8
0
  6
CONTINUOUS
 10
6.378240
 20
4.394280
  0
SEQEND
  8
0
  0
SOLID
  8
0
 62
    15
 10
6.394080
 20
4.312440
 11
6.398040
 21
5.050320
 12
6.439840
 22
4.310240
 13
6.444240
 23
5.048560
  0
POLYLINE
  8
0
  6
CONTINUOUS
 66
     1
 40
0.000000
 41
0.000000
  0
VERTEX
  8
0
  6
CONTINUOUS
 10
6.394080
 20
4.312440
  0
VERTEX
  8
0
  6
CONTINUOUS
 10
6.398040
 20
5.050320
  0
VERTEX
  8
0
  6
CONTINUOUS
 10
6.444240
 20
5.048560
  0
VERTEX
  8
0
  6
CONTINUOUS
 10
6.439840
 20
4.310240
  0
VERTEX
  8
0
  6
CONTINUOUS
 10
6.394080
 20
4.312440
  0
SEQEND
  8
0
  0
SOLID
  8
0
 62
    15
 10
6.439840
 20
4.310240
 11
6.444240
 21
5.048560
 12
6.483840
 22
4.304960
 13
6.488240
 23
5.042840
  0
POLYLINE
  8
0
  6
CONTINUOUS
 66
     1
 40
0.000000
 41
0.000000
  0
VERTEX
  8
0
  6
CONTINUOUS
 10
6.439840
 20
4.310240
  0
VERTEX
  8
0
  6
CONTINUOUS
 10
6.444240
 20
5.048560
  0
VERTEX
  8
0
  6
CONTINUOUS
 10
6.488240
 20
5.042840
  0
VERTEX
  8
0
  6
CONTINUOUS
 10
6.483840
 20
4.304960
  0
VERTEX
  8
0
  6
CONTINUOUS
 10
6.439840
 20
4.310240
  0
SEQEND
  8
0
  0
SOLID
  8
0
 62
    15
 10
6.483840
 20
4.304960
 11
6.488240
 21
5.042840
 12
6.525640
 22
4.295720
 13
6.529600
 23
5.034040
  0
POLYLINE
  8
0
  6
CONTINUOUS
 66
     1
 40
0.000000
 41
0.000000
  0
VERTEX
  8
0
  6
CONTINUOUS
 10
6.483840
 20
4.304960
  0
VERTEX
  8
0
  6
CONTINUOUS
 10
6.488240
 20
5.042840
  0
VERTEX
  8
0
  6
CONTINUOUS
 10
6.529600
 20
5.034040
  0
VERTEX
  8
0
  6
CONTINUOUS
 10
6.525640
 20
4.295720
  0
VERTEX
  8
0
  6
CONTINUOUS
 10
6.483840
 20
4.304960
  0
SEQEND
  8
0
  0
SOLID
  8
0
 62
    15
 10
6.525640
 20
4.295720
 11
6.529600
 21
5.034040
 12
6.564800
 22
4.283400
 13
6.568760
 23
5.021280
  0
POLYLINE
  8
0
  6
CONTINUOUS
 66
     1
 40
0.000000
 41
0.000000
  0
VERTEX
  8
0
  6
CONTINUOUS
 10
6.525640
 20
4.295720
  0
VERTEX
  8
0
  6
CONTINUOUS
 10
6.529600
 20
5.034040
  0
VERTEX
  8
0
  6
CONTINUOUS
 10
6.568760
 20
5.021280
  0
VERTEX
  8
0
  6
CONTINUOUS
 10
6.564800
 20
4.283400
  0
VERTEX
  8
0
  6
CONTINUOUS
 10
6.525640
 20
4.295720
  0
SEQEND
  8
0
  0
SOLID
  8
0
 62
    15
 10
6.564800
 20
4.283400
 11
6.568760
 21
5.021280
 12
6.601320
 22
4.267560
 13
6.605280
 23
5.005440
  0
POLYLINE
  8
0
  6
CONTINUOUS
 66
     1
 40
0.000000
 41
0.000000
  0
VERTEX
  8
0
  6
CONTINUOUS
 10
6.564800
 20
4.283400
  0
VERTEX
  8
0
  6
CONTINUOUS
 10
6.568760
 20
5.021280
  0
VERTEX
  8
0
  6
CONTINUOUS
 10
6.605280
 20
5.005440
  0
VERTEX
  8
0
  6
CONTINUOUS
 10
6.601320
 20
4.267560
  0
VERTEX
  8
0
  6
CONTINUOUS
 10
6.564800
 20
4.283400
  0
SEQEND
  8
0
  0
SOLID
  8
0
 62
    15
 10
6.601320
 20
4.267560
 11
6.605280
 21
5.005440
 12
6.635200
 22
4.248640
 13
6.639160
 23
4.986960
  0
POLYLINE
  8
0
  6
CONTINUOUS
 66
     1
 40
0.000000
 41
0.000000
  0
VERTEX
  8
0
  6
CONTINUOUS
 10
6.601320
 20
4.267560
  0
VERTEX
  8
0
  6
CONTINUOUS
 10
6.605280
 20
5.005440
  0
VERTEX
  8
0
  6
CONTINUOUS
 10
6.639160
 20
4.986960
  0
VERTEX
  8
0
  6
CONTINUOUS
 10
6.635200
 20
4.248640
  0
VERTEX
  8
0
  6
CONTINUOUS
 10
6.601320
 20
4.267560
  0
SEQEND
  8
0
  0
SOLID
  8
0
 62
    15
 10
6.635200
 20
4.248640
 11
6.639160
 21
4.986960
 12
6.666440
 22
4.227080
 13
6.670400
 23
4.964960
  0
POLYLINE
  8
0
  6
CONTINUOUS
 66
     1
 40
0.000000
 41
0.000000
  0
VERTEX
  8
0
  6
CONTINUOUS
 10
6.635200
 20
4.248640
  0
VERTEX
  8
0
  6
CONTINUOUS
 10
6.639160
 20
4.986960
  0
VERTEX
  8
0
  6
CONTINUOUS
 10
6.670400
 20
4.964960
  0
VERTEX
  8
0
  6
CONTINUOUS
 10
6.666440
 20
4.227080
  0
VERTEX
  8
0
  6
CONTINUOUS
 10
6.635200
 20
4.248640
  0
SEQEND
  8
0
  0
SOLID
  8
0
 62
    15
 10
6.666440
 20
4.227080
 11
6.670400
 21
4.964960
 12
6.694600
 22
4.202440
 13
6.698560
 23
4.940320
  0
POLYLINE
  8
0
  6
CONTINUOUS
 66
     1
 40
0.000000
 41
0.000000
  0
VERTEX
  8
0
  6
CONTINUOUS
 10
6.666440
 20
4.227080
  0
VERTEX
  8
0
  6
CONTINUOUS
 10
6.670400
 20
4.964960
  0
VERTEX
  8
0
  6
CONTINUOUS
 10
6.698560
 20
4.940320
  0
VERTEX
  8
0
  6
CONTINUOUS
 10
6.694600
 20
4.202440
  0
VERTEX
  8
0
  6
CONTINUOUS
 10
6.666440
 20
4.227080
  0
SEQEND
  8
0
  0
SOLID
  8
0
 62
    15
 10
6.694600
 20
4.202440
 11
6.698560
 21
4.940320
 12
6.719240
 22
4.175160
 13
6.723640
 23
4.913040
  0
POLYLINE
  8
0
  6
CONTINUOUS
 66
     1
 40
0.000000
 41
0.000000
  0
VERTEX
  8
0
  6
CONTINUOUS
 10
6.694600
 20
4.202440
  0
VERTEX
  8
0
  6
CONTINUOUS
 10
6.698560
 20
4.940320
  0
VERTEX
  8
0
  6
CONTINUOUS
 10
6.723640
 20
4.913040
  0
VERTEX
  8
0
  6
CONTINUOUS
 10
6.719240
 20
4.175160
  0
VERTEX
  8
0
  6
CONTINUOUS
 10
6.694600
 20
4.202440
  0
SEQEND
  8
0
  0
SOLID
  8
0
 62
    15
 10
6.719240
 20
4.175160
 11
6.723640
 21
4.913040
 12
6.741240
 22
4.145240
 13
6.745200
 23
4.883560
  0
POLYLINE
  8
0
  6
CONTINUOUS
 66
     1
 40
0.000000
 41
0.000000
  0
VERTEX
  8
0
  6
CONTINUOUS
 10
6.719240
 20
4.175160
  0
VERTEX
  8
0
  6
CONTINUOUS
 10
6.723640
 20
4.913040
  0
VERTEX
  8
0
  6
CONTINUOUS
 10
6.745200
 20
4.883560
  0
VERTEX
  8
0
  6
CONTINUOUS
 10
6.741240
 20
4.145240
  0
VERTEX
  8
0
  6
CONTINUOUS
 10
6.719240
 20
4.175160
  0
SEQEND
  8
0
  0
SOLID
  8
0
 62
    15
 10
6.741240
 20
4.145240
 11
6.745200
 21
4.883560
 12
6.759720
 22
4.113120
 13
6.763680
 23
4.851000
  0
POLYLINE
  8
0
  6
CONTINUOUS
 66
     1
 40
0.000000
 41
0.000000
  0
VERTEX
  8
0
  6
CONTINUOUS
 10
6.741240
 20
4.145240
  0
VERTEX
  8
0
  6
CONTINUOUS
 10
6.745200
 20
4.883560
  0
VERTEX
  8
0
  6
CONTINUOUS
 10
6.763680
 20
4.851000
  0
VERTEX
  8
0
  6
CONTINUOUS
 10
6.759720
 20
4.113120
  0
VERTEX
  8
0
  6
CONTINUOUS
 10
6.741240
 20
4.145240
  0
SEQEND
  8
0
  0
SOLID
  8
0
 62
    15
 10
6.759720
 20
4.113120
 11
6.763680
 21
4.851000
 12
6.774680
 22
4.078360
 13
6.778640
 23
4.816680
  0
POLYLINE
  8
0
  6
CONTINUOUS
 66
     1
 40
0.000000
 41
0.000000
  0
VERTEX
  8
0
  6
CONTINUOUS
 10
6.759720
 20
4.113120
  0
VERTEX
  8
0
  6
CONTINUOUS
 10
6.763680
 20
4.851000
  0
VERTEX
  8
0
  6
CONTINUOUS
 10
6.778640
 20
4.816680
  0
VERTEX
  8
0
  6
CONTINUOUS
 10
6.774680
 20
4.078360
  0
VERTEX
  8
0
  6
CONTINUOUS
 10
6.759720
 20
4.113120
  0
SEQEND
  8
0
  0
SOLID
  8
0
 62
    15
 10
6.774680
 20
4.078360
 11
6.778640
 21
4.816680
 12
6.786120
 22
4.041840
 13
6.790080
 23
4.779720
  0
POLYLINE
  8
0
  6
CONTINUOUS
 66
     1
 40
0.000000
 41
0.000000
  0
VERTEX
  8
0
  6
CONTINUOUS
 10
6.774680
 20
4.078360
  0
VERTEX
  8
0
  6
CONTINUOUS
 10
6.778640
 20
4.816680
  0
VERTEX
  8
0
  6
CONTINUOUS
 10
6.790080
 20
4.779720
  0
VERTEX
  8
0
  6
CONTINUOUS
 10
6.786120
 20
4.041840
  0
VERTEX
  8
0
  6
CONTINUOUS
 10
6.774680
 20
4.078360
  0
SEQEND
  8
0
  0
SOLID
  8
0
 62
    15
 10
6.794040
 20
4.003120
 11
6.798000
 21
4.741000
 12
6.797560
 22
3.962640
 13
6.801960
 23
4.700520
  0
POLYLINE
  8
0
  6
CONTINUOUS
 66
     1
 40
0.000000
 41
0.000000
  0
VERTEX
  8
0
  6
CONTINUOUS
 10
6.794040
 20
4.003120
  0
VERTEX
  8
0
  6
CONTINUOUS
 10
6.798000
 20
4.741000
  0
VERTEX
  8
0
  6
CONTINUOUS
 10
6.801960
 20
4.700520
  0
VERTEX
  8
0
  6
CONTINUOUS
 10
6.797560
 20
3.962640
  0
VERTEX
  8
0
  6
CONTINUOUS
 10
6.794040
 20
4.003120
  0
SEQEND
  8
0
  0
SOLID
  8
0
 62
    15
 10
6.786120
 20
4.041840
 11
6.790080
 21
4.779720
 12
6.794040
 22
4.003120
 13
6.798000
 23
4.741000
  0
POLYLINE
  8
0
  6
CONTINUOUS
 66
     1
 40
0.000000
 41
0.000000
  0
VERTEX
  8
0
  6
CONTINUOUS
 10
6.786120
 20
4.041840
  0
VERTEX
  8
0
  6
CONTINUOUS
 10
6.790080
 20
4.779720
  0
VERTEX
  8
0
  6
CONTINUOUS
 10
6.798000
 20
4.741000
  0
VERTEX
  8
0
  6
CONTINUOUS
 10
6.794040
 20
4.003120
  0
VERTEX
  8
0
  6
CONTINUOUS
 10
6.786120
 20
4.041840
  0
SEQEND
  8
0
  0
SOLID
  8
0
 62
    15
 10
6.797560
 20
3.920400
 11
6.801520
 21
4.658280
 12
6.798000
 22
3.920400
 13
6.801960
 23
4.658280
  0
POLYLINE
  8
0
  6
CONTINUOUS
 66
     1
 40
0.000000
 41
0.000000
  0
VERTEX
  8
0
  6
CONTINUOUS
 10
6.797560
 20
3.920400
  0
VERTEX
  8
0
  6
CONTINUOUS
 10
6.801520
 20
4.658280
  0
VERTEX
  8
0
  6
CONTINUOUS
 10
6.801960
 20
4.658280
  0
VERTEX
  8
0
  6
CONTINUOUS
 10
6.798000
 20
3.920400
  0
VERTEX
  8
0
  6
CONTINUOUS
 10
6.797560
 20
3.920400
  0
SEQEND
  8
0
  0
SOLID
  8
0
 62
    15
 10
6.797560
 20
3.962640
 11
6.801960
 21
4.700520
 12
6.797560
 22
3.920400
 13
6.801520
 23
4.658280
  0
POLYLINE
  8
0
  6
CONTINUOUS
 66
     1
 40
0.000000
 41
0.000000
  0
VERTEX
  8
0
  6
CONTINUOUS
 10
6.797560
 20
3.962640
  0
VERTEX
  8
0
  6
CONTINUOUS
 10
6.801960
 20
4.700520
  0
VERTEX
  8
0
  6
CONTINUOUS
 10
6.801520
 20
4.658280
  0
VERTEX
  8
0
  6
CONTINUOUS
 10
6.797560
 20
3.920400
  0
VERTEX
  8
0
  6
CONTINUOUS
 10
6.797560
 20
3.962640
  0
SEQEND
  8
0
  0
POLYLINE
  8
0
  6
CONTINUOUS
 66
     1
 40
0.000000
 41
0.000000
  0
VERTEX
  8
0
  6
CONTINUOUS
 10
6.798000
 20
3.920400
  0
VERTEX
  8
0
  6
CONTINUOUS
 10
6.798000
 20
3.896640
  0
VERTEX
  8
0
  6
CONTINUOUS
 10
3.757600
 20
3.896640
  0
VERTEX
  8
0
  6
CONTINUOUS
 10
3.757600
 20
4.568960
  0
VERTEX
  8
0
  6
CONTINUOUS
 10
4.713720
 20
4.568960
  0
VERTEX
  8
0
  6
CONTINUOUS
 10
4.737480
 20
4.389000
  0
VERTEX
  8
0
  6
CONTINUOUS
 10
5.655760
 20
4.389000
  0
VERTEX
  8
0
  6
CONTINUOUS
 10
5.663680
 20
4.440040
  0
VERTEX
  8
0
  6
CONTINUOUS
 10
5.681280
 20
4.484920
  0
VERTEX
  8
0
  6
CONTINUOUS
 10
5.707240
 20
4.523640
  0
VERTEX
  8
0
  6
CONTINUOUS
 10
5.740240
 20
4.555320
  0
VERTEX
  8
0
  6
CONTINUOUS
 10
5.779400
 20
4.580840
  0
VERTEX
  8
0
  6
CONTINUOUS
 10
5.822520
 20
4.599760
  0
VERTEX
  8
0
  6
CONTINUOUS
 10
5.868720
 20
4.611640
  0
VERTEX
  8
0
  6
CONTINUOUS
 10
5.916240
 20
4.616480
  0
VERTEX
  8
0
  6
CONTINUOUS
 10
5.964200
 20
4.614280
  0
VERTEX
  8
0
  6
CONTINUOUS
 10
6.011280
 20
4.605040
  0
VERTEX
  8
0
  6
CONTINUOUS
 10
6.055720
 20
4.588760
  0
VERTEX
  8
0
  6
CONTINUOUS
 10
6.095760
 20
4.565000
  0
VERTEX
  8
0
  6
CONTINUOUS
 10
6.130960
 20
4.533760
  0
VERTEX
  8
0
  6
CONTINUOUS
 10
6.159560
 20
4.494600
  0
VERTEX
  8
0
  6
CONTINUOUS
 10
6.179800
 20
4.448400
  0
VERTEX
  8
0
  6
CONTINUOUS
 10
6.190800
 20
4.394280
  0
VERTEX
  8
0
  6
CONTINUOUS
 10
6.378240
 20
4.394280
  0
VERTEX
  8
0
  6
CONTINUOUS
 10
6.394080
 20
4.312440
  0
VERTEX
  8
0
  6
CONTINUOUS
 10
6.439840
 20
4.310240
  0
VERTEX
  8
0
  6
CONTINUOUS
 10
6.483840
 20
4.304960
  0
VERTEX
  8
0
  6
CONTINUOUS
 10
6.525640
 20
4.295720
  0
VERTEX
  8
0
  6
CONTINUOUS
 10
6.564800
 20
4.283400
  0
VERTEX
  8
0
  6
CONTINUOUS
 10
6.601320
 20
4.267560
  0
VERTEX
  8
0
  6
CONTINUOUS
 10
6.635200
 20
4.248640
  0
VERTEX
  8
0
  6
CONTINUOUS
 10
6.666440
 20
4.227080
  0
VERTEX
  8
0
  6
CONTINUOUS
 10
6.694600
 20
4.202440
  0
VERTEX
  8
0
  6
CONTINUOUS
 10
6.719240
 20
4.175160
  0
VERTEX
  8
0
  6
CONTINUOUS
 10
6.741240
 20
4.145240
  0
VERTEX
  8
0
  6
CONTINUOUS
 10
6.759720
 20
4.113120
  0
VERTEX
  8
0
  6
CONTINUOUS
 10
6.774680
 20
4.078360
  0
VERTEX
  8
0
  6
CONTINUOUS
 10
6.786120
 20
4.041840
  0
VERTEX
  8
0
  6
CONTINUOUS
 10
6.794040
 20
4.003120
  0
VERTEX
  8
0
  6
CONTINUOUS
 10
6.797560
 20
3.962640
  0
VERTEX
  8
0
  6
CONTINUOUS
 10
6.797560
 20
3.920400
  0
VERTEX
  8
0
  6
CONTINUOUS
 10
6.798000
 20
3.920400
  0
SEQEND
  8
0
  0
SOLID
  8
0
 62
    15
 10
3.287240
 20
5.514960
 11
3.282400
 21
6.261200
 12
3.364680
 22
5.482840
 13
3.359840
 23
6.229080
  0
POLYLINE
  8
0
  6
CONTINUOUS
 66
     1
 40
0.000000
 41
0.000000
  0
VERTEX
  8
0
  6
CONTINUOUS
 10
3.287240
 20
5.514960
  0
VERTEX
  8
0
  6
CONTINUOUS
 10
3.282400
 20
6.261200
  0
VERTEX
  8
0
  6
CONTINUOUS
 10
3.359840
 20
6.229080
  0
VERTEX
  8
0
  6
CONTINUOUS
 10
3.364680
 20
5.482840
  0
VERTEX
  8
0
  6
CONTINUOUS
 10
3.287240
 20
5.514960
  0
SEQEND
  8
0
  0
SOLID
  8
0
 62
    15
 10
1.452000
 20
3.896640
 11
1.447160
 21
4.642880
 12
1.452000
 22
5.275160
 13
1.447160
 23
6.021400
  0
POLYLINE
  8
0
  6
CONTINUOUS
 66
     1
 40
0.000000
 41
0.000000
  0
VERTEX
  8
0
  6
CONTINUOUS
 10
1.452000
 20
3.896640
  0
VERTEX
  8
0
  6
CONTINUOUS
 10
1.447160
 20
4.642880
  0
VERTEX
  8
0
  6
CONTINUOUS
 10
1.447160
 20
6.021400
  0
VERTEX
  8
0
  6
CONTINUOUS
 10
1.452000
 20
5.275160
  0
VERTEX
  8
0
  6
CONTINUOUS
 10
1.452000
 20
3.896640
  0
SEQEND
  8
0
  0
SOLID
  8
0
 62
    15
 10
1.452000
 20
5.275160
 11
1.447160
 21
6.021400
 12
1.598960
 22
5.275160
 13
1.594120
 23
6.021400
  0
POLYLINE
  8
0
  6
CONTINUOUS
 66
     1
 40
0.000000
 41
0.000000
  0
VERTEX
  8
0
  6
CONTINUOUS
 10
1.452000
 20
5.275160
  0
VERTEX
  8
0
  6
CONTINUOUS
 10
1.447160
 20
6.021400
  0
VERTEX
  8
0
  6
CONTINUOUS
 10
1.594120
 20
6.021400
  0
VERTEX
  8
0
  6
CONTINUOUS
 10
1.598960
 20
5.275160
  0
VERTEX
  8
0
  6
CONTINUOUS
 10
1.452000
 20
5.275160
  0
SEQEND
  8
0
  0
SOLID
  8
0
 62
    15
 10
1.598960
 20
5.275160
 11
1.594120
 21
6.021400
 12
1.601600
 22
5.328400
 13
1.596760
 23
6.074640
  0
POLYLINE
  8
0
  6
CONTINUOUS
 66
     1
 40
0.000000
 41
0.000000
  0
VERTEX
  8
0
  6
CONTINUOUS
 10
1.598960
 20
5.275160
  0
VERTEX
  8
0
  6
CONTINUOUS
 10
1.594120
 20
6.021400
  0
VERTEX
  8
0
  6
CONTINUOUS
 10
1.596760
 20
6.074640
  0
VERTEX
  8
0
  6
CONTINUOUS
 10
1.601600
 20
5.328400
  0
VERTEX
  8
0
  6
CONTINUOUS
 10
1.598960
 20
5.275160
  0
SEQEND
  8
0
  0
SOLID
  8
0
 62
    15
 10
1.609960
 20
5.374600
 11
1.605120
 21
6.120840
 12
1.639880
 22
5.448960
 13
1.635040
 23
6.195200
  0
POLYLINE
  8
0
  6
CONTINUOUS
 66
     1
 40
0.000000
 41
0.000000
  0
VERTEX
  8
0
  6
CONTINUOUS
 10
1.609960
 20
5.374600
  0
VERTEX
  8
0
  6
CONTINUOUS
 10
1.605120
 20
6.120840
  0
VERTEX
  8
0
  6
CONTINUOUS
 10
1.635040
 20
6.195200
  0
VERTEX
  8
0
  6
CONTINUOUS
 10
1.639880
 20
5.448960
  0
VERTEX
  8
0
  6
CONTINUOUS
 10
1.609960
 20
5.374600
  0
SEQEND
  8
0
  0
SOLID
  8
0
 62
    15
 10
1.639880
 20
5.448960
 11
1.635040
 21
6.195200
 12
1.685640
 22
5.501320
 13
1.680800
 23
6.247560
  0
POLYLINE
  8
0
  6
CONTINUOUS
 66
     1
 40
0.000000
 41
0.000000
  0
VERTEX
  8
0
  6
CONTINUOUS
 10
1.639880
 20
5.448960
  0
VERTEX
  8
0
  6
CONTINUOUS
 10
1.635040
 20
6.195200
  0
VERTEX
  8
0
  6
CONTINUOUS
 10
1.680800
 20
6.247560
  0
VERTEX
  8
0
  6
CONTINUOUS
 10
1.685640
 20
5.501320
  0
VERTEX
  8
0
  6
CONTINUOUS
 10
1.639880
 20
5.448960
  0
SEQEND
  8
0
  0
SOLID
  8
0
 62
    15
 10
1.685640
 20
5.501320
 11
1.680800
 21
6.247560
 12
1.743280
 22
5.535640
 13
1.738440
 23
6.281880
  0
POLYLINE
  8
0
  6
CONTINUOUS
 66
     1
 40
0.000000
 41
0.000000
  0
VERTEX
  8
0
  6
CONTINUOUS
 10
1.685640
 20
5.501320
  0
VERTEX
  8
0
  6
CONTINUOUS
 10
1.680800
 20
6.247560
  0
VERTEX
  8
0
  6
CONTINUOUS
 10
1.738440
 20
6.281880
  0
VERTEX
  8
0
  6
CONTINUOUS
 10
1.743280
 20
5.535640
  0
VERTEX
  8
0
  6
CONTINUOUS
 10
1.685640
 20
5.501320
  0
SEQEND
  8
0
  0
SOLID
  8
0
 62
    15
 10
1.743280
 20
5.535640
 11
1.738440
 21
6.281880
 12
1.808840
 22
5.555440
 13
1.804000
 23
6.301680
  0
POLYLINE
  8
0
  6
CONTINUOUS
 66
     1
 40
0.000000
 41
0.000000
  0
VERTEX
  8
0
  6
CONTINUOUS
 10
1.743280
 20
5.535640
  0
VERTEX
  8
0
  6
CONTINUOUS
 10
1.738440
 20
6.281880
  0
VERTEX
  8
0
  6
CONTINUOUS
 10
1.804000
 20
6.301680
  0
VERTEX
  8
0
  6
CONTINUOUS
 10
1.808840
 20
5.555440
  0
VERTEX
  8
0
  6
CONTINUOUS
 10
1.743280
 20
5.535640
  0
SEQEND
  8
0
  0
SOLID
  8
0
 62
    15
 10
1.808840
 20
5.555440
 11
1.804000
 21
6.301680
 12
1.878800
 22
5.565560
 13
1.873960
 23
6.311800
  0
POLYLINE
  8
0
  6
CONTINUOUS
 66
     1
 40
0.000000
 41
0.000000
  0
VERTEX
  8
0
  6
CONTINUOUS
 10
1.808840
 20
5.555440
  0
VERTEX
  8
0
  6
CONTINUOUS
 10
1.804000
 20
6.301680
  0
VERTEX
  8
0
  6
CONTINUOUS
 10
1.873960
 20
6.311800
  0
VERTEX
  8
0
  6
CONTINUOUS
 10
1.878800
 20
5.565560
  0
VERTEX
  8
0
  6
CONTINUOUS
 10
1.808840
 20
5.555440
  0
SEQEND
  8
0
  0
SOLID
  8
0
 62
    15
 10
1.878800
 20
5.565560
 11
1.873960
 21
6.311800
 12
1.949200
 22
5.568640
 13
1.944360
 23
6.314880
  0
POLYLINE
  8
0
  6
CONTINUOUS
 66
     1
 40
0.000000
 41
0.000000
  0
VERTEX
  8
0
  6
CONTINUOUS
 10
1.878800
 20
5.565560
  0
VERTEX
  8
0
  6
CONTINUOUS
 10
1.873960
 20
6.311800
  0
VERTEX
  8
0
  6
CONTINUOUS
 10
1.944360
 20
6.314880
  0
VERTEX
  8
0
  6
CONTINUOUS
 10
1.949200
 20
5.568640
  0
VERTEX
  8
0
  6
CONTINUOUS
 10
1.878800
 20
5.565560
  0
SEQEND
  8
0
  0
SOLID
  8
0
 62
    15
 10
1.949200
 20
5.568640
 11
1.944360
 21
6.314880
 12
1.983520
 22
5.568640
 13
1.978680
 23
6.314880
  0
POLYLINE
  8
0
  6
CONTINUOUS
 66
     1
 40
0.000000
 41
0.000000
  0
VERTEX
  8
0
  6
CONTINUOUS
 10
1.949200
 20
5.568640
  0
VERTEX
  8
0
  6
CONTINUOUS
 10
1.944360
 20
6.314880
  0
VERTEX
  8
0
  6
CONTINUOUS
 10
1.978680
 20
6.314880
  0
VERTEX
  8
0
  6
CONTINUOUS
 10
1.983520
 20
5.568640
  0
VERTEX
  8
0
  6
CONTINUOUS
 10
1.949200
 20
5.568640
  0
SEQEND
  8
0
  0
SOLID
  8
0
 62
    15
 10
1.983520
 20
5.568640
 11
1.978680
 21
6.314880
 12
2.016520
 22
5.568640
 13
2.011680
 23
6.314880
  0
POLYLINE
  8
0
  6
CONTINUOUS
 66
     1
 40
0.000000
 41
0.000000
  0
VERTEX
  8
0
  6
CONTINUOUS
 10
1.983520
 20
5.568640
  0
VERTEX
  8
0
  6
CONTINUOUS
 10
1.978680
 20
6.314880
  0
VERTEX
  8
0
  6
CONTINUOUS
 10
2.011680
 20
6.314880
  0
VERTEX
  8
0
  6
CONTINUOUS
 10
2.016520
 20
5.568640
  0
VERTEX
  8
0
  6
CONTINUOUS
 10
1.983520
 20
5.568640
  0
SEQEND
  8
0
  0
SOLID
  8
0
 62
    15
 10
2.016520
 20
5.568640
 11
2.011680
 21
6.314880
 12
2.016520
 22
5.649160
 13
2.011680
 23
6.395400
  0
POLYLINE
  8
0
  6
CONTINUOUS
 66
     1
 40
0.000000
 41
0.000000
  0
VERTEX
  8
0
  6
CONTINUOUS
 10
2.016520
 20
5.568640
  0
VERTEX
  8
0
  6
CONTINUOUS
 10
2.011680
 20
6.314880
  0
VERTEX
  8
0
  6
CONTINUOUS
 10
2.011680
 20
6.395400
  0
VERTEX
  8
0
  6
CONTINUOUS
 10
2.016520
 20
5.649160
  0
VERTEX
  8
0
  6
CONTINUOUS
 10
2.016520
 20
5.568640
  0
SEQEND
  8
0
  0
SOLID
  8
0
 62
    15
 10
2.016520
 20
5.649160
 11
2.011680
 21
6.395400
 12
2.816440
 22
5.649160
 13
2.811600
 23
6.395400
  0
POLYLINE
  8
0
  6
CONTINUOUS
 66
     1
 40
0.000000
 41
0.000000
  0
VERTEX
  8
0
  6
CONTINUOUS
 10
2.016520
 20
5.649160
  0
VERTEX
  8
0
  6
CONTINUOUS
 10
2.011680
 20
6.395400
  0
VERTEX
  8
0
  6
CONTINUOUS
 10
2.811600
 20
6.395400
  0
VERTEX
  8
0
  6
CONTINUOUS
 10
2.816440
 20
5.649160
  0
VERTEX
  8
0
  6
CONTINUOUS
 10
2.016520
 20
5.649160
  0
SEQEND
  8
0
  0
SOLID
  8
0
 62
    15
 10
2.816440
 20
5.649160
 11
2.811600
 21
6.395400
 12
2.832280
 22
5.500000
 13
2.827440
 23
6.246240
  0
POLYLINE
  8
0
  6
CONTINUOUS
 66
     1
 40
0.000000
 41
0.000000
  0
VERTEX
  8
0
  6
CONTINUOUS
 10
2.816440
 20
5.649160
  0
VERTEX
  8
0
  6
CONTINUOUS
 10
2.811600
 20
6.395400
  0
VERTEX
  8
0
  6
CONTINUOUS
 10
2.827440
 20
6.246240
  0
VERTEX
  8
0
  6
CONTINUOUS
 10
2.832280
 20
5.500000
  0
VERTEX
  8
0
  6
CONTINUOUS
 10
2.816440
 20
5.649160
  0
SEQEND
  8
0
  0
SOLID
  8
0
 62
    15
 10
2.832280
 20
5.500000
 11
2.827440
 21
6.246240
 12
2.900920
 22
5.531240
 13
2.896080
 23
6.277480
  0
POLYLINE
  8
0
  6
CONTINUOUS
 66
     1
 40
0.000000
 41
0.000000
  0
VERTEX
  8
0
  6
CONTINUOUS
 10
2.832280
 20
5.500000
  0
VERTEX
  8
0
  6
CONTINUOUS
 10
2.827440
 20
6.246240
  0
VERTEX
  8
0
  6
CONTINUOUS
 10
2.896080
 20
6.277480
  0
VERTEX
  8
0
  6
CONTINUOUS
 10
2.900920
 20
5.531240
  0
VERTEX
  8
0
  6
CONTINUOUS
 10
2.832280
 20
5.500000
  0
SEQEND
  8
0
  0
SOLID
  8
0
 62
    15
 10
2.900920
 20
5.531240
 11
2.896080
 21
6.277480
 12
2.973960
 22
5.550160
 13
2.969120
 23
6.296400
  0
POLYLINE
  8
0
  6
CONTINUOUS
 66
     1
 40
0.000000
 41
0.000000
  0
VERTEX
  8
0
  6
CONTINUOUS
 10
2.900920
 20
5.531240
  0
VERTEX
  8
0
  6
CONTINUOUS
 10
2.896080
 20
6.277480
  0
VERTEX
  8
0
  6
CONTINUOUS
 10
2.969120
 20
6.296400
  0
VERTEX
  8
0
  6
CONTINUOUS
 10
2.973960
 20
5.550160
  0
VERTEX
  8
0
  6
CONTINUOUS
 10
2.900920
 20
5.531240
  0
SEQEND
  8
0
  0
SOLID
  8
0
 62
    15
 10
2.973960
 20
5.550160
 11
2.969120
 21
6.296400
 12
3.050080
 22
5.557200
 13
3.045680
 23
6.303440
  0
POLYLINE
  8
0
  6
CONTINUOUS
 66
     1
 40
0.000000
 41
0.000000
  0
VERTEX
  8
0
  6
CONTINUOUS
 10
2.973960
 20
5.550160
  0
VERTEX
  8
0
  6
CONTINUOUS
 10
2.969120
 20
6.296400
  0
VERTEX
  8
0
  6
CONTINUOUS
 10
3.045680
 20
6.303440
  0
VERTEX
  8
0
  6
CONTINUOUS
 10
3.050080
 20
5.557200
  0
VERTEX
  8
0
  6
CONTINUOUS
 10
2.973960
 20
5.550160
  0
SEQEND
  8
0
  0
SOLID
  8
0
 62
    15
 10
3.050080
 20
5.557200
 11
3.045680
 21
6.303440
 12
3.128840
 22
5.553240
 13
3.124000
 23
6.299480
  0
POLYLINE
  8
0
  6
CONTINUOUS
 66
     1
 40
0.000000
 41
0.000000
  0
VERTEX
  8
0
  6
CONTINUOUS
 10
3.050080
 20
5.557200
  0
VERTEX
  8
0
  6
CONTINUOUS
 10
3.045680
 20
6.303440
  0
VERTEX
  8
0
  6
CONTINUOUS
 10
3.124000
 20
6.299480
  0
VERTEX
  8
0
  6
CONTINUOUS
 10
3.128840
 20
5.553240
  0
VERTEX
  8
0
  6
CONTINUOUS
 10
3.050080
 20
5.557200
  0
SEQEND
  8
0
  0
SOLID
  8
0
 62
    15
 10
3.128840
 20
5.553240
 11
3.124000
 21
6.299480
 12
3.208480
 22
5.538720
 13
3.203640
 23
6.284960
  0
POLYLINE
  8
0
  6
CONTINUOUS
 66
     1
 40
0.000000
 41
0.000000
  0
VERTEX
  8
0
  6
CONTINUOUS
 10
3.128840
 20
5.553240
  0
VERTEX
  8
0
  6
CONTINUOUS
 10
3.124000
 20
6.299480
  0
VERTEX
  8
0
  6
CONTINUOUS
 10
3.203640
 20
6.284960
  0
VERTEX
  8
0
  6
CONTINUOUS
 10
3.208480
 20
5.538720
  0
VERTEX
  8
0
  6
CONTINUOUS
 10
3.128840
 20
5.553240
  0
SEQEND
  8
0
  0
SOLID
  8
0
 62
    15
 10
3.208480
 20
5.538720
 11
3.203640
 21
6.284960
 12
3.287240
 22
5.514960
 13
3.282400
 23
6.261200
  0
POLYLINE
  8
0
  6
CONTINUOUS
 66
     1
 40
0.000000
 41
0.000000
  0
VERTEX
  8
0
  6
CONTINUOUS
 10
3.208480
 20
5.538720
  0
VERTEX
  8
0
  6
CONTINUOUS
 10
3.203640
 20
6.284960
  0
VERTEX
  8
0
  6
CONTINUOUS
 10
3.282400
 20
6.261200
  0
VERTEX
  8
0
  6
CONTINUOUS
 10
3.287240
 20
5.514960
  0
VERTEX
  8
0
  6
CONTINUOUS
 10
3.208480
 20
5.538720
  0
SEQEND
  8
0
  0
SOLID
  8
0
 62
    15
 10
1.601600
 20
5.328400
 11
1.596760
 21
6.074640
 12
1.609960
 22
5.374600
 13
1.605120
 23
6.120840
  0
POLYLINE
  8
0
  6
CONTINUOUS
 66
     1
 40
0.000000
 41
0.000000
  0
VERTEX
  8
0
  6
CONTINUOUS
 10
1.601600
 20
5.328400
  0
VERTEX
  8
0
  6
CONTINUOUS
 10
1.596760
 20
6.074640
  0
VERTEX
  8
0
  6
CONTINUOUS
 10
1.605120
 20
6.120840
  0
VERTEX
  8
0
  6
CONTINUOUS
 10
1.609960
 20
5.374600
  0
VERTEX
  8
0
  6
CONTINUOUS
 10
1.601600
 20
5.328400
  0
SEQEND
  8
0
  0
SOLID
  8
0
 62
    15
 10
3.364680
 20
5.482840
 11
3.359840
 21
6.229080
 12
3.439480
 22
5.442360
 13
3.434640
 23
6.188600
  0
POLYLINE
  8
0
  6
CONTINUOUS
 66
     1
 40
0.000000
 41
0.000000
  0
VERTEX
  8
0
  6
CONTINUOUS
 10
3.364680
 20
5.482840
  0
VERTEX
  8
0
  6
CONTINUOUS
 10
3.359840
 20
6.229080
  0
VERTEX
  8
0
  6
CONTINUOUS
 10
3.434640
 20
6.188600
  0
VERTEX
  8
0
  6
CONTINUOUS
 10
3.439480
 20
5.442360
  0
VERTEX
  8
0
  6
CONTINUOUS
 10
3.364680
 20
5.482840
  0
SEQEND
  8
0
  0
SOLID
  8
0
 62
    15
 10
3.439480
 20
5.442360
 11
3.434640
 21
6.188600
 12
3.575000
 22
5.341600
 13
3.570160
 23
6.087840
  0
POLYLINE
  8
0
  6
CONTINUOUS
 66
     1
 40
0.000000
 41
0.000000
  0
VERTEX
  8
0
  6
CONTINUOUS
 10
3.439480
 20
5.442360
  0
VERTEX
  8
0
  6
CONTINUOUS
 10
3.434640
 20
6.188600
  0
VERTEX
  8
0
  6
CONTINUOUS
 10
3.570160
 20
6.087840
  0
VERTEX
  8
0
  6
CONTINUOUS
 10
3.575000
 20
5.341600
  0
VERTEX
  8
0
  6
CONTINUOUS
 10
3.439480
 20
5.442360
  0
SEQEND
  8
0
  0
SOLID
  8
0
 62
    15
 10
3.575000
 20
5.341600
 11
3.570160
 21
6.087840
 12
3.633520
 22
5.282200
 13
3.628680
 23
6.028440
  0
POLYLINE
  8
0
  6
CONTINUOUS
 66
     1
 40
0.000000
 41
0.000000
  0
VERTEX
  8
0
  6
CONTINUOUS
 10
3.575000
 20
5.341600
  0
VERTEX
  8
0
  6
CONTINUOUS
 10
3.570160
 20
6.087840
  0
VERTEX
  8
0
  6
CONTINUOUS
 10
3.628680
 20
6.028440
  0
VERTEX
  8
0
  6
CONTINUOUS
 10
3.633520
 20
5.282200
  0
VERTEX
  8
0
  6
CONTINUOUS
 10
3.575000
 20
5.341600
  0
SEQEND
  8
0
  0
SOLID
  8
0
 62
    15
 10
3.633520
 20
5.282200
 11
3.628680
 21
6.028440
 12
3.684120
 22
5.217960
 13
3.679280
 23
5.964200
  0
POLYLINE
  8
0
  6
CONTINUOUS
 66
     1
 40
0.000000
 41
0.000000
  0
VERTEX
  8
0
  6
CONTINUOUS
 10
3.633520
 20
5.282200
  0
VERTEX
  8
0
  6
CONTINUOUS
 10
3.628680
 20
6.028440
  0
VERTEX
  8
0
  6
CONTINUOUS
 10
3.679280
 20
5.964200
  0
VERTEX
  8
0
  6
CONTINUOUS
 10
3.684120
 20
5.217960
  0
VERTEX
  8
0
  6
CONTINUOUS
 10
3.633520
 20
5.282200
  0
SEQEND
  8
0
  0
SOLID
  8
0
 62
    15
 10
3.684120
 20
5.217960
 11
3.679280
 21
5.964200
 12
3.725920
 22
5.150200
 13
3.721080
 23
5.896440
  0
POLYLINE
  8
0
  6
CONTINUOUS
 66
     1
 40
0.000000
 41
0.000000
  0
VERTEX
  8
0
  6
CONTINUOUS
 10
3.684120
 20
5.217960
  0
VERTEX
  8
0
  6
CONTINUOUS
 10
3.679280
 20
5.964200
  0
VERTEX
  8
0
  6
CONTINUOUS
 10
3.721080
 20
5.896440
  0
VERTEX
  8
0
  6
CONTINUOUS
 10
3.725920
 20
5.150200
  0
VERTEX
  8
0
  6
CONTINUOUS
 10
3.684120
 20
5.217960
  0
SEQEND
  8
0
  0
SOLID
  8
0
 62
    15
 10
3.725920
 20
5.150200
 11
3.721080
 21
5.896440
 12
3.756720
 22
5.078920
 13
3.751880
 23
5.825160
  0
POLYLINE
  8
0
  6
CONTINUOUS
 66
     1
 40
0.000000
 41
0.000000
  0
VERTEX
  8
0
  6
CONTINUOUS
 10
3.725920
 20
5.150200
  0
VERTEX
  8
0
  6
CONTINUOUS
 10
3.721080
 20
5.896440
  0
VERTEX
  8
0
  6
CONTINUOUS
 10
3.751880
 20
5.825160
  0
VERTEX
  8
0
  6
CONTINUOUS
 10
3.756720
 20
5.078920
  0
VERTEX
  8
0
  6
CONTINUOUS
 10
3.725920
 20
5.150200
  0
SEQEND
  8
0
  0
SOLID
  8
0
 62
    15
 10
3.783120
 20
4.930200
 11
3.778280
 21
5.676440
 12
3.828880
 22
4.981680
 13
3.824040
 23
5.727920
  0
POLYLINE
  8
0
  6
CONTINUOUS
 66
     1
 40
0.000000
 41
0.000000
  0
VERTEX
  8
0
  6
CONTINUOUS
 10
3.783120
 20
4.930200
  0
VERTEX
  8
0
  6
CONTINUOUS
 10
3.778280
 20
5.676440
  0
VERTEX
  8
0
  6
CONTINUOUS
 10
3.824040
 20
5.727920
  0
VERTEX
  8
0
  6
CONTINUOUS
 10
3.828880
 20
4.981680
  0
VERTEX
  8
0
  6
CONTINUOUS
 10
3.783120
 20
4.930200
  0
SEQEND
  8
0
  0
SOLID
  8
0
 62
    15
 10
3.776520
 20
5.005440
 11
3.771680
 21
5.751680
 12
3.783120
 22
4.930200
 13
3.778280
 23
5.676440
  0
POLYLINE
  8
0
  6
CONTINUOUS
 66
     1
 40
0.000000
 41
0.000000
  0
VERTEX
  8
0
  6
CONTINUOUS
 10
3.776520
 20
5.005440
  0
VERTEX
  8
0
  6
CONTINUOUS
 10
3.771680
 20
5.751680
  0
VERTEX
  8
0
  6
CONTINUOUS
 10
3.778280
 20
5.676440
  0
VERTEX
  8
0
  6
CONTINUOUS
 10
3.783120
 20
4.930200
  0
VERTEX
  8
0
  6
CONTINUOUS
 10
3.776520
 20
5.005440
  0
SEQEND
  8
0
  0
SOLID
  8
0
 62
    15
 10
3.756720
 20
5.078920
 11
3.751880
 21
5.825160
 12
3.776520
 22
5.005440
 13
3.771680
 23
5.751680
  0
POLYLINE
  8
0
  6
CONTINUOUS
 66
     1
 40
0.000000
 41
0.000000
  0
VERTEX
  8
0
  6
CONTINUOUS
 10
3.756720
 20
5.078920
  0
VERTEX
  8
0
  6
CONTINUOUS
 10
3.751880
 20
5.825160
  0
VERTEX
  8
0
  6
CONTINUOUS
 10
3.771680
 20
5.751680
  0
VERTEX
  8
0
  6
CONTINUOUS
 10
3.776520
 20
5.005440
  0
VERTEX
  8
0
  6
CONTINUOUS
 10
3.756720
 20
5.078920
  0
SEQEND
  8
0
  0
SOLID
  8
0
 62
    15
 10
3.828880
 20
4.981680
 11
3.824040
 21
5.727920
 12
3.885640
 22
5.021280
 13
3.880800
 23
5.767520
  0
POLYLINE
  8
0
  6
CONTINUOUS
 66
     1
 40
0.000000
 41
0.000000
  0
VERTEX
  8
0
  6
CONTINUOUS
 10
3.828880
 20
4.981680
  0
VERTEX
  8
0
  6
CONTINUOUS
 10
3.824040
 20
5.727920
  0
VERTEX
  8
0
  6
CONTINUOUS
 10
3.880800
 20
5.767520
  0
VERTEX
  8
0
  6
CONTINUOUS
 10
3.885640
 20
5.021280
  0
VERTEX
  8
0
  6
CONTINUOUS
 10
3.828880
 20
4.981680
  0
SEQEND
  8
0
  0
SOLID
  8
0
 62
    15
 10
3.885640
 20
5.021280
 11
3.880800
 21
5.767520
 12
3.950760
 22
5.046800
 13
3.945920
 23
5.793040
  0
POLYLINE
  8
0
  6
CONTINUOUS
 66
     1
 40
0.000000
 41
0.000000
  0
VERTEX
  8
0
  6
CONTINUOUS
 10
3.885640
 20
5.021280
  0
VERTEX
  8
0
  6
CONTINUOUS
 10
3.880800
 20
5.767520
  0
VERTEX
  8
0
  6
CONTINUOUS
 10
3.945920
 20
5.793040
  0
VERTEX
  8
0
  6
CONTINUOUS
 10
3.950760
 20
5.046800
  0
VERTEX
  8
0
  6
CONTINUOUS
 10
3.885640
 20
5.021280
  0
SEQEND
  8
0
  0
SOLID
  8
0
 62
    15
 10
3.950760
 20
5.046800
 11
3.945920
 21
5.793040
 12
4.022920
 22
5.055600
 13
4.018080
 23
5.801840
  0
POLYLINE
  8
0
  6
CONTINUOUS
 66
     1
 40
0.000000
 41
0.000000
  0
VERTEX
  8
0
  6
CONTINUOUS
 10
3.950760
 20
5.046800
  0
VERTEX
  8
0
  6
CONTINUOUS
 10
3.945920
 20
5.793040
  0
VERTEX
  8
0
  6
CONTINUOUS
 10
4.018080
 20
5.801840
  0
VERTEX
  8
0
  6
CONTINUOUS
 10
4.022920
 20
5.055600
  0
VERTEX
  8
0
  6
CONTINUOUS
 10
3.950760
 20
5.046800
  0
SEQEND
  8
0
  0
SOLID
  8
0
 62
    15
 10
4.022920
 20
5.055600
 11
4.018080
 21
5.801840
 12
4.081440
 22
5.049880
 13
4.076600
 23
5.796120
  0
POLYLINE
  8
0
  6
CONTINUOUS
 66
     1
 40
0.000000
 41
0.000000
  0
VERTEX
  8
0
  6
CONTINUOUS
 10
4.022920
 20
5.055600
  0
VERTEX
  8
0
  6
CONTINUOUS
 10
4.018080
 20
5.801840
  0
VERTEX
  8
0
  6
CONTINUOUS
 10
4.076600
 20
5.796120
  0
VERTEX
  8
0
  6
CONTINUOUS
 10
4.081440
 20
5.049880
  0
VERTEX
  8
0
  6
CONTINUOUS
 10
4.022920
 20
5.055600
  0
SEQEND
  8
0
  0
SOLID
  8
0
 62
    15
 10
4.081440
 20
5.049880
 11
4.076600
 21
5.796120
 12
4.136000
 22
5.033160
 13
4.131160
 23
5.779400
  0
POLYLINE
  8
0
  6
CONTINUOUS
 66
     1
 40
0.000000
 41
0.000000
  0
VERTEX
  8
0
  6
CONTINUOUS
 10
4.081440
 20
5.049880
  0
VERTEX
  8
0
  6
CONTINUOUS
 10
4.076600
 20
5.796120
  0
VERTEX
  8
0
  6
CONTINUOUS
 10
4.131160
 20
5.779400
  0
VERTEX
  8
0
  6
CONTINUOUS
 10
4.136000
 20
5.033160
  0
VERTEX
  8
0
  6
CONTINUOUS
 10
4.081440
 20
5.049880
  0
SEQEND
  8
0
  0
SOLID
  8
0
 62
    15
 10
4.136000
 20
5.033160
 11
4.131160
 21
5.779400
 12
4.185280
 22
5.006320
 13
4.180440
 23
5.752560
  0
POLYLINE
  8
0
  6
CONTINUOUS
 66
     1
 40
0.000000
 41
0.000000
  0
VERTEX
  8
0
  6
CONTINUOUS
 10
4.136000
 20
5.033160
  0
VERTEX
  8
0
  6
CONTINUOUS
 10
4.131160
 20
5.779400
  0
VERTEX
  8
0
  6
CONTINUOUS
 10
4.180440
 20
5.752560
  0
VERTEX
  8
0
  6
CONTINUOUS
 10
4.185280
 20
5.006320
  0
VERTEX
  8
0
  6
CONTINUOUS
 10
4.136000
 20
5.033160
  0
SEQEND
  8
0
  0
SOLID
  8
0
 62
    15
 10
4.185280
 20
5.006320
 11
4.180440
 21
5.752560
 12
4.228400
 22
4.970680
 13
4.223560
 23
5.716920
  0
POLYLINE
  8
0
  6
CONTINUOUS
 66
     1
 40
0.000000
 41
0.000000
  0
VERTEX
  8
0
  6
CONTINUOUS
 10
4.185280
 20
5.006320
  0
VERTEX
  8
0
  6
CONTINUOUS
 10
4.180440
 20
5.752560
  0
VERTEX
  8
0
  6
CONTINUOUS
 10
4.223560
 20
5.716920
  0
VERTEX
  8
0
  6
CONTINUOUS
 10
4.228400
 20
4.970680
  0
VERTEX
  8
0
  6
CONTINUOUS
 10
4.185280
 20
5.006320
  0
SEQEND
  8
0
  0
SOLID
  8
0
 62
    15
 10
4.236760
 20
4.568080
 11
4.231920
 21
5.314320
 12
4.236760
 22
4.568960
 13
4.231920
 23
5.314760
  0
POLYLINE
  8
0
  6
CONTINUOUS
 66
     1
 40
0.000000
 41
0.000000
  0
VERTEX
  8
0
  6
CONTINUOUS
 10
4.236760
 20
4.568080
  0
VERTEX
  8
0
  6
CONTINUOUS
 10
4.231920
 20
5.314320
  0
VERTEX
  8
0
  6
CONTINUOUS
 10
4.231920
 20
5.314760
  0
VERTEX
  8
0
  6
CONTINUOUS
 10
4.236760
 20
4.568960
  0
VERTEX
  8
0
  6
CONTINUOUS
 10
4.236760
 20
4.568080
  0
SEQEND
  8
0
  0
SOLID
  8
0
 62
    15
 10
4.264040
 20
4.927560
 11
4.259200
 21
5.673800
 12
4.290880
 22
4.878280
 13
4.286040
 23
5.624520
  0
POLYLINE
  8
0
  6
CONTINUOUS
 66
     1
 40
0.000000
 41
0.000000
  0
VERTEX
  8
0
  6
CONTINUOUS
 10
4.264040
 20
4.927560
  0
VERTEX
  8
0
  6
CONTINUOUS
 10
4.259200
 20
5.673800
  0
VERTEX
  8
0
  6
CONTINUOUS
 10
4.286040
 20
5.624520
  0
VERTEX
  8
0
  6
CONTINUOUS
 10
4.290880
 20
4.878280
  0
VERTEX
  8
0
  6
CONTINUOUS
 10
4.264040
 20
4.927560
  0
SEQEND
  8
0
  0
SOLID
  8
0
 62
    15
 10
4.307600
 20
4.823720
 11
4.302760
 21
5.569960
 12
4.313760
 22
4.764760
 13
4.308920
 23
5.511000
  0
POLYLINE
  8
0
  6
CONTINUOUS
 66
     1
 40
0.000000
 41
0.000000
  0
VERTEX
  8
0
  6
CONTINUOUS
 10
4.307600
 20
4.823720
  0
VERTEX
  8
0
  6
CONTINUOUS
 10
4.302760
 20
5.569960
  0
VERTEX
  8
0
  6
CONTINUOUS
 10
4.308920
 20
5.511000
  0
VERTEX
  8
0
  6
CONTINUOUS
 10
4.313760
 20
4.764760
  0
VERTEX
  8
0
  6
CONTINUOUS
 10
4.307600
 20
4.823720
  0
SEQEND
  8
0
  0
SOLID
  8
0
 62
    15
 10
4.290880
 20
4.878280
 11
4.286040
 21
5.624520
 12
4.307600
 22
4.823720
 13
4.302760
 23
5.569960
  0
POLYLINE
  8
0
  6
CONTINUOUS
 66
     1
 40
0.000000
 41
0.000000
  0
VERTEX
  8
0
  6
CONTINUOUS
 10
4.290880
 20
4.878280
  0
VERTEX
  8
0
  6
CONTINUOUS
 10
4.286040
 20
5.624520
  0
VERTEX
  8
0
  6
CONTINUOUS
 10
4.302760
 20
5.569960
  0
VERTEX
  8
0
  6
CONTINUOUS
 10
4.307600
 20
4.823720
  0
VERTEX
  8
0
  6
CONTINUOUS
 10
4.290880
 20
4.878280
  0
SEQEND
  8
0
  0
SOLID
  8
0
 62
    15
 10
4.228400
 20
4.970680
 11
4.223560
 21
5.716920
 12
4.264040
 22
4.927560
 13
4.259200
 23
5.673800
  0
POLYLINE
  8
0
  6
CONTINUOUS
 66
     1
 40
0.000000
 41
0.000000
  0
VERTEX
  8
0
  6
CONTINUOUS
 10
4.228400
 20
4.970680
  0
VERTEX
  8
0
  6
CONTINUOUS
 10
4.223560
 20
5.716920
  0
VERTEX
  8
0
  6
CONTINUOUS
 10
4.259200
 20
5.673800
  0
VERTEX
  8
0
  6
CONTINUOUS
 10
4.264040
 20
4.927560
  0
VERTEX
  8
0
  6
CONTINUOUS
 10
4.228400
 20
4.970680
  0
SEQEND
  8
0
  0
POLYLINE
  8
0
  6
CONTINUOUS
 66
     1
 40
0.000000
 41
0.000000
  0
VERTEX
  8
0
  6
CONTINUOUS
 10
4.236760
 20
4.568960
  0
VERTEX
  8
0
  6
CONTINUOUS
 10
3.776960
 20
4.568960
  0
VERTEX
  8
0
  6
CONTINUOUS
 10
3.776960
 20
3.896640
  0
VERTEX
  8
0
  6
CONTINUOUS
 10
1.452000
 20
3.896640
  0
VERTEX
  8
0
  6
CONTINUOUS
 10
1.452000
 20
5.275160
  0
VERTEX
  8
0
  6
CONTINUOUS
 10
1.598960
 20
5.275160
  0
VERTEX
  8
0
  6
CONTINUOUS
 10
1.601600
 20
5.328400
  0
VERTEX
  8
0
  6
CONTINUOUS
 10
1.609960
 20
5.374600
  0
VERTEX
  8
0
  6
CONTINUOUS
 10
1.639880
 20
5.448960
  0
VERTEX
  8
0
  6
CONTINUOUS
 10
1.685640
 20
5.501320
  0
VERTEX
  8
0
  6
CONTINUOUS
 10
1.743280
 20
5.535640
  0
VERTEX
  8
0
  6
CONTINUOUS
 10
1.808840
 20
5.555440
  0
VERTEX
  8
0
  6
CONTINUOUS
 10
1.878800
 20
5.565560
  0
VERTEX
  8
0
  6
CONTINUOUS
 10
1.949200
 20
5.568640
  0
VERTEX
  8
0
  6
CONTINUOUS
 10
2.016520
 20
5.568640
  0
VERTEX
  8
0
  6
CONTINUOUS
 10
2.016520
 20
5.649160
  0
VERTEX
  8
0
  6
CONTINUOUS
 10
2.816440
 20
5.649160
  0
VERTEX
  8
0
  6
CONTINUOUS
 10
2.832280
 20
5.500000
  0
VERTEX
  8
0
  6
CONTINUOUS
 10
2.900920
 20
5.531240
  0
VERTEX
  8
0
  6
CONTINUOUS
 10
2.973960
 20
5.550160
  0
VERTEX
  8
0
  6
CONTINUOUS
 10
3.050080
 20
5.557200
  0
VERTEX
  8
0
  6
CONTINUOUS
 10
3.128840
 20
5.553240
  0
VERTEX
  8
0
  6
CONTINUOUS
 10
3.208480
 20
5.538720
  0
VERTEX
  8
0
  6
CONTINUOUS
 10
3.287240
 20
5.514960
  0
VERTEX
  8
0
  6
CONTINUOUS
 10
3.364680
 20
5.482840
  0
VERTEX
  8
0
  6
CONTINUOUS
 10
3.439480
 20
5.442360
  0
VERTEX
  8
0
  6
CONTINUOUS
 10
3.575000
 20
5.341600
  0
VERTEX
  8
0
  6
CONTINUOUS
 10
3.633520
 20
5.282200
  0
VERTEX
  8
0
  6
CONTINUOUS
 10
3.684120
 20
5.217960
  0
VERTEX
  8
0
  6
CONTINUOUS
 10
3.725920
 20
5.150200
  0
VERTEX
  8
0
  6
CONTINUOUS
 10
3.756720
 20
5.078920
  0
VERTEX
  8
0
  6
CONTINUOUS
 10
3.776520
 20
5.005440
  0
VERTEX
  8
0
  6
CONTINUOUS
 10
3.783120
 20
4.930200
  0
VERTEX
  8
0
  6
CONTINUOUS
 10
3.828880
 20
4.981680
  0
VERTEX
  8
0
  6
CONTINUOUS
 10
3.885640
 20
5.021280
  0
VERTEX
  8
0
  6
CONTINUOUS
 10
3.950760
 20
5.046800
  0
VERTEX
  8
0
  6
CONTINUOUS
 10
4.022920
 20
5.055600
  0
VERTEX
  8
0
  6
CONTINUOUS
 10
4.081440
 20
5.049880
  0
VERTEX
  8
0
  6
CONTINUOUS
 10
4.136000
 20
5.033160
  0
VERTEX
  8
0
  6
CONTINUOUS
 10
4.185280
 20
5.006320
  0
VERTEX
  8
0
  6
CONTINUOUS
 10
4.228400
 20
4.970680
  0
VERTEX
  8
0
  6
CONTINUOUS
 10
4.264040
 20
4.927560
  0
VERTEX
  8
0
  6
CONTINUOUS
 10
4.290880
 20
4.878280
  0
VERTEX
  8
0
  6
CONTINUOUS
 10
4.307600
 20
4.823720
  0
VERTEX
  8
0
  6
CONTINUOUS
 10
4.313760
 20
4.764760
  0
VERTEX
  8
0
  6
CONTINUOUS
 10
4.308480
 20
4.709320
  0
VERTEX
  8
0
  6
CONTINUOUS
 10
4.293080
 20
4.657400
  0
VERTEX
  8
0
  6
CONTINUOUS
 10
4.268880
 20
4.609880
  0
VERTEX
  8
0
  6
CONTINUOUS
 10
4.236760
 20
4.568080
  0
VERTEX
  8
0
  6
CONTINUOUS
 10
4.236760
 20
4.568960
  0
SEQEND
  8
0
  0
TEXT
  8
0
 10
3.285040
 20
3.582480
 40
0.138251
  1
BA  763A 1-3/4" x 2-7/8"
 41
1.000000
  7
SN0
 71
     0
 72
     5
 11
5.080515
 21
3.582480
  0
TEXT
  8
0
 10
3.285040
 20
3.390640
 40
0.138251
  1
BA  763B 11/16" x 3-1/16"
 41
1.000000
  7
SN0
 71
     0
 72
     5
 11
5.209745
 21
3.390640
  0
TEXT
  8
0
 10
1.542640
 20
3.997400
 40
0.138251
  1
A
 41
1.000000
  7
SN0
 71
     0
 72
     5
 11
1.653648
 21
3.997400
  0
TEXT
  8
0
 10
3.841640
 20
3.993440
 40
0.138251
  1
B
 41
1.000000
  7
SN0
 71
     0
 72
     5
 11
3.952648
 21
3.993440
  0
ENDSEC
  0
EOF
