  0
SECTION
  2
HEADER
  9
$ACADVER
  1
AC1006
  9
$EXTMIN
 10
2.404160
 20
0.733920
  9
$EXTMAX
 10
8.010640
 20
5.855080
  9
$LTSCALE
 40
0.044000
  9
$PDMODE
 70
    35
  9
$PDSIZE
 40
0.035200
  0
ENDSEC
  0
SECTION
  2
TABLES
  0
TABLE
  2
LTYPE
 70
     9
  0
LTYPE
  2
CONTINUOUS
 70
    64
  3
Solid line
 72
    65
 73
     0
 40
0.000000
  0
LTYPE
  2
DASHED
 70
    64
  3
__ __ __ __ __ __ __ __ __ __ __ __ __ __ __
 72
    65
 73
     2
 40
0.000330
 49
0.000220
 49
-0.000110
  0
LTYPE
  2
HIDDEN
 70
    64
  3
 _ _ _ _ _ _ _ _ _ _ _ _ _ _ _ _ _ _ _ _ _ _
 72
    65
 73
     2
 40
0.000165
 49
0.000110
 49
-0.000055
  0
LTYPE
  2
CENTER
 70
    64
  3
____ _ ____ _ ____ _ ____ _ ____ _ ____ _ ____
 72
    65
 73
     4
 40
0.000880
 49
0.000550
 49
-0.000110
 49
0.000110
 49
-0.000110
  0
LTYPE
  2
PHANTOM
 70
    64
  3
_____ _ _ _____ _ _ _____ _ _ _____ _ _ ____
 72
    65
 73
     6
 40
0.001100
 49
0.000550
 49
-0.000110
 49
0.000110
 49
-0.000110
 49
0.000110
 49
-0.000110
  0
LTYPE
  2
DOT
 70
    64
  3
...............................................
 72
    65
 73
     2
 40
0.000110
 49
0.000000
 49
-0.000110
  0
LTYPE
  2
DASHDOT
 70
    64
  3
__ . __ . __ . __ . __ . __ . __ . __ . __ . __
 72
    65
 73
     4
 40
0.000440
 49
0.000220
 49
-0.000110
 49
0.000000
 49
-0.000110
  0
LTYPE
  2
BORDER
 70
    64
  3
__ __ . __ __ . __ __ . __ __ . __ __ . __ __
 72
    65
 73
     6
 40
0.000770
 49
0.000220
 49
-0.000110
 49
0.000220
 49
-0.000110
 49
0.000000
 49
-0.000110
  0
LTYPE
  2
DIVIDE
 70
    64
  3
__ . . __ . . __ . . __ . . __ . . __ . . __
 72
    65
 73
     6
 40
0.000550
 49
0.000220
 49
-0.000110
 49
0.000000
 49
-0.000110
 49
0.000000
 49
-0.000110
  0
LTYPE
  2
DOTDOT
 70
    64
  3
 . .  . .  . .  . .  . .  . . 
 72
    65
 73
     5
 40
0.000242
 49
-0.000110
 49
0.000000
 49
-0.000110
 49
0.000000
 49
-0.000110
  0
ENDTAB
  0
TABLE
  2
STYLE
 70
     2
  0
STYLE
 70
     0
  2
SN0
 40
0.000000
 41
0.000440
 50
0.000000
 71
     0
 42
0.000000
  3
ROMAND
  0
STYLE
 70
    68
  2
SV0
 40
0.000000
 41
0.000440
 50
0.000000
 71
     0
 42
0.000000
  3
ROMAND
  0
ENDTAB
  0
TABLE
  2
LAYER
 70
     3
  0
LAYER
  2
FOREGROUND
 70
    64
 62
     7
  6
CONTINUOUS
  0
LAYER
  2
BACKGROUND
 70
    65
 62
    -7
  6
CONTINUOUS
  0
LAYER
  2
0
 70
    64
 62
     7
  6
CONTINUOUS
  0
ENDTAB
  0
ENDSEC
  0
SECTION
  2
ENTITIES
  0
POLYLINE
  8
FOREGROUND
  6
CONTINUOUS
 66
     1
 40
0.000000
 41
0.000000
  0
VERTEX
  8
FOREGROUND
  6
CONTINUOUS
 10
0.000000
 20
6.589000
  0
VERTEX
  8
FOREGROUND
  6
CONTINUOUS
 10
8.499920
 20
6.589000
  0
VERTEX
  8
FOREGROUND
  6
CONTINUOUS
 10
8.499920
 20
-4.411000
  0
VERTEX
  8
FOREGROUND
  6
CONTINUOUS
 10
0.000000
 20
-4.411000
  0
VERTEX
  8
FOREGROUND
  6
CONTINUOUS
 10
0.000000
 20
6.589000
  0
SEQEND
  8
0
  0
POLYLINE
  8
FOREGROUND
  6
CONTINUOUS
 66
     1
 40
0.000000
 41
0.000000
  0
VERTEX
  8
FOREGROUND
  6
CONTINUOUS
 10
0.000000
 20
6.589000
  0
VERTEX
  8
FOREGROUND
  6
CONTINUOUS
 10
8.499920
 20
6.589000
  0
VERTEX
  8
FOREGROUND
  6
CONTINUOUS
 10
8.499920
 20
-4.411000
  0
VERTEX
  8
FOREGROUND
  6
CONTINUOUS
 10
0.000000
 20
-4.411000
  0
VERTEX
  8
FOREGROUND
  6
CONTINUOUS
 10
0.000000
 20
6.589000
  0
SEQEND
  8
0
  0
POLYLINE
  8
0
  6
CONTINUOUS
 66
     1
 40
0.014080
 41
0.014080
  0
VERTEX
  8
0
  6
CONTINUOUS
 10
5.420360
 20
4.766080
  0
VERTEX
  8
0
  6
CONTINUOUS
 10
5.452480
 20
4.807880
  0
VERTEX
  8
0
  6
CONTINUOUS
 10
5.471400
 20
4.843080
  0
VERTEX
  8
0
  6
CONTINUOUS
 10
5.485040
 20
4.880920
  0
VERTEX
  8
0
  6
CONTINUOUS
 10
5.493840
 20
4.921400
  0
VERTEX
  8
0
  6
CONTINUOUS
 10
5.496480
 20
4.949120
  0
VERTEX
  8
0
  6
CONTINUOUS
 10
5.496480
 20
4.978160
  0
VERTEX
  8
0
  6
CONTINUOUS
 10
5.493400
 20
5.007640
  0
VERTEX
  8
0
  6
CONTINUOUS
 10
5.487680
 20
5.035800
  0
VERTEX
  8
0
  6
CONTINUOUS
 10
5.474040
 20
5.076280
  0
VERTEX
  8
0
  6
CONTINUOUS
 10
5.461720
 20
5.101800
  0
VERTEX
  8
0
  6
CONTINUOUS
 10
5.439280
 20
5.137000
  0
VERTEX
  8
0
  6
CONTINUOUS
 10
5.411560
 20
5.168680
  0
VERTEX
  8
0
  6
CONTINUOUS
 10
5.379880
 20
5.196400
  0
VERTEX
  8
0
  6
CONTINUOUS
 10
5.344680
 20
5.218840
  0
VERTEX
  8
0
  6
CONTINUOUS
 10
5.319160
 20
5.231160
  0
VERTEX
  8
0
  6
CONTINUOUS
 10
5.278680
 20
5.244800
  0
VERTEX
  8
0
  6
CONTINUOUS
 10
5.250520
 20
5.250520
  0
VERTEX
  8
0
  6
CONTINUOUS
 10
5.221040
 20
5.253600
  0
VERTEX
  8
0
  6
CONTINUOUS
 10
5.187600
 20
5.253600
  0
VERTEX
  8
0
  6
CONTINUOUS
 10
5.151520
 20
5.248760
  0
VERTEX
  8
0
  6
CONTINUOUS
 10
5.117200
 20
5.240400
  0
VERTEX
  8
0
  6
CONTINUOUS
 10
5.084200
 20
5.227640
  0
VERTEX
  8
0
  6
CONTINUOUS
 10
5.039320
 20
5.201680
  0
VERTEX
  8
0
  6
CONTINUOUS
 10
5.012040
 20
5.180120
  0
VERTEX
  8
0
  6
CONTINUOUS
 10
4.987840
 20
5.155920
  0
VERTEX
  8
0
  6
CONTINUOUS
 10
4.966720
 20
5.128640
  0
VERTEX
  8
0
  6
CONTINUOUS
 10
4.964960
 20
5.166480
  0
VERTEX
  8
0
  6
CONTINUOUS
 10
4.960120
 20
5.203880
  0
VERTEX
  8
0
  6
CONTINUOUS
 10
4.946480
 20
5.259320
  0
VERTEX
  8
0
  6
CONTINUOUS
 10
4.926240
 20
5.313440
  0
VERTEX
  8
0
  6
CONTINUOUS
 10
4.899840
 20
5.365800
  0
VERTEX
  8
0
  6
CONTINUOUS
 10
4.867720
 20
5.416400
  0
VERTEX
  8
0
  6
CONTINUOUS
 10
4.843520
 20
5.448960
  0
VERTEX
  8
0
  6
CONTINUOUS
 10
4.817120
 20
5.480640
  0
VERTEX
  8
0
  6
CONTINUOUS
 10
4.758600
 20
5.539600
  0
VERTEX
  8
0
  6
CONTINUOUS
 10
4.726480
 20
5.567320
  0
VERTEX
  8
0
  6
CONTINUOUS
 10
4.693480
 20
5.593280
  0
VERTEX
  8
0
  6
CONTINUOUS
 10
4.658720
 20
5.617920
  0
VERTEX
  8
0
  6
CONTINUOUS
 10
4.586120
 20
5.661920
  0
VERTEX
  8
0
  6
CONTINUOUS
 10
4.509560
 20
5.698440
  0
VERTEX
  8
0
  6
CONTINUOUS
 10
4.470840
 20
5.713400
  0
VERTEX
  8
0
  6
CONTINUOUS
 10
4.431240
 20
5.726600
  0
VERTEX
  8
0
  6
CONTINUOUS
 10
4.391640
 20
5.737160
  0
VERTEX
  8
0
  6
CONTINUOUS
 10
4.352040
 20
5.745520
  0
VERTEX
  8
0
  6
CONTINUOUS
 10
4.292640
 20
5.753440
  0
VERTEX
  8
0
  6
CONTINUOUS
 10
4.253040
 20
5.755640
  0
VERTEX
  8
0
  6
CONTINUOUS
 10
4.214320
 20
5.754760
  0
VERTEX
  8
0
  6
CONTINUOUS
 10
4.176040
 20
5.751240
  0
VERTEX
  8
0
  6
CONTINUOUS
 10
4.138640
 20
5.745080
  0
VERTEX
  8
0
  6
CONTINUOUS
 10
4.084080
 20
5.729680
  0
VERTEX
  8
0
  6
CONTINUOUS
 10
4.032600
 20
5.707680
  0
VERTEX
  8
0
  6
CONTINUOUS
 10
4.015880
 20
5.698440
  0
VERTEX
  8
0
  6
CONTINUOUS
 10
3.999600
 20
5.847160
  0
VERTEX
  8
0
  6
CONTINUOUS
 10
3.199680
 20
5.847160
  0
VERTEX
  8
0
  6
CONTINUOUS
 10
3.199680
 20
5.767080
  0
VERTEX
  8
0
  6
CONTINUOUS
 10
3.132800
 20
5.767080
  0
VERTEX
  8
0
  6
CONTINUOUS
 10
3.062400
 20
5.764000
  0
VERTEX
  8
0
  6
CONTINUOUS
 10
3.009600
 20
5.757400
  0
VERTEX
  8
0
  6
CONTINUOUS
 10
2.958560
 20
5.745520
  0
VERTEX
  8
0
  6
CONTINUOUS
 10
2.926880
 20
5.733640
  0
VERTEX
  8
0
  6
CONTINUOUS
 10
2.896520
 20
5.718680
  0
VERTEX
  8
0
  6
CONTINUOUS
 10
2.869240
 20
5.699320
  0
VERTEX
  8
0
  6
CONTINUOUS
 10
2.844600
 20
5.676000
  0
VERTEX
  8
0
  6
CONTINUOUS
 10
2.823480
 20
5.646960
  0
VERTEX
  8
0
  6
CONTINUOUS
 10
2.805880
 20
5.613080
  0
VERTEX
  8
0
  6
CONTINUOUS
 10
2.793120
 20
5.573040
  0
VERTEX
  8
0
  6
CONTINUOUS
 10
2.784760
 20
5.526840
  0
VERTEX
  8
0
  6
CONTINUOUS
 10
2.782120
 20
5.473600
  0
VERTEX
  8
0
  6
CONTINUOUS
 10
2.635600
 20
5.473600
  0
VERTEX
  8
0
  6
CONTINUOUS
 10
2.635600
 20
4.095080
  0
VERTEX
  8
0
  6
CONTINUOUS
 10
4.960120
 20
4.095080
  0
VERTEX
  8
0
  6
CONTINUOUS
 10
4.960120
 20
4.766960
  0
VERTEX
  8
0
  6
CONTINUOUS
 10
5.420360
 20
4.766960
  0
VERTEX
  8
0
  6
CONTINUOUS
 10
5.420360
 20
4.766080
  0
SEQEND
  8
0
  0
POLYLINE
  8
0
  6
CONTINUOUS
 66
     1
 40
0.014080
 41
0.014080
  0
VERTEX
  8
0
  6
CONTINUOUS
 10
8.003160
 20
4.118400
  0
VERTEX
  8
0
  6
CONTINUOUS
 10
8.003160
 20
4.095080
  0
VERTEX
  8
0
  6
CONTINUOUS
 10
4.962760
 20
4.095080
  0
VERTEX
  8
0
  6
CONTINUOUS
 10
4.962760
 20
4.766960
  0
VERTEX
  8
0
  6
CONTINUOUS
 10
5.918880
 20
4.766960
  0
VERTEX
  8
0
  6
CONTINUOUS
 10
5.942640
 20
4.587000
  0
VERTEX
  8
0
  6
CONTINUOUS
 10
6.860920
 20
4.587000
  0
VERTEX
  8
0
  6
CONTINUOUS
 10
6.863560
 20
4.613400
  0
VERTEX
  8
0
  6
CONTINUOUS
 10
6.868840
 20
4.638040
  0
VERTEX
  8
0
  6
CONTINUOUS
 10
6.881160
 20
4.672360
  0
VERTEX
  8
0
  6
CONTINUOUS
 10
6.898320
 20
4.703160
  0
VERTEX
  8
0
  6
CONTINUOUS
 10
6.912400
 20
4.721640
  0
VERTEX
  8
0
  6
CONTINUOUS
 10
6.928240
 20
4.738360
  0
VERTEX
  8
0
  6
CONTINUOUS
 10
6.945400
 20
4.753760
  0
VERTEX
  8
0
  6
CONTINUOUS
 10
6.964320
 20
4.767400
  0
VERTEX
  8
0
  6
CONTINUOUS
 10
6.984560
 20
4.779280
  0
VERTEX
  8
0
  6
CONTINUOUS
 10
7.005680
 20
4.789400
  0
VERTEX
  8
0
  6
CONTINUOUS
 10
7.027680
 20
4.797760
  0
VERTEX
  8
0
  6
CONTINUOUS
 10
7.073880
 20
4.809640
  0
VERTEX
  8
0
  6
CONTINUOUS
 10
7.097640
 20
4.813160
  0
VERTEX
  8
0
  6
CONTINUOUS
 10
7.145600
 20
4.814480
  0
VERTEX
  8
0
  6
CONTINUOUS
 10
7.193120
 20
4.808760
  0
VERTEX
  8
0
  6
CONTINUOUS
 10
7.238880
 20
4.796000
  0
VERTEX
  8
0
  6
CONTINUOUS
 10
7.260440
 20
4.786760
  0
VERTEX
  8
0
  6
CONTINUOUS
 10
7.281560
 20
4.775760
  0
VERTEX
  8
0
  6
CONTINUOUS
 10
7.300920
 20
4.763000
  0
VERTEX
  8
0
  6
CONTINUOUS
 10
7.319400
 20
4.748040
  0
VERTEX
  8
0
  6
CONTINUOUS
 10
7.344040
 20
4.722520
  0
VERTEX
  8
0
  6
CONTINUOUS
 10
7.364720
 20
4.693040
  0
VERTEX
  8
0
  6
CONTINUOUS
 10
7.380560
 20
4.658720
  0
VERTEX
  8
0
  6
CONTINUOUS
 10
7.388480
 20
4.633640
  0
VERTEX
  8
0
  6
CONTINUOUS
 10
7.394200
 20
4.606360
  0
VERTEX
  8
0
  6
CONTINUOUS
 10
7.395960
 20
4.592280
  0
VERTEX
  8
0
  6
CONTINUOUS
 10
7.583400
 20
4.592280
  0
VERTEX
  8
0
  6
CONTINUOUS
 10
7.599240
 20
4.510440
  0
VERTEX
  8
0
  6
CONTINUOUS
 10
7.645440
 20
4.508680
  0
VERTEX
  8
0
  6
CONTINUOUS
 10
7.689440
 20
4.502960
  0
VERTEX
  8
0
  6
CONTINUOUS
 10
7.730800
 20
4.493720
  0
VERTEX
  8
0
  6
CONTINUOUS
 10
7.769960
 20
4.481400
  0
VERTEX
  8
0
  6
CONTINUOUS
 10
7.806920
 20
4.465560
  0
VERTEX
  8
0
  6
CONTINUOUS
 10
7.840800
 20
4.447080
  0
VERTEX
  8
0
  6
CONTINUOUS
 10
7.871600
 20
4.425080
  0
VERTEX
  8
0
  6
CONTINUOUS
 10
7.899760
 20
4.400440
  0
VERTEX
  8
0
  6
CONTINUOUS
 10
7.924840
 20
4.373160
  0
VERTEX
  8
0
  6
CONTINUOUS
 10
7.946840
 20
4.343240
  0
VERTEX
  8
0
  6
CONTINUOUS
 10
7.973240
 20
4.294400
  0
VERTEX
  8
0
  6
CONTINUOUS
 10
7.986440
 20
4.258760
  0
VERTEX
  8
0
  6
CONTINUOUS
 10
7.995680
 20
4.220920
  0
VERTEX
  8
0
  6
CONTINUOUS
 10
8.001400
 20
4.181320
  0
VERTEX
  8
0
  6
CONTINUOUS
 10
8.003160
 20
4.139960
  0
VERTEX
  8
0
  6
CONTINUOUS
 10
8.002720
 20
4.118400
  0
VERTEX
  8
0
  6
CONTINUOUS
 10
8.003160
 20
4.118400
  0
SEQEND
  8
0
  0
SOLID
  8
0
 62
    15
 10
7.137240
 20
1.836120
 11
7.141200
 21
2.574000
 12
7.148240
 22
1.782000
 13
7.152200
 23
2.519880
  0
POLYLINE
  8
0
  6
CONTINUOUS
 66
     1
 40
0.000000
 41
0.000000
  0
VERTEX
  8
0
  6
CONTINUOUS
 10
7.137240
 20
1.836120
  0
VERTEX
  8
0
  6
CONTINUOUS
 10
7.141200
 20
2.574000
  0
VERTEX
  8
0
  6
CONTINUOUS
 10
7.152200
 20
2.519880
  0
VERTEX
  8
0
  6
CONTINUOUS
 10
7.148240
 20
1.782000
  0
VERTEX
  8
0
  6
CONTINUOUS
 10
7.137240
 20
1.836120
  0
SEQEND
  8
0
  0
SOLID
  8
0
 62
    15
 10
4.715040
 20
1.956240
 11
4.719440
 21
2.694560
 12
5.671160
 22
1.956240
 13
5.675560
 23
2.694560
  0
POLYLINE
  8
0
  6
CONTINUOUS
 66
     1
 40
0.000000
 41
0.000000
  0
VERTEX
  8
0
  6
CONTINUOUS
 10
4.715040
 20
1.956240
  0
VERTEX
  8
0
  6
CONTINUOUS
 10
4.719440
 20
2.694560
  0
VERTEX
  8
0
  6
CONTINUOUS
 10
5.675560
 20
2.694560
  0
VERTEX
  8
0
  6
CONTINUOUS
 10
5.671160
 20
1.956240
  0
VERTEX
  8
0
  6
CONTINUOUS
 10
4.715040
 20
1.956240
  0
SEQEND
  8
0
  0
SOLID
  8
0
 62
    15
 10
5.671160
 20
1.956240
 11
5.675560
 21
2.694560
 12
5.694920
 22
1.776720
 13
5.698880
 23
2.514600
  0
POLYLINE
  8
0
  6
CONTINUOUS
 66
     1
 40
0.000000
 41
0.000000
  0
VERTEX
  8
0
  6
CONTINUOUS
 10
5.671160
 20
1.956240
  0
VERTEX
  8
0
  6
CONTINUOUS
 10
5.675560
 20
2.694560
  0
VERTEX
  8
0
  6
CONTINUOUS
 10
5.698880
 20
2.514600
  0
VERTEX
  8
0
  6
CONTINUOUS
 10
5.694920
 20
1.776720
  0
VERTEX
  8
0
  6
CONTINUOUS
 10
5.671160
 20
1.956240
  0
SEQEND
  8
0
  0
SOLID
  8
0
 62
    15
 10
5.694920
 20
1.776720
 11
5.698880
 21
2.514600
 12
6.613200
 22
1.776720
 13
6.617160
 23
2.514600
  0
POLYLINE
  8
0
  6
CONTINUOUS
 66
     1
 40
0.000000
 41
0.000000
  0
VERTEX
  8
0
  6
CONTINUOUS
 10
5.694920
 20
1.776720
  0
VERTEX
  8
0
  6
CONTINUOUS
 10
5.698880
 20
2.514600
  0
VERTEX
  8
0
  6
CONTINUOUS
 10
6.617160
 20
2.514600
  0
VERTEX
  8
0
  6
CONTINUOUS
 10
6.613200
 20
1.776720
  0
VERTEX
  8
0
  6
CONTINUOUS
 10
5.694920
 20
1.776720
  0
SEQEND
  8
0
  0
SOLID
  8
0
 62
    15
 10
6.613200
 20
1.776720
 11
6.617160
 21
2.514600
 12
6.621120
 22
1.827760
 13
6.625080
 23
2.565640
  0
POLYLINE
  8
0
  6
CONTINUOUS
 66
     1
 40
0.000000
 41
0.000000
  0
VERTEX
  8
0
  6
CONTINUOUS
 10
6.613200
 20
1.776720
  0
VERTEX
  8
0
  6
CONTINUOUS
 10
6.617160
 20
2.514600
  0
VERTEX
  8
0
  6
CONTINUOUS
 10
6.625080
 20
2.565640
  0
VERTEX
  8
0
  6
CONTINUOUS
 10
6.621120
 20
1.827760
  0
VERTEX
  8
0
  6
CONTINUOUS
 10
6.613200
 20
1.776720
  0
SEQEND
  8
0
  0
SOLID
  8
0
 62
    15
 10
6.621120
 20
1.827760
 11
6.625080
 21
2.565640
 12
6.638720
 22
1.872640
 13
6.642680
 23
2.610520
  0
POLYLINE
  8
0
  6
CONTINUOUS
 66
     1
 40
0.000000
 41
0.000000
  0
VERTEX
  8
0
  6
CONTINUOUS
 10
6.621120
 20
1.827760
  0
VERTEX
  8
0
  6
CONTINUOUS
 10
6.625080
 20
2.565640
  0
VERTEX
  8
0
  6
CONTINUOUS
 10
6.642680
 20
2.610520
  0
VERTEX
  8
0
  6
CONTINUOUS
 10
6.638720
 20
1.872640
  0
VERTEX
  8
0
  6
CONTINUOUS
 10
6.621120
 20
1.827760
  0
SEQEND
  8
0
  0
SOLID
  8
0
 62
    15
 10
6.638720
 20
1.872640
 11
6.642680
 21
2.610520
 12
6.664680
 22
1.911360
 13
6.668640
 23
2.649240
  0
POLYLINE
  8
0
  6
CONTINUOUS
 66
     1
 40
0.000000
 41
0.000000
  0
VERTEX
  8
0
  6
CONTINUOUS
 10
6.638720
 20
1.872640
  0
VERTEX
  8
0
  6
CONTINUOUS
 10
6.642680
 20
2.610520
  0
VERTEX
  8
0
  6
CONTINUOUS
 10
6.668640
 20
2.649240
  0
VERTEX
  8
0
  6
CONTINUOUS
 10
6.664680
 20
1.911360
  0
VERTEX
  8
0
  6
CONTINUOUS
 10
6.638720
 20
1.872640
  0
SEQEND
  8
0
  0
SOLID
  8
0
 62
    15
 10
6.664680
 20
1.911360
 11
6.668640
 21
2.649240
 12
6.697680
 22
1.943040
 13
6.702080
 23
2.681360
  0
POLYLINE
  8
0
  6
CONTINUOUS
 66
     1
 40
0.000000
 41
0.000000
  0
VERTEX
  8
0
  6
CONTINUOUS
 10
6.664680
 20
1.911360
  0
VERTEX
  8
0
  6
CONTINUOUS
 10
6.668640
 20
2.649240
  0
VERTEX
  8
0
  6
CONTINUOUS
 10
6.702080
 20
2.681360
  0
VERTEX
  8
0
  6
CONTINUOUS
 10
6.697680
 20
1.943040
  0
VERTEX
  8
0
  6
CONTINUOUS
 10
6.664680
 20
1.911360
  0
SEQEND
  8
0
  0
SOLID
  8
0
 62
    15
 10
6.697680
 20
1.943040
 11
6.702080
 21
2.681360
 12
6.736840
 22
1.968560
 13
6.740800
 23
2.706440
  0
POLYLINE
  8
0
  6
CONTINUOUS
 66
     1
 40
0.000000
 41
0.000000
  0
VERTEX
  8
0
  6
CONTINUOUS
 10
6.697680
 20
1.943040
  0
VERTEX
  8
0
  6
CONTINUOUS
 10
6.702080
 20
2.681360
  0
VERTEX
  8
0
  6
CONTINUOUS
 10
6.740800
 20
2.706440
  0
VERTEX
  8
0
  6
CONTINUOUS
 10
6.736840
 20
1.968560
  0
VERTEX
  8
0
  6
CONTINUOUS
 10
6.697680
 20
1.943040
  0
SEQEND
  8
0
  0
SOLID
  8
0
 62
    15
 10
6.736840
 20
1.968560
 11
6.740800
 21
2.706440
 12
6.779960
 22
1.987040
 13
6.783920
 23
2.725360
  0
POLYLINE
  8
0
  6
CONTINUOUS
 66
     1
 40
0.000000
 41
0.000000
  0
VERTEX
  8
0
  6
CONTINUOUS
 10
6.736840
 20
1.968560
  0
VERTEX
  8
0
  6
CONTINUOUS
 10
6.740800
 20
2.706440
  0
VERTEX
  8
0
  6
CONTINUOUS
 10
6.783920
 20
2.725360
  0
VERTEX
  8
0
  6
CONTINUOUS
 10
6.779960
 20
1.987040
  0
VERTEX
  8
0
  6
CONTINUOUS
 10
6.736840
 20
1.968560
  0
SEQEND
  8
0
  0
SOLID
  8
0
 62
    15
 10
6.779960
 20
1.987040
 11
6.783920
 21
2.725360
 12
6.826160
 22
1.998920
 13
6.830120
 23
2.737240
  0
POLYLINE
  8
0
  6
CONTINUOUS
 66
     1
 40
0.000000
 41
0.000000
  0
VERTEX
  8
0
  6
CONTINUOUS
 10
6.779960
 20
1.987040
  0
VERTEX
  8
0
  6
CONTINUOUS
 10
6.783920
 20
2.725360
  0
VERTEX
  8
0
  6
CONTINUOUS
 10
6.830120
 20
2.737240
  0
VERTEX
  8
0
  6
CONTINUOUS
 10
6.826160
 20
1.998920
  0
VERTEX
  8
0
  6
CONTINUOUS
 10
6.779960
 20
1.987040
  0
SEQEND
  8
0
  0
SOLID
  8
0
 62
    15
 10
6.826160
 20
1.998920
 11
6.830120
 21
2.737240
 12
6.873680
 22
2.004200
 13
6.878080
 23
2.742080
  0
POLYLINE
  8
0
  6
CONTINUOUS
 66
     1
 40
0.000000
 41
0.000000
  0
VERTEX
  8
0
  6
CONTINUOUS
 10
6.826160
 20
1.998920
  0
VERTEX
  8
0
  6
CONTINUOUS
 10
6.830120
 20
2.737240
  0
VERTEX
  8
0
  6
CONTINUOUS
 10
6.878080
 20
2.742080
  0
VERTEX
  8
0
  6
CONTINUOUS
 10
6.873680
 20
2.004200
  0
VERTEX
  8
0
  6
CONTINUOUS
 10
6.826160
 20
1.998920
  0
SEQEND
  8
0
  0
SOLID
  8
0
 62
    15
 10
6.873680
 20
2.004200
 11
6.878080
 21
2.742080
 12
6.921640
 22
2.002000
 13
6.926040
 23
2.739880
  0
POLYLINE
  8
0
  6
CONTINUOUS
 66
     1
 40
0.000000
 41
0.000000
  0
VERTEX
  8
0
  6
CONTINUOUS
 10
6.873680
 20
2.004200
  0
VERTEX
  8
0
  6
CONTINUOUS
 10
6.878080
 20
2.742080
  0
VERTEX
  8
0
  6
CONTINUOUS
 10
6.926040
 20
2.739880
  0
VERTEX
  8
0
  6
CONTINUOUS
 10
6.921640
 20
2.002000
  0
VERTEX
  8
0
  6
CONTINUOUS
 10
6.873680
 20
2.004200
  0
SEQEND
  8
0
  0
SOLID
  8
0
 62
    15
 10
6.921640
 20
2.002000
 11
6.926040
 21
2.739880
 12
6.968720
 22
1.992760
 13
6.972680
 23
2.730640
  0
POLYLINE
  8
0
  6
CONTINUOUS
 66
     1
 40
0.000000
 41
0.000000
  0
VERTEX
  8
0
  6
CONTINUOUS
 10
6.921640
 20
2.002000
  0
VERTEX
  8
0
  6
CONTINUOUS
 10
6.926040
 20
2.739880
  0
VERTEX
  8
0
  6
CONTINUOUS
 10
6.972680
 20
2.730640
  0
VERTEX
  8
0
  6
CONTINUOUS
 10
6.968720
 20
1.992760
  0
VERTEX
  8
0
  6
CONTINUOUS
 10
6.921640
 20
2.002000
  0
SEQEND
  8
0
  0
SOLID
  8
0
 62
    15
 10
6.968720
 20
1.992760
 11
6.972680
 21
2.730640
 12
7.013160
 22
1.976040
 13
7.017120
 23
2.714360
  0
POLYLINE
  8
0
  6
CONTINUOUS
 66
     1
 40
0.000000
 41
0.000000
  0
VERTEX
  8
0
  6
CONTINUOUS
 10
6.968720
 20
1.992760
  0
VERTEX
  8
0
  6
CONTINUOUS
 10
6.972680
 20
2.730640
  0
VERTEX
  8
0
  6
CONTINUOUS
 10
7.017120
 20
2.714360
  0
VERTEX
  8
0
  6
CONTINUOUS
 10
7.013160
 20
1.976040
  0
VERTEX
  8
0
  6
CONTINUOUS
 10
6.968720
 20
1.992760
  0
SEQEND
  8
0
  0
SOLID
  8
0
 62
    15
 10
7.013160
 20
1.976040
 11
7.017120
 21
2.714360
 12
7.053200
 22
1.952280
 13
7.057600
 23
2.690600
  0
POLYLINE
  8
0
  6
CONTINUOUS
 66
     1
 40
0.000000
 41
0.000000
  0
VERTEX
  8
0
  6
CONTINUOUS
 10
7.013160
 20
1.976040
  0
VERTEX
  8
0
  6
CONTINUOUS
 10
7.017120
 20
2.714360
  0
VERTEX
  8
0
  6
CONTINUOUS
 10
7.057600
 20
2.690600
  0
VERTEX
  8
0
  6
CONTINUOUS
 10
7.053200
 20
1.952280
  0
VERTEX
  8
0
  6
CONTINUOUS
 10
7.013160
 20
1.976040
  0
SEQEND
  8
0
  0
SOLID
  8
0
 62
    15
 10
7.053200
 20
1.952280
 11
7.057600
 21
2.690600
 12
7.088400
 22
1.921040
 13
7.092360
 23
2.659360
  0
POLYLINE
  8
0
  6
CONTINUOUS
 66
     1
 40
0.000000
 41
0.000000
  0
VERTEX
  8
0
  6
CONTINUOUS
 10
7.053200
 20
1.952280
  0
VERTEX
  8
0
  6
CONTINUOUS
 10
7.057600
 20
2.690600
  0
VERTEX
  8
0
  6
CONTINUOUS
 10
7.092360
 20
2.659360
  0
VERTEX
  8
0
  6
CONTINUOUS
 10
7.088400
 20
1.921040
  0
VERTEX
  8
0
  6
CONTINUOUS
 10
7.053200
 20
1.952280
  0
SEQEND
  8
0
  0
SOLID
  8
0
 62
    15
 10
7.088400
 20
1.921040
 11
7.092360
 21
2.659360
 12
7.117000
 22
1.882320
 13
7.120960
 23
2.620640
  0
POLYLINE
  8
0
  6
CONTINUOUS
 66
     1
 40
0.000000
 41
0.000000
  0
VERTEX
  8
0
  6
CONTINUOUS
 10
7.088400
 20
1.921040
  0
VERTEX
  8
0
  6
CONTINUOUS
 10
7.092360
 20
2.659360
  0
VERTEX
  8
0
  6
CONTINUOUS
 10
7.120960
 20
2.620640
  0
VERTEX
  8
0
  6
CONTINUOUS
 10
7.117000
 20
1.882320
  0
VERTEX
  8
0
  6
CONTINUOUS
 10
7.088400
 20
1.921040
  0
SEQEND
  8
0
  0
SOLID
  8
0
 62
    15
 10
7.117000
 20
1.882320
 11
7.120960
 21
2.620640
 12
7.137240
 22
1.836120
 13
7.141200
 23
2.574000
  0
POLYLINE
  8
0
  6
CONTINUOUS
 66
     1
 40
0.000000
 41
0.000000
  0
VERTEX
  8
0
  6
CONTINUOUS
 10
7.117000
 20
1.882320
  0
VERTEX
  8
0
  6
CONTINUOUS
 10
7.120960
 20
2.620640
  0
VERTEX
  8
0
  6
CONTINUOUS
 10
7.141200
 20
2.574000
  0
VERTEX
  8
0
  6
CONTINUOUS
 10
7.137240
 20
1.836120
  0
VERTEX
  8
0
  6
CONTINUOUS
 10
7.117000
 20
1.882320
  0
SEQEND
  8
0
  0
SOLID
  8
0
 62
    15
 10
7.755440
 20
1.308120
 11
7.759400
 21
2.046000
 12
7.755440
 22
1.284360
 13
7.759400
 23
2.022240
  0
POLYLINE
  8
0
  6
CONTINUOUS
 66
     1
 40
0.000000
 41
0.000000
  0
VERTEX
  8
0
  6
CONTINUOUS
 10
7.755440
 20
1.308120
  0
VERTEX
  8
0
  6
CONTINUOUS
 10
7.759400
 20
2.046000
  0
VERTEX
  8
0
  6
CONTINUOUS
 10
7.759400
 20
2.022240
  0
VERTEX
  8
0
  6
CONTINUOUS
 10
7.755440
 20
1.284360
  0
VERTEX
  8
0
  6
CONTINUOUS
 10
7.755440
 20
1.308120
  0
SEQEND
  8
0
  0
SOLID
  8
0
 62
    15
 10
7.148240
 20
1.782000
 11
7.152200
 21
2.519880
 12
7.335680
 22
1.782000
 13
7.340080
 23
2.519880
  0
POLYLINE
  8
0
  6
CONTINUOUS
 66
     1
 40
0.000000
 41
0.000000
  0
VERTEX
  8
0
  6
CONTINUOUS
 10
7.148240
 20
1.782000
  0
VERTEX
  8
0
  6
CONTINUOUS
 10
7.152200
 20
2.519880
  0
VERTEX
  8
0
  6
CONTINUOUS
 10
7.340080
 20
2.519880
  0
VERTEX
  8
0
  6
CONTINUOUS
 10
7.335680
 20
1.782000
  0
VERTEX
  8
0
  6
CONTINUOUS
 10
7.148240
 20
1.782000
  0
SEQEND
  8
0
  0
SOLID
  8
0
 62
    15
 10
7.335680
 20
1.782000
 11
7.340080
 21
2.519880
 12
7.351520
 22
1.700160
 13
7.355480
 23
2.438040
  0
POLYLINE
  8
0
  6
CONTINUOUS
 66
     1
 40
0.000000
 41
0.000000
  0
VERTEX
  8
0
  6
CONTINUOUS
 10
7.335680
 20
1.782000
  0
VERTEX
  8
0
  6
CONTINUOUS
 10
7.340080
 20
2.519880
  0
VERTEX
  8
0
  6
CONTINUOUS
 10
7.355480
 20
2.438040
  0
VERTEX
  8
0
  6
CONTINUOUS
 10
7.351520
 20
1.700160
  0
VERTEX
  8
0
  6
CONTINUOUS
 10
7.335680
 20
1.782000
  0
SEQEND
  8
0
  0
SOLID
  8
0
 62
    15
 10
7.351520
 20
1.700160
 11
7.355480
 21
2.438040
 12
7.397280
 22
1.697960
 13
7.401680
 23
2.436280
  0
POLYLINE
  8
0
  6
CONTINUOUS
 66
     1
 40
0.000000
 41
0.000000
  0
VERTEX
  8
0
  6
CONTINUOUS
 10
7.351520
 20
1.700160
  0
VERTEX
  8
0
  6
CONTINUOUS
 10
7.355480
 20
2.438040
  0
VERTEX
  8
0
  6
CONTINUOUS
 10
7.401680
 20
2.436280
  0
VERTEX
  8
0
  6
CONTINUOUS
 10
7.397280
 20
1.697960
  0
VERTEX
  8
0
  6
CONTINUOUS
 10
7.351520
 20
1.700160
  0
SEQEND
  8
0
  0
SOLID
  8
0
 62
    15
 10
7.397280
 20
1.697960
 11
7.401680
 21
2.436280
 12
7.441280
 22
1.692680
 13
7.445680
 23
2.430560
  0
POLYLINE
  8
0
  6
CONTINUOUS
 66
     1
 40
0.000000
 41
0.000000
  0
VERTEX
  8
0
  6
CONTINUOUS
 10
7.397280
 20
1.697960
  0
VERTEX
  8
0
  6
CONTINUOUS
 10
7.401680
 20
2.436280
  0
VERTEX
  8
0
  6
CONTINUOUS
 10
7.445680
 20
2.430560
  0
VERTEX
  8
0
  6
CONTINUOUS
 10
7.441280
 20
1.692680
  0
VERTEX
  8
0
  6
CONTINUOUS
 10
7.397280
 20
1.697960
  0
SEQEND
  8
0
  0
SOLID
  8
0
 62
    15
 10
7.441280
 20
1.692680
 11
7.445680
 21
2.430560
 12
7.483080
 22
1.683440
 13
7.487040
 23
2.421320
  0
POLYLINE
  8
0
  6
CONTINUOUS
 66
     1
 40
0.000000
 41
0.000000
  0
VERTEX
  8
0
  6
CONTINUOUS
 10
7.441280
 20
1.692680
  0
VERTEX
  8
0
  6
CONTINUOUS
 10
7.445680
 20
2.430560
  0
VERTEX
  8
0
  6
CONTINUOUS
 10
7.487040
 20
2.421320
  0
VERTEX
  8
0
  6
CONTINUOUS
 10
7.483080
 20
1.683440
  0
VERTEX
  8
0
  6
CONTINUOUS
 10
7.441280
 20
1.692680
  0
SEQEND
  8
0
  0
SOLID
  8
0
 62
    15
 10
7.483080
 20
1.683440
 11
7.487040
 21
2.421320
 12
7.522240
 22
1.671120
 13
7.526200
 23
2.409000
  0
POLYLINE
  8
0
  6
CONTINUOUS
 66
     1
 40
0.000000
 41
0.000000
  0
VERTEX
  8
0
  6
CONTINUOUS
 10
7.483080
 20
1.683440
  0
VERTEX
  8
0
  6
CONTINUOUS
 10
7.487040
 20
2.421320
  0
VERTEX
  8
0
  6
CONTINUOUS
 10
7.526200
 20
2.409000
  0
VERTEX
  8
0
  6
CONTINUOUS
 10
7.522240
 20
1.671120
  0
VERTEX
  8
0
  6
CONTINUOUS
 10
7.483080
 20
1.683440
  0
SEQEND
  8
0
  0
SOLID
  8
0
 62
    15
 10
7.522240
 20
1.671120
 11
7.526200
 21
2.409000
 12
7.558760
 22
1.655280
 13
7.562720
 23
2.393160
  0
POLYLINE
  8
0
  6
CONTINUOUS
 66
     1
 40
0.000000
 41
0.000000
  0
VERTEX
  8
0
  6
CONTINUOUS
 10
7.522240
 20
1.671120
  0
VERTEX
  8
0
  6
CONTINUOUS
 10
7.526200
 20
2.409000
  0
VERTEX
  8
0
  6
CONTINUOUS
 10
7.562720
 20
2.393160
  0
VERTEX
  8
0
  6
CONTINUOUS
 10
7.558760
 20
1.655280
  0
VERTEX
  8
0
  6
CONTINUOUS
 10
7.522240
 20
1.671120
  0
SEQEND
  8
0
  0
SOLID
  8
0
 62
    15
 10
7.558760
 20
1.655280
 11
7.562720
 21
2.393160
 12
7.592640
 22
1.636360
 13
7.596600
 23
2.374680
  0
POLYLINE
  8
0
  6
CONTINUOUS
 66
     1
 40
0.000000
 41
0.000000
  0
VERTEX
  8
0
  6
CONTINUOUS
 10
7.558760
 20
1.655280
  0
VERTEX
  8
0
  6
CONTINUOUS
 10
7.562720
 20
2.393160
  0
VERTEX
  8
0
  6
CONTINUOUS
 10
7.596600
 20
2.374680
  0
VERTEX
  8
0
  6
CONTINUOUS
 10
7.592640
 20
1.636360
  0
VERTEX
  8
0
  6
CONTINUOUS
 10
7.558760
 20
1.655280
  0
SEQEND
  8
0
  0
SOLID
  8
0
 62
    15
 10
7.592640
 20
1.636360
 11
7.596600
 21
2.374680
 12
7.623880
 22
1.614800
 13
7.627840
 23
2.352680
  0
POLYLINE
  8
0
  6
CONTINUOUS
 66
     1
 40
0.000000
 41
0.000000
  0
VERTEX
  8
0
  6
CONTINUOUS
 10
7.592640
 20
1.636360
  0
VERTEX
  8
0
  6
CONTINUOUS
 10
7.596600
 20
2.374680
  0
VERTEX
  8
0
  6
CONTINUOUS
 10
7.627840
 20
2.352680
  0
VERTEX
  8
0
  6
CONTINUOUS
 10
7.623880
 20
1.614800
  0
VERTEX
  8
0
  6
CONTINUOUS
 10
7.592640
 20
1.636360
  0
SEQEND
  8
0
  0
SOLID
  8
0
 62
    15
 10
7.623880
 20
1.614800
 11
7.627840
 21
2.352680
 12
7.652040
 22
1.590160
 13
7.656000
 23
2.328040
  0
POLYLINE
  8
0
  6
CONTINUOUS
 66
     1
 40
0.000000
 41
0.000000
  0
VERTEX
  8
0
  6
CONTINUOUS
 10
7.623880
 20
1.614800
  0
VERTEX
  8
0
  6
CONTINUOUS
 10
7.627840
 20
2.352680
  0
VERTEX
  8
0
  6
CONTINUOUS
 10
7.656000
 20
2.328040
  0
VERTEX
  8
0
  6
CONTINUOUS
 10
7.652040
 20
1.590160
  0
VERTEX
  8
0
  6
CONTINUOUS
 10
7.623880
 20
1.614800
  0
SEQEND
  8
0
  0
SOLID
  8
0
 62
    15
 10
7.652040
 20
1.590160
 11
7.656000
 21
2.328040
 12
7.676680
 22
1.562880
 13
7.681080
 23
2.300760
  0
POLYLINE
  8
0
  6
CONTINUOUS
 66
     1
 40
0.000000
 41
0.000000
  0
VERTEX
  8
0
  6
CONTINUOUS
 10
7.652040
 20
1.590160
  0
VERTEX
  8
0
  6
CONTINUOUS
 10
7.656000
 20
2.328040
  0
VERTEX
  8
0
  6
CONTINUOUS
 10
7.681080
 20
2.300760
  0
VERTEX
  8
0
  6
CONTINUOUS
 10
7.676680
 20
1.562880
  0
VERTEX
  8
0
  6
CONTINUOUS
 10
7.652040
 20
1.590160
  0
SEQEND
  8
0
  0
SOLID
  8
0
 62
    15
 10
7.676680
 20
1.562880
 11
7.681080
 21
2.300760
 12
7.698680
 22
1.532960
 13
7.702640
 23
2.270840
  0
POLYLINE
  8
0
  6
CONTINUOUS
 66
     1
 40
0.000000
 41
0.000000
  0
VERTEX
  8
0
  6
CONTINUOUS
 10
7.676680
 20
1.562880
  0
VERTEX
  8
0
  6
CONTINUOUS
 10
7.681080
 20
2.300760
  0
VERTEX
  8
0
  6
CONTINUOUS
 10
7.702640
 20
2.270840
  0
VERTEX
  8
0
  6
CONTINUOUS
 10
7.698680
 20
1.532960
  0
VERTEX
  8
0
  6
CONTINUOUS
 10
7.676680
 20
1.562880
  0
SEQEND
  8
0
  0
SOLID
  8
0
 62
    15
 10
7.698680
 20
1.532960
 11
7.702640
 21
2.270840
 12
7.717160
 22
1.500840
 13
7.721120
 23
2.238720
  0
POLYLINE
  8
0
  6
CONTINUOUS
 66
     1
 40
0.000000
 41
0.000000
  0
VERTEX
  8
0
  6
CONTINUOUS
 10
7.698680
 20
1.532960
  0
VERTEX
  8
0
  6
CONTINUOUS
 10
7.702640
 20
2.270840
  0
VERTEX
  8
0
  6
CONTINUOUS
 10
7.721120
 20
2.238720
  0
VERTEX
  8
0
  6
CONTINUOUS
 10
7.717160
 20
1.500840
  0
VERTEX
  8
0
  6
CONTINUOUS
 10
7.698680
 20
1.532960
  0
SEQEND
  8
0
  0
SOLID
  8
0
 62
    15
 10
7.717160
 20
1.500840
 11
7.721120
 21
2.238720
 12
7.732120
 22
1.466080
 13
7.736080
 23
2.204400
  0
POLYLINE
  8
0
  6
CONTINUOUS
 66
     1
 40
0.000000
 41
0.000000
  0
VERTEX
  8
0
  6
CONTINUOUS
 10
7.717160
 20
1.500840
  0
VERTEX
  8
0
  6
CONTINUOUS
 10
7.721120
 20
2.238720
  0
VERTEX
  8
0
  6
CONTINUOUS
 10
7.736080
 20
2.204400
  0
VERTEX
  8
0
  6
CONTINUOUS
 10
7.732120
 20
1.466080
  0
VERTEX
  8
0
  6
CONTINUOUS
 10
7.717160
 20
1.500840
  0
SEQEND
  8
0
  0
SOLID
  8
0
 62
    15
 10
7.732120
 20
1.466080
 11
7.736080
 21
2.204400
 12
7.743560
 22
1.429560
 13
7.747520
 23
2.167440
  0
POLYLINE
  8
0
  6
CONTINUOUS
 66
     1
 40
0.000000
 41
0.000000
  0
VERTEX
  8
0
  6
CONTINUOUS
 10
7.732120
 20
1.466080
  0
VERTEX
  8
0
  6
CONTINUOUS
 10
7.736080
 20
2.204400
  0
VERTEX
  8
0
  6
CONTINUOUS
 10
7.747520
 20
2.167440
  0
VERTEX
  8
0
  6
CONTINUOUS
 10
7.743560
 20
1.429560
  0
VERTEX
  8
0
  6
CONTINUOUS
 10
7.732120
 20
1.466080
  0
SEQEND
  8
0
  0
SOLID
  8
0
 62
    15
 10
7.751480
 20
1.390840
 11
7.755440
 21
2.128720
 12
7.755000
 22
1.350360
 13
7.759400
 23
2.088240
  0
POLYLINE
  8
0
  6
CONTINUOUS
 66
     1
 40
0.000000
 41
0.000000
  0
VERTEX
  8
0
  6
CONTINUOUS
 10
7.751480
 20
1.390840
  0
VERTEX
  8
0
  6
CONTINUOUS
 10
7.755440
 20
2.128720
  0
VERTEX
  8
0
  6
CONTINUOUS
 10
7.759400
 20
2.088240
  0
VERTEX
  8
0
  6
CONTINUOUS
 10
7.755000
 20
1.350360
  0
VERTEX
  8
0
  6
CONTINUOUS
 10
7.751480
 20
1.390840
  0
SEQEND
  8
0
  0
SOLID
  8
0
 62
    15
 10
7.743560
 20
1.429560
 11
7.747520
 21
2.167440
 12
7.751480
 22
1.390840
 13
7.755440
 23
2.128720
  0
POLYLINE
  8
0
  6
CONTINUOUS
 66
     1
 40
0.000000
 41
0.000000
  0
VERTEX
  8
0
  6
CONTINUOUS
 10
7.743560
 20
1.429560
  0
VERTEX
  8
0
  6
CONTINUOUS
 10
7.747520
 20
2.167440
  0
VERTEX
  8
0
  6
CONTINUOUS
 10
7.755440
 20
2.128720
  0
VERTEX
  8
0
  6
CONTINUOUS
 10
7.751480
 20
1.390840
  0
VERTEX
  8
0
  6
CONTINUOUS
 10
7.743560
 20
1.429560
  0
SEQEND
  8
0
  0
SOLID
  8
0
 62
    15
 10
7.755000
 20
1.308120
 11
7.758960
 21
2.046000
 12
7.755440
 22
1.308120
 13
7.759400
 23
2.046000
  0
POLYLINE
  8
0
  6
CONTINUOUS
 66
     1
 40
0.000000
 41
0.000000
  0
VERTEX
  8
0
  6
CONTINUOUS
 10
7.755000
 20
1.308120
  0
VERTEX
  8
0
  6
CONTINUOUS
 10
7.758960
 20
2.046000
  0
VERTEX
  8
0
  6
CONTINUOUS
 10
7.759400
 20
2.046000
  0
VERTEX
  8
0
  6
CONTINUOUS
 10
7.755440
 20
1.308120
  0
VERTEX
  8
0
  6
CONTINUOUS
 10
7.755000
 20
1.308120
  0
SEQEND
  8
0
  0
SOLID
  8
0
 62
    15
 10
7.755000
 20
1.350360
 11
7.759400
 21
2.088240
 12
7.755000
 22
1.308120
 13
7.758960
 23
2.046000
  0
POLYLINE
  8
0
  6
CONTINUOUS
 66
     1
 40
0.000000
 41
0.000000
  0
VERTEX
  8
0
  6
CONTINUOUS
 10
7.755000
 20
1.350360
  0
VERTEX
  8
0
  6
CONTINUOUS
 10
7.759400
 20
2.088240
  0
VERTEX
  8
0
  6
CONTINUOUS
 10
7.758960
 20
2.046000
  0
VERTEX
  8
0
  6
CONTINUOUS
 10
7.755000
 20
1.308120
  0
VERTEX
  8
0
  6
CONTINUOUS
 10
7.755000
 20
1.350360
  0
SEQEND
  8
0
  0
POLYLINE
  8
0
  6
CONTINUOUS
 66
     1
 40
0.000000
 41
0.000000
  0
VERTEX
  8
0
  6
CONTINUOUS
 10
7.755440
 20
1.308120
  0
VERTEX
  8
0
  6
CONTINUOUS
 10
7.755440
 20
1.284360
  0
VERTEX
  8
0
  6
CONTINUOUS
 10
4.715040
 20
1.284360
  0
VERTEX
  8
0
  6
CONTINUOUS
 10
4.715040
 20
1.956240
  0
VERTEX
  8
0
  6
CONTINUOUS
 10
5.671160
 20
1.956240
  0
VERTEX
  8
0
  6
CONTINUOUS
 10
5.694920
 20
1.776720
  0
VERTEX
  8
0
  6
CONTINUOUS
 10
6.613200
 20
1.776720
  0
VERTEX
  8
0
  6
CONTINUOUS
 10
6.621120
 20
1.827760
  0
VERTEX
  8
0
  6
CONTINUOUS
 10
6.638720
 20
1.872640
  0
VERTEX
  8
0
  6
CONTINUOUS
 10
6.664680
 20
1.911360
  0
VERTEX
  8
0
  6
CONTINUOUS
 10
6.697680
 20
1.943040
  0
VERTEX
  8
0
  6
CONTINUOUS
 10
6.736840
 20
1.968560
  0
VERTEX
  8
0
  6
CONTINUOUS
 10
6.779960
 20
1.987040
  0
VERTEX
  8
0
  6
CONTINUOUS
 10
6.826160
 20
1.998920
  0
VERTEX
  8
0
  6
CONTINUOUS
 10
6.873680
 20
2.004200
  0
VERTEX
  8
0
  6
CONTINUOUS
 10
6.921640
 20
2.002000
  0
VERTEX
  8
0
  6
CONTINUOUS
 10
6.968720
 20
1.992760
  0
VERTEX
  8
0
  6
CONTINUOUS
 10
7.013160
 20
1.976040
  0
VERTEX
  8
0
  6
CONTINUOUS
 10
7.053200
 20
1.952280
  0
VERTEX
  8
0
  6
CONTINUOUS
 10
7.088400
 20
1.921040
  0
VERTEX
  8
0
  6
CONTINUOUS
 10
7.117000
 20
1.882320
  0
VERTEX
  8
0
  6
CONTINUOUS
 10
7.137240
 20
1.836120
  0
VERTEX
  8
0
  6
CONTINUOUS
 10
7.148240
 20
1.782000
  0
VERTEX
  8
0
  6
CONTINUOUS
 10
7.335680
 20
1.782000
  0
VERTEX
  8
0
  6
CONTINUOUS
 10
7.351520
 20
1.700160
  0
VERTEX
  8
0
  6
CONTINUOUS
 10
7.397280
 20
1.697960
  0
VERTEX
  8
0
  6
CONTINUOUS
 10
7.441280
 20
1.692680
  0
VERTEX
  8
0
  6
CONTINUOUS
 10
7.483080
 20
1.683440
  0
VERTEX
  8
0
  6
CONTINUOUS
 10
7.522240
 20
1.671120
  0
VERTEX
  8
0
  6
CONTINUOUS
 10
7.558760
 20
1.655280
  0
VERTEX
  8
0
  6
CONTINUOUS
 10
7.592640
 20
1.636360
  0
VERTEX
  8
0
  6
CONTINUOUS
 10
7.623880
 20
1.614800
  0
VERTEX
  8
0
  6
CONTINUOUS
 10
7.652040
 20
1.590160
  0
VERTEX
  8
0
  6
CONTINUOUS
 10
7.676680
 20
1.562880
  0
VERTEX
  8
0
  6
CONTINUOUS
 10
7.698680
 20
1.532960
  0
VERTEX
  8
0
  6
CONTINUOUS
 10
7.717160
 20
1.500840
  0
VERTEX
  8
0
  6
CONTINUOUS
 10
7.732120
 20
1.466080
  0
VERTEX
  8
0
  6
CONTINUOUS
 10
7.743560
 20
1.429560
  0
VERTEX
  8
0
  6
CONTINUOUS
 10
7.751480
 20
1.390840
  0
VERTEX
  8
0
  6
CONTINUOUS
 10
7.755000
 20
1.350360
  0
VERTEX
  8
0
  6
CONTINUOUS
 10
7.755000
 20
1.308120
  0
VERTEX
  8
0
  6
CONTINUOUS
 10
7.755440
 20
1.308120
  0
SEQEND
  8
0
  0
SOLID
  8
0
 62
    15
 10
4.244680
 20
2.902680
 11
4.239840
 21
3.648920
 12
4.322120
 22
2.870560
 13
4.317280
 23
3.616800
  0
POLYLINE
  8
0
  6
CONTINUOUS
 66
     1
 40
0.000000
 41
0.000000
  0
VERTEX
  8
0
  6
CONTINUOUS
 10
4.244680
 20
2.902680
  0
VERTEX
  8
0
  6
CONTINUOUS
 10
4.239840
 20
3.648920
  0
VERTEX
  8
0
  6
CONTINUOUS
 10
4.317280
 20
3.616800
  0
VERTEX
  8
0
  6
CONTINUOUS
 10
4.322120
 20
2.870560
  0
VERTEX
  8
0
  6
CONTINUOUS
 10
4.244680
 20
2.902680
  0
SEQEND
  8
0
  0
SOLID
  8
0
 62
    15
 10
2.409440
 20
1.284360
 11
2.404600
 21
2.030600
 12
2.409440
 22
2.662880
 13
2.404600
 23
3.409120
  0
POLYLINE
  8
0
  6
CONTINUOUS
 66
     1
 40
0.000000
 41
0.000000
  0
VERTEX
  8
0
  6
CONTINUOUS
 10
2.409440
 20
1.284360
  0
VERTEX
  8
0
  6
CONTINUOUS
 10
2.404600
 20
2.030600
  0
VERTEX
  8
0
  6
CONTINUOUS
 10
2.404600
 20
3.409120
  0
VERTEX
  8
0
  6
CONTINUOUS
 10
2.409440
 20
2.662880
  0
VERTEX
  8
0
  6
CONTINUOUS
 10
2.409440
 20
1.284360
  0
SEQEND
  8
0
  0
SOLID
  8
0
 62
    15
 10
2.409440
 20
2.662880
 11
2.404600
 21
3.409120
 12
2.556400
 22
2.662880
 13
2.551560
 23
3.409120
  0
POLYLINE
  8
0
  6
CONTINUOUS
 66
     1
 40
0.000000
 41
0.000000
  0
VERTEX
  8
0
  6
CONTINUOUS
 10
2.409440
 20
2.662880
  0
VERTEX
  8
0
  6
CONTINUOUS
 10
2.404600
 20
3.409120
  0
VERTEX
  8
0
  6
CONTINUOUS
 10
2.551560
 20
3.409120
  0
VERTEX
  8
0
  6
CONTINUOUS
 10
2.556400
 20
2.662880
  0
VERTEX
  8
0
  6
CONTINUOUS
 10
2.409440
 20
2.662880
  0
SEQEND
  8
0
  0
SOLID
  8
0
 62
    15
 10
2.556400
 20
2.662880
 11
2.551560
 21
3.409120
 12
2.559040
 22
2.716120
 13
2.554200
 23
3.462360
  0
POLYLINE
  8
0
  6
CONTINUOUS
 66
     1
 40
0.000000
 41
0.000000
  0
VERTEX
  8
0
  6
CONTINUOUS
 10
2.556400
 20
2.662880
  0
VERTEX
  8
0
  6
CONTINUOUS
 10
2.551560
 20
3.409120
  0
VERTEX
  8
0
  6
CONTINUOUS
 10
2.554200
 20
3.462360
  0
VERTEX
  8
0
  6
CONTINUOUS
 10
2.559040
 20
2.716120
  0
VERTEX
  8
0
  6
CONTINUOUS
 10
2.556400
 20
2.662880
  0
SEQEND
  8
0
  0
SOLID
  8
0
 62
    15
 10
2.567400
 20
2.762320
 11
2.562560
 21
3.508560
 12
2.597320
 22
2.836680
 13
2.592480
 23
3.582920
  0
POLYLINE
  8
0
  6
CONTINUOUS
 66
     1
 40
0.000000
 41
0.000000
  0
VERTEX
  8
0
  6
CONTINUOUS
 10
2.567400
 20
2.762320
  0
VERTEX
  8
0
  6
CONTINUOUS
 10
2.562560
 20
3.508560
  0
VERTEX
  8
0
  6
CONTINUOUS
 10
2.592480
 20
3.582920
  0
VERTEX
  8
0
  6
CONTINUOUS
 10
2.597320
 20
2.836680
  0
VERTEX
  8
0
  6
CONTINUOUS
 10
2.567400
 20
2.762320
  0
SEQEND
  8
0
  0
SOLID
  8
0
 62
    15
 10
2.597320
 20
2.836680
 11
2.592480
 21
3.582920
 12
2.643080
 22
2.888600
 13
2.638240
 23
3.634840
  0
POLYLINE
  8
0
  6
CONTINUOUS
 66
     1
 40
0.000000
 41
0.000000
  0
VERTEX
  8
0
  6
CONTINUOUS
 10
2.597320
 20
2.836680
  0
VERTEX
  8
0
  6
CONTINUOUS
 10
2.592480
 20
3.582920
  0
VERTEX
  8
0
  6
CONTINUOUS
 10
2.638240
 20
3.634840
  0
VERTEX
  8
0
  6
CONTINUOUS
 10
2.643080
 20
2.888600
  0
VERTEX
  8
0
  6
CONTINUOUS
 10
2.597320
 20
2.836680
  0
SEQEND
  8
0
  0
SOLID
  8
0
 62
    15
 10
2.643080
 20
2.888600
 11
2.638240
 21
3.634840
 12
2.700720
 22
2.922920
 13
2.695880
 23
3.669160
  0
POLYLINE
  8
0
  6
CONTINUOUS
 66
     1
 40
0.000000
 41
0.000000
  0
VERTEX
  8
0
  6
CONTINUOUS
 10
2.643080
 20
2.888600
  0
VERTEX
  8
0
  6
CONTINUOUS
 10
2.638240
 20
3.634840
  0
VERTEX
  8
0
  6
CONTINUOUS
 10
2.695880
 20
3.669160
  0
VERTEX
  8
0
  6
CONTINUOUS
 10
2.700720
 20
2.922920
  0
VERTEX
  8
0
  6
CONTINUOUS
 10
2.643080
 20
2.888600
  0
SEQEND
  8
0
  0
SOLID
  8
0
 62
    15
 10
2.700720
 20
2.922920
 11
2.695880
 21
3.669160
 12
2.766280
 22
2.943160
 13
2.761440
 23
3.689400
  0
POLYLINE
  8
0
  6
CONTINUOUS
 66
     1
 40
0.000000
 41
0.000000
  0
VERTEX
  8
0
  6
CONTINUOUS
 10
2.700720
 20
2.922920
  0
VERTEX
  8
0
  6
CONTINUOUS
 10
2.695880
 20
3.669160
  0
VERTEX
  8
0
  6
CONTINUOUS
 10
2.761440
 20
3.689400
  0
VERTEX
  8
0
  6
CONTINUOUS
 10
2.766280
 20
2.943160
  0
VERTEX
  8
0
  6
CONTINUOUS
 10
2.700720
 20
2.922920
  0
SEQEND
  8
0
  0
SOLID
  8
0
 62
    15
 10
2.766280
 20
2.943160
 11
2.761440
 21
3.689400
 12
2.836240
 22
2.952840
 13
2.831400
 23
3.699080
  0
POLYLINE
  8
0
  6
CONTINUOUS
 66
     1
 40
0.000000
 41
0.000000
  0
VERTEX
  8
0
  6
CONTINUOUS
 10
2.766280
 20
2.943160
  0
VERTEX
  8
0
  6
CONTINUOUS
 10
2.761440
 20
3.689400
  0
VERTEX
  8
0
  6
CONTINUOUS
 10
2.831400
 20
3.699080
  0
VERTEX
  8
0
  6
CONTINUOUS
 10
2.836240
 20
2.952840
  0
VERTEX
  8
0
  6
CONTINUOUS
 10
2.766280
 20
2.943160
  0
SEQEND
  8
0
  0
SOLID
  8
0
 62
    15
 10
2.836240
 20
2.952840
 11
2.831400
 21
3.699080
 12
2.906640
 22
2.955920
 13
2.901800
 23
3.702160
  0
POLYLINE
  8
0
  6
CONTINUOUS
 66
     1
 40
0.000000
 41
0.000000
  0
VERTEX
  8
0
  6
CONTINUOUS
 10
2.836240
 20
2.952840
  0
VERTEX
  8
0
  6
CONTINUOUS
 10
2.831400
 20
3.699080
  0
VERTEX
  8
0
  6
CONTINUOUS
 10
2.901800
 20
3.702160
  0
VERTEX
  8
0
  6
CONTINUOUS
 10
2.906640
 20
2.955920
  0
VERTEX
  8
0
  6
CONTINUOUS
 10
2.836240
 20
2.952840
  0
SEQEND
  8
0
  0
SOLID
  8
0
 62
    15
 10
2.906640
 20
2.955920
 11
2.901800
 21
3.702160
 12
2.940960
 22
2.956360
 13
2.936120
 23
3.702600
  0
POLYLINE
  8
0
  6
CONTINUOUS
 66
     1
 40
0.000000
 41
0.000000
  0
VERTEX
  8
0
  6
CONTINUOUS
 10
2.906640
 20
2.955920
  0
VERTEX
  8
0
  6
CONTINUOUS
 10
2.901800
 20
3.702160
  0
VERTEX
  8
0
  6
CONTINUOUS
 10
2.936120
 20
3.702600
  0
VERTEX
  8
0
  6
CONTINUOUS
 10
2.940960
 20
2.956360
  0
VERTEX
  8
0
  6
CONTINUOUS
 10
2.906640
 20
2.955920
  0
SEQEND
  8
0
  0
SOLID
  8
0
 62
    15
 10
2.940960
 20
2.956360
 11
2.936120
 21
3.702600
 12
2.973960
 22
2.956360
 13
2.969120
 23
3.702600
  0
POLYLINE
  8
0
  6
CONTINUOUS
 66
     1
 40
0.000000
 41
0.000000
  0
VERTEX
  8
0
  6
CONTINUOUS
 10
2.940960
 20
2.956360
  0
VERTEX
  8
0
  6
CONTINUOUS
 10
2.936120
 20
3.702600
  0
VERTEX
  8
0
  6
CONTINUOUS
 10
2.969120
 20
3.702600
  0
VERTEX
  8
0
  6
CONTINUOUS
 10
2.973960
 20
2.956360
  0
VERTEX
  8
0
  6
CONTINUOUS
 10
2.940960
 20
2.956360
  0
SEQEND
  8
0
  0
SOLID
  8
0
 62
    15
 10
2.973960
 20
2.956360
 11
2.969120
 21
3.702600
 12
2.973960
 22
3.036880
 13
2.969120
 23
3.783120
  0
POLYLINE
  8
0
  6
CONTINUOUS
 66
     1
 40
0.000000
 41
0.000000
  0
VERTEX
  8
0
  6
CONTINUOUS
 10
2.973960
 20
2.956360
  0
VERTEX
  8
0
  6
CONTINUOUS
 10
2.969120
 20
3.702600
  0
VERTEX
  8
0
  6
CONTINUOUS
 10
2.969120
 20
3.783120
  0
VERTEX
  8
0
  6
CONTINUOUS
 10
2.973960
 20
3.036880
  0
VERTEX
  8
0
  6
CONTINUOUS
 10
2.973960
 20
2.956360
  0
SEQEND
  8
0
  0
SOLID
  8
0
 62
    15
 10
2.973960
 20
3.036880
 11
2.969120
 21
3.783120
 12
3.773880
 22
3.036880
 13
3.769040
 23
3.783120
  0
POLYLINE
  8
0
  6
CONTINUOUS
 66
     1
 40
0.000000
 41
0.000000
  0
VERTEX
  8
0
  6
CONTINUOUS
 10
2.973960
 20
3.036880
  0
VERTEX
  8
0
  6
CONTINUOUS
 10
2.969120
 20
3.783120
  0
VERTEX
  8
0
  6
CONTINUOUS
 10
3.769040
 20
3.783120
  0
VERTEX
  8
0
  6
CONTINUOUS
 10
3.773880
 20
3.036880
  0
VERTEX
  8
0
  6
CONTINUOUS
 10
2.973960
 20
3.036880
  0
SEQEND
  8
0
  0
SOLID
  8
0
 62
    15
 10
3.773880
 20
3.036880
 11
3.769040
 21
3.783120
 12
3.789720
 22
2.887720
 13
3.784880
 23
3.633960
  0
POLYLINE
  8
0
  6
CONTINUOUS
 66
     1
 40
0.000000
 41
0.000000
  0
VERTEX
  8
0
  6
CONTINUOUS
 10
3.773880
 20
3.036880
  0
VERTEX
  8
0
  6
CONTINUOUS
 10
3.769040
 20
3.783120
  0
VERTEX
  8
0
  6
CONTINUOUS
 10
3.784880
 20
3.633960
  0
VERTEX
  8
0
  6
CONTINUOUS
 10
3.789720
 20
2.887720
  0
VERTEX
  8
0
  6
CONTINUOUS
 10
3.773880
 20
3.036880
  0
SEQEND
  8
0
  0
SOLID
  8
0
 62
    15
 10
3.789720
 20
2.887720
 11
3.784880
 21
3.633960
 12
3.858360
 22
2.918960
 13
3.853520
 23
3.665200
  0
POLYLINE
  8
0
  6
CONTINUOUS
 66
     1
 40
0.000000
 41
0.000000
  0
VERTEX
  8
0
  6
CONTINUOUS
 10
3.789720
 20
2.887720
  0
VERTEX
  8
0
  6
CONTINUOUS
 10
3.784880
 20
3.633960
  0
VERTEX
  8
0
  6
CONTINUOUS
 10
3.853520
 20
3.665200
  0
VERTEX
  8
0
  6
CONTINUOUS
 10
3.858360
 20
2.918960
  0
VERTEX
  8
0
  6
CONTINUOUS
 10
3.789720
 20
2.887720
  0
SEQEND
  8
0
  0
SOLID
  8
0
 62
    15
 10
3.858360
 20
2.918960
 11
3.853520
 21
3.665200
 12
3.931400
 22
2.937880
 13
3.926560
 23
3.684120
  0
POLYLINE
  8
0
  6
CONTINUOUS
 66
     1
 40
0.000000
 41
0.000000
  0
VERTEX
  8
0
  6
CONTINUOUS
 10
3.858360
 20
2.918960
  0
VERTEX
  8
0
  6
CONTINUOUS
 10
3.853520
 20
3.665200
  0
VERTEX
  8
0
  6
CONTINUOUS
 10
3.926560
 20
3.684120
  0
VERTEX
  8
0
  6
CONTINUOUS
 10
3.931400
 20
2.937880
  0
VERTEX
  8
0
  6
CONTINUOUS
 10
3.858360
 20
2.918960
  0
SEQEND
  8
0
  0
SOLID
  8
0
 62
    15
 10
3.931400
 20
2.937880
 11
3.926560
 21
3.684120
 12
4.007520
 22
2.944920
 13
4.003120
 23
3.691160
  0
POLYLINE
  8
0
  6
CONTINUOUS
 66
     1
 40
0.000000
 41
0.000000
  0
VERTEX
  8
0
  6
CONTINUOUS
 10
3.931400
 20
2.937880
  0
VERTEX
  8
0
  6
CONTINUOUS
 10
3.926560
 20
3.684120
  0
VERTEX
  8
0
  6
CONTINUOUS
 10
4.003120
 20
3.691160
  0
VERTEX
  8
0
  6
CONTINUOUS
 10
4.007520
 20
2.944920
  0
VERTEX
  8
0
  6
CONTINUOUS
 10
3.931400
 20
2.937880
  0
SEQEND
  8
0
  0
SOLID
  8
0
 62
    15
 10
4.007520
 20
2.944920
 11
4.003120
 21
3.691160
 12
4.086280
 22
2.940960
 13
4.081440
 23
3.687200
  0
POLYLINE
  8
0
  6
CONTINUOUS
 66
     1
 40
0.000000
 41
0.000000
  0
VERTEX
  8
0
  6
CONTINUOUS
 10
4.007520
 20
2.944920
  0
VERTEX
  8
0
  6
CONTINUOUS
 10
4.003120
 20
3.691160
  0
VERTEX
  8
0
  6
CONTINUOUS
 10
4.081440
 20
3.687200
  0
VERTEX
  8
0
  6
CONTINUOUS
 10
4.086280
 20
2.940960
  0
VERTEX
  8
0
  6
CONTINUOUS
 10
4.007520
 20
2.944920
  0
SEQEND
  8
0
  0
SOLID
  8
0
 62
    15
 10
4.086280
 20
2.940960
 11
4.081440
 21
3.687200
 12
4.165920
 22
2.926440
 13
4.161080
 23
3.672680
  0
POLYLINE
  8
0
  6
CONTINUOUS
 66
     1
 40
0.000000
 41
0.000000
  0
VERTEX
  8
0
  6
CONTINUOUS
 10
4.086280
 20
2.940960
  0
VERTEX
  8
0
  6
CONTINUOUS
 10
4.081440
 20
3.687200
  0
VERTEX
  8
0
  6
CONTINUOUS
 10
4.161080
 20
3.672680
  0
VERTEX
  8
0
  6
CONTINUOUS
 10
4.165920
 20
2.926440
  0
VERTEX
  8
0
  6
CONTINUOUS
 10
4.086280
 20
2.940960
  0
SEQEND
  8
0
  0
SOLID
  8
0
 62
    15
 10
4.165920
 20
2.926440
 11
4.161080
 21
3.672680
 12
4.244680
 22
2.902680
 13
4.239840
 23
3.648920
  0
POLYLINE
  8
0
  6
CONTINUOUS
 66
     1
 40
0.000000
 41
0.000000
  0
VERTEX
  8
0
  6
CONTINUOUS
 10
4.165920
 20
2.926440
  0
VERTEX
  8
0
  6
CONTINUOUS
 10
4.161080
 20
3.672680
  0
VERTEX
  8
0
  6
CONTINUOUS
 10
4.239840
 20
3.648920
  0
VERTEX
  8
0
  6
CONTINUOUS
 10
4.244680
 20
2.902680
  0
VERTEX
  8
0
  6
CONTINUOUS
 10
4.165920
 20
2.926440
  0
SEQEND
  8
0
  0
SOLID
  8
0
 62
    15
 10
2.559040
 20
2.716120
 11
2.554200
 21
3.462360
 12
2.567400
 22
2.762320
 13
2.562560
 23
3.508560
  0
POLYLINE
  8
0
  6
CONTINUOUS
 66
     1
 40
0.000000
 41
0.000000
  0
VERTEX
  8
0
  6
CONTINUOUS
 10
2.559040
 20
2.716120
  0
VERTEX
  8
0
  6
CONTINUOUS
 10
2.554200
 20
3.462360
  0
VERTEX
  8
0
  6
CONTINUOUS
 10
2.562560
 20
3.508560
  0
VERTEX
  8
0
  6
CONTINUOUS
 10
2.567400
 20
2.762320
  0
VERTEX
  8
0
  6
CONTINUOUS
 10
2.559040
 20
2.716120
  0
SEQEND
  8
0
  0
SOLID
  8
0
 62
    15
 10
4.322120
 20
2.870560
 11
4.317280
 21
3.616800
 12
4.396920
 22
2.830080
 13
4.392080
 23
3.576320
  0
POLYLINE
  8
0
  6
CONTINUOUS
 66
     1
 40
0.000000
 41
0.000000
  0
VERTEX
  8
0
  6
CONTINUOUS
 10
4.322120
 20
2.870560
  0
VERTEX
  8
0
  6
CONTINUOUS
 10
4.317280
 20
3.616800
  0
VERTEX
  8
0
  6
CONTINUOUS
 10
4.392080
 20
3.576320
  0
VERTEX
  8
0
  6
CONTINUOUS
 10
4.396920
 20
2.830080
  0
VERTEX
  8
0
  6
CONTINUOUS
 10
4.322120
 20
2.870560
  0
SEQEND
  8
0
  0
SOLID
  8
0
 62
    15
 10
4.396920
 20
2.830080
 11
4.392080
 21
3.576320
 12
4.532440
 22
2.728880
 13
4.527600
 23
3.475120
  0
POLYLINE
  8
0
  6
CONTINUOUS
 66
     1
 40
0.000000
 41
0.000000
  0
VERTEX
  8
0
  6
CONTINUOUS
 10
4.396920
 20
2.830080
  0
VERTEX
  8
0
  6
CONTINUOUS
 10
4.392080
 20
3.576320
  0
VERTEX
  8
0
  6
CONTINUOUS
 10
4.527600
 20
3.475120
  0
VERTEX
  8
0
  6
CONTINUOUS
 10
4.532440
 20
2.728880
  0
VERTEX
  8
0
  6
CONTINUOUS
 10
4.396920
 20
2.830080
  0
SEQEND
  8
0
  0
SOLID
  8
0
 62
    15
 10
4.532440
 20
2.728880
 11
4.527600
 21
3.475120
 12
4.590960
 22
2.669920
 13
4.586120
 23
3.416160
  0
POLYLINE
  8
0
  6
CONTINUOUS
 66
     1
 40
0.000000
 41
0.000000
  0
VERTEX
  8
0
  6
CONTINUOUS
 10
4.532440
 20
2.728880
  0
VERTEX
  8
0
  6
CONTINUOUS
 10
4.527600
 20
3.475120
  0
VERTEX
  8
0
  6
CONTINUOUS
 10
4.586120
 20
3.416160
  0
VERTEX
  8
0
  6
CONTINUOUS
 10
4.590960
 20
2.669920
  0
VERTEX
  8
0
  6
CONTINUOUS
 10
4.532440
 20
2.728880
  0
SEQEND
  8
0
  0
SOLID
  8
0
 62
    15
 10
4.590960
 20
2.669920
 11
4.586120
 21
3.416160
 12
4.641560
 22
2.605680
 13
4.636720
 23
3.351920
  0
POLYLINE
  8
0
  6
CONTINUOUS
 66
     1
 40
0.000000
 41
0.000000
  0
VERTEX
  8
0
  6
CONTINUOUS
 10
4.590960
 20
2.669920
  0
VERTEX
  8
0
  6
CONTINUOUS
 10
4.586120
 20
3.416160
  0
VERTEX
  8
0
  6
CONTINUOUS
 10
4.636720
 20
3.351920
  0
VERTEX
  8
0
  6
CONTINUOUS
 10
4.641560
 20
2.605680
  0
VERTEX
  8
0
  6
CONTINUOUS
 10
4.590960
 20
2.669920
  0
SEQEND
  8
0
  0
SOLID
  8
0
 62
    15
 10
4.641560
 20
2.605680
 11
4.636720
 21
3.351920
 12
4.683360
 22
2.537920
 13
4.678520
 23
3.284160
  0
POLYLINE
  8
0
  6
CONTINUOUS
 66
     1
 40
0.000000
 41
0.000000
  0
VERTEX
  8
0
  6
CONTINUOUS
 10
4.641560
 20
2.605680
  0
VERTEX
  8
0
  6
CONTINUOUS
 10
4.636720
 20
3.351920
  0
VERTEX
  8
0
  6
CONTINUOUS
 10
4.678520
 20
3.284160
  0
VERTEX
  8
0
  6
CONTINUOUS
 10
4.683360
 20
2.537920
  0
VERTEX
  8
0
  6
CONTINUOUS
 10
4.641560
 20
2.605680
  0
SEQEND
  8
0
  0
SOLID
  8
0
 62
    15
 10
4.683360
 20
2.537920
 11
4.678520
 21
3.284160
 12
4.714160
 22
2.466640
 13
4.709320
 23
3.212880
  0
POLYLINE
  8
0
  6
CONTINUOUS
 66
     1
 40
0.000000
 41
0.000000
  0
VERTEX
  8
0
  6
CONTINUOUS
 10
4.683360
 20
2.537920
  0
VERTEX
  8
0
  6
CONTINUOUS
 10
4.678520
 20
3.284160
  0
VERTEX
  8
0
  6
CONTINUOUS
 10
4.709320
 20
3.212880
  0
VERTEX
  8
0
  6
CONTINUOUS
 10
4.714160
 20
2.466640
  0
VERTEX
  8
0
  6
CONTINUOUS
 10
4.683360
 20
2.537920
  0
SEQEND
  8
0
  0
SOLID
  8
0
 62
    15
 10
4.740560
 20
2.317920
 11
4.735720
 21
3.064160
 12
4.786320
 22
2.369400
 13
4.781480
 23
3.115640
  0
POLYLINE
  8
0
  6
CONTINUOUS
 66
     1
 40
0.000000
 41
0.000000
  0
VERTEX
  8
0
  6
CONTINUOUS
 10
4.740560
 20
2.317920
  0
VERTEX
  8
0
  6
CONTINUOUS
 10
4.735720
 20
3.064160
  0
VERTEX
  8
0
  6
CONTINUOUS
 10
4.781480
 20
3.115640
  0
VERTEX
  8
0
  6
CONTINUOUS
 10
4.786320
 20
2.369400
  0
VERTEX
  8
0
  6
CONTINUOUS
 10
4.740560
 20
2.317920
  0
SEQEND
  8
0
  0
SOLID
  8
0
 62
    15
 10
4.733960
 20
2.393160
 11
4.729120
 21
3.139400
 12
4.740560
 22
2.317920
 13
4.735720
 23
3.064160
  0
POLYLINE
  8
0
  6
CONTINUOUS
 66
     1
 40
0.000000
 41
0.000000
  0
VERTEX
  8
0
  6
CONTINUOUS
 10
4.733960
 20
2.393160
  0
VERTEX
  8
0
  6
CONTINUOUS
 10
4.729120
 20
3.139400
  0
VERTEX
  8
0
  6
CONTINUOUS
 10
4.735720
 20
3.064160
  0
VERTEX
  8
0
  6
CONTINUOUS
 10
4.740560
 20
2.317920
  0
VERTEX
  8
0
  6
CONTINUOUS
 10
4.733960
 20
2.393160
  0
SEQEND
  8
0
  0
SOLID
  8
0
 62
    15
 10
4.714160
 20
2.466640
 11
4.709320
 21
3.212880
 12
4.733960
 22
2.393160
 13
4.729120
 23
3.139400
  0
POLYLINE
  8
0
  6
CONTINUOUS
 66
     1
 40
0.000000
 41
0.000000
  0
VERTEX
  8
0
  6
CONTINUOUS
 10
4.714160
 20
2.466640
  0
VERTEX
  8
0
  6
CONTINUOUS
 10
4.709320
 20
3.212880
  0
VERTEX
  8
0
  6
CONTINUOUS
 10
4.729120
 20
3.139400
  0
VERTEX
  8
0
  6
CONTINUOUS
 10
4.733960
 20
2.393160
  0
VERTEX
  8
0
  6
CONTINUOUS
 10
4.714160
 20
2.466640
  0
SEQEND
  8
0
  0
SOLID
  8
0
 62
    15
 10
4.786320
 20
2.369400
 11
4.781480
 21
3.115640
 12
4.843080
 22
2.409000
 13
4.838240
 23
3.155240
  0
POLYLINE
  8
0
  6
CONTINUOUS
 66
     1
 40
0.000000
 41
0.000000
  0
VERTEX
  8
0
  6
CONTINUOUS
 10
4.786320
 20
2.369400
  0
VERTEX
  8
0
  6
CONTINUOUS
 10
4.781480
 20
3.115640
  0
VERTEX
  8
0
  6
CONTINUOUS
 10
4.838240
 20
3.155240
  0
VERTEX
  8
0
  6
CONTINUOUS
 10
4.843080
 20
2.409000
  0
VERTEX
  8
0
  6
CONTINUOUS
 10
4.786320
 20
2.369400
  0
SEQEND
  8
0
  0
SOLID
  8
0
 62
    15
 10
4.843080
 20
2.409000
 11
4.838240
 21
3.155240
 12
4.908200
 22
2.434520
 13
4.903360
 23
3.180760
  0
POLYLINE
  8
0
  6
CONTINUOUS
 66
     1
 40
0.000000
 41
0.000000
  0
VERTEX
  8
0
  6
CONTINUOUS
 10
4.843080
 20
2.409000
  0
VERTEX
  8
0
  6
CONTINUOUS
 10
4.838240
 20
3.155240
  0
VERTEX
  8
0
  6
CONTINUOUS
 10
4.903360
 20
3.180760
  0
VERTEX
  8
0
  6
CONTINUOUS
 10
4.908200
 20
2.434520
  0
VERTEX
  8
0
  6
CONTINUOUS
 10
4.843080
 20
2.409000
  0
SEQEND
  8
0
  0
SOLID
  8
0
 62
    15
 10
4.908200
 20
2.434520
 11
4.903360
 21
3.180760
 12
4.980360
 22
2.443320
 13
4.975520
 23
3.189560
  0
POLYLINE
  8
0
  6
CONTINUOUS
 66
     1
 40
0.000000
 41
0.000000
  0
VERTEX
  8
0
  6
CONTINUOUS
 10
4.908200
 20
2.434520
  0
VERTEX
  8
0
  6
CONTINUOUS
 10
4.903360
 20
3.180760
  0
VERTEX
  8
0
  6
CONTINUOUS
 10
4.975520
 20
3.189560
  0
VERTEX
  8
0
  6
CONTINUOUS
 10
4.980360
 20
2.443320
  0
VERTEX
  8
0
  6
CONTINUOUS
 10
4.908200
 20
2.434520
  0
SEQEND
  8
0
  0
SOLID
  8
0
 62
    15
 10
4.980360
 20
2.443320
 11
4.975520
 21
3.189560
 12
5.038880
 22
2.437600
 13
5.034040
 23
3.183840
  0
POLYLINE
  8
0
  6
CONTINUOUS
 66
     1
 40
0.000000
 41
0.000000
  0
VERTEX
  8
0
  6
CONTINUOUS
 10
4.980360
 20
2.443320
  0
VERTEX
  8
0
  6
CONTINUOUS
 10
4.975520
 20
3.189560
  0
VERTEX
  8
0
  6
CONTINUOUS
 10
5.034040
 20
3.183840
  0
VERTEX
  8
0
  6
CONTINUOUS
 10
5.038880
 20
2.437600
  0
VERTEX
  8
0
  6
CONTINUOUS
 10
4.980360
 20
2.443320
  0
SEQEND
  8
0
  0
SOLID
  8
0
 62
    15
 10
5.038880
 20
2.437600
 11
5.034040
 21
3.183840
 12
5.093440
 22
2.420440
 13
5.088600
 23
3.166680
  0
POLYLINE
  8
0
  6
CONTINUOUS
 66
     1
 40
0.000000
 41
0.000000
  0
VERTEX
  8
0
  6
CONTINUOUS
 10
5.038880
 20
2.437600
  0
VERTEX
  8
0
  6
CONTINUOUS
 10
5.034040
 20
3.183840
  0
VERTEX
  8
0
  6
CONTINUOUS
 10
5.088600
 20
3.166680
  0
VERTEX
  8
0
  6
CONTINUOUS
 10
5.093440
 20
2.420440
  0
VERTEX
  8
0
  6
CONTINUOUS
 10
5.038880
 20
2.437600
  0
SEQEND
  8
0
  0
SOLID
  8
0
 62
    15
 10
5.093440
 20
2.420440
 11
5.088600
 21
3.166680
 12
5.142720
 22
2.394040
 13
5.137880
 23
3.140280
  0
POLYLINE
  8
0
  6
CONTINUOUS
 66
     1
 40
0.000000
 41
0.000000
  0
VERTEX
  8
0
  6
CONTINUOUS
 10
5.093440
 20
2.420440
  0
VERTEX
  8
0
  6
CONTINUOUS
 10
5.088600
 20
3.166680
  0
VERTEX
  8
0
  6
CONTINUOUS
 10
5.137880
 20
3.140280
  0
VERTEX
  8
0
  6
CONTINUOUS
 10
5.142720
 20
2.394040
  0
VERTEX
  8
0
  6
CONTINUOUS
 10
5.093440
 20
2.420440
  0
SEQEND
  8
0
  0
SOLID
  8
0
 62
    15
 10
5.142720
 20
2.394040
 11
5.137880
 21
3.140280
 12
5.185840
 22
2.358400
 13
5.181000
 23
3.104640
  0
POLYLINE
  8
0
  6
CONTINUOUS
 66
     1
 40
0.000000
 41
0.000000
  0
VERTEX
  8
0
  6
CONTINUOUS
 10
5.142720
 20
2.394040
  0
VERTEX
  8
0
  6
CONTINUOUS
 10
5.137880
 20
3.140280
  0
VERTEX
  8
0
  6
CONTINUOUS
 10
5.181000
 20
3.104640
  0
VERTEX
  8
0
  6
CONTINUOUS
 10
5.185840
 20
2.358400
  0
VERTEX
  8
0
  6
CONTINUOUS
 10
5.142720
 20
2.394040
  0
SEQEND
  8
0
  0
SOLID
  8
0
 62
    15
 10
5.194200
 20
1.955800
 11
5.189360
 21
2.702040
 12
5.194200
 22
1.956240
 13
5.189360
 23
2.702480
  0
POLYLINE
  8
0
  6
CONTINUOUS
 66
     1
 40
0.000000
 41
0.000000
  0
VERTEX
  8
0
  6
CONTINUOUS
 10
5.194200
 20
1.955800
  0
VERTEX
  8
0
  6
CONTINUOUS
 10
5.189360
 20
2.702040
  0
VERTEX
  8
0
  6
CONTINUOUS
 10
5.189360
 20
2.702480
  0
VERTEX
  8
0
  6
CONTINUOUS
 10
5.194200
 20
1.956240
  0
VERTEX
  8
0
  6
CONTINUOUS
 10
5.194200
 20
1.955800
  0
SEQEND
  8
0
  0
SOLID
  8
0
 62
    15
 10
5.221480
 20
2.315280
 11
5.216640
 21
3.061520
 12
5.248320
 22
2.265560
 13
5.243480
 23
3.011800
  0
POLYLINE
  8
0
  6
CONTINUOUS
 66
     1
 40
0.000000
 41
0.000000
  0
VERTEX
  8
0
  6
CONTINUOUS
 10
5.221480
 20
2.315280
  0
VERTEX
  8
0
  6
CONTINUOUS
 10
5.216640
 20
3.061520
  0
VERTEX
  8
0
  6
CONTINUOUS
 10
5.243480
 20
3.011800
  0
VERTEX
  8
0
  6
CONTINUOUS
 10
5.248320
 20
2.265560
  0
VERTEX
  8
0
  6
CONTINUOUS
 10
5.221480
 20
2.315280
  0
SEQEND
  8
0
  0
SOLID
  8
0
 62
    15
 10
5.265040
 20
2.211000
 11
5.260200
 21
2.957240
 12
5.271200
 22
2.152480
 13
5.266360
 23
2.898720
  0
POLYLINE
  8
0
  6
CONTINUOUS
 66
     1
 40
0.000000
 41
0.000000
  0
VERTEX
  8
0
  6
CONTINUOUS
 10
5.265040
 20
2.211000
  0
VERTEX
  8
0
  6
CONTINUOUS
 10
5.260200
 20
2.957240
  0
VERTEX
  8
0
  6
CONTINUOUS
 10
5.266360
 20
2.898720
  0
VERTEX
  8
0
  6
CONTINUOUS
 10
5.271200
 20
2.152480
  0
VERTEX
  8
0
  6
CONTINUOUS
 10
5.265040
 20
2.211000
  0
SEQEND
  8
0
  0
SOLID
  8
0
 62
    15
 10
5.248320
 20
2.265560
 11
5.243480
 21
3.011800
 12
5.265040
 22
2.211000
 13
5.260200
 23
2.957240
  0
POLYLINE
  8
0
  6
CONTINUOUS
 66
     1
 40
0.000000
 41
0.000000
  0
VERTEX
  8
0
  6
CONTINUOUS
 10
5.248320
 20
2.265560
  0
VERTEX
  8
0
  6
CONTINUOUS
 10
5.243480
 20
3.011800
  0
VERTEX
  8
0
  6
CONTINUOUS
 10
5.260200
 20
2.957240
  0
VERTEX
  8
0
  6
CONTINUOUS
 10
5.265040
 20
2.211000
  0
VERTEX
  8
0
  6
CONTINUOUS
 10
5.248320
 20
2.265560
  0
SEQEND
  8
0
  0
SOLID
  8
0
 62
    15
 10
5.185840
 20
2.358400
 11
5.181000
 21
3.104640
 12
5.221480
 22
2.315280
 13
5.216640
 23
3.061520
  0
POLYLINE
  8
0
  6
CONTINUOUS
 66
     1
 40
0.000000
 41
0.000000
  0
VERTEX
  8
0
  6
CONTINUOUS
 10
5.185840
 20
2.358400
  0
VERTEX
  8
0
  6
CONTINUOUS
 10
5.181000
 20
3.104640
  0
VERTEX
  8
0
  6
CONTINUOUS
 10
5.216640
 20
3.061520
  0
VERTEX
  8
0
  6
CONTINUOUS
 10
5.221480
 20
2.315280
  0
VERTEX
  8
0
  6
CONTINUOUS
 10
5.185840
 20
2.358400
  0
SEQEND
  8
0
  0
POLYLINE
  8
0
  6
CONTINUOUS
 66
     1
 40
0.000000
 41
0.000000
  0
VERTEX
  8
0
  6
CONTINUOUS
 10
5.194200
 20
1.956240
  0
VERTEX
  8
0
  6
CONTINUOUS
 10
4.734400
 20
1.956240
  0
VERTEX
  8
0
  6
CONTINUOUS
 10
4.734400
 20
1.284360
  0
VERTEX
  8
0
  6
CONTINUOUS
 10
2.409440
 20
1.284360
  0
VERTEX
  8
0
  6
CONTINUOUS
 10
2.409440
 20
2.662880
  0
VERTEX
  8
0
  6
CONTINUOUS
 10
2.556400
 20
2.662880
  0
VERTEX
  8
0
  6
CONTINUOUS
 10
2.559040
 20
2.716120
  0
VERTEX
  8
0
  6
CONTINUOUS
 10
2.567400
 20
2.762320
  0
VERTEX
  8
0
  6
CONTINUOUS
 10
2.597320
 20
2.836680
  0
VERTEX
  8
0
  6
CONTINUOUS
 10
2.643080
 20
2.888600
  0
VERTEX
  8
0
  6
CONTINUOUS
 10
2.700720
 20
2.922920
  0
VERTEX
  8
0
  6
CONTINUOUS
 10
2.766280
 20
2.943160
  0
VERTEX
  8
0
  6
CONTINUOUS
 10
2.836240
 20
2.952840
  0
VERTEX
  8
0
  6
CONTINUOUS
 10
2.906640
 20
2.955920
  0
VERTEX
  8
0
  6
CONTINUOUS
 10
2.973960
 20
2.956360
  0
VERTEX
  8
0
  6
CONTINUOUS
 10
2.973960
 20
3.036880
  0
VERTEX
  8
0
  6
CONTINUOUS
 10
3.773880
 20
3.036880
  0
VERTEX
  8
0
  6
CONTINUOUS
 10
3.789720
 20
2.887720
  0
VERTEX
  8
0
  6
CONTINUOUS
 10
3.858360
 20
2.918960
  0
VERTEX
  8
0
  6
CONTINUOUS
 10
3.931400
 20
2.937880
  0
VERTEX
  8
0
  6
CONTINUOUS
 10
4.007520
 20
2.944920
  0
VERTEX
  8
0
  6
CONTINUOUS
 10
4.086280
 20
2.940960
  0
VERTEX
  8
0
  6
CONTINUOUS
 10
4.165920
 20
2.926440
  0
VERTEX
  8
0
  6
CONTINUOUS
 10
4.244680
 20
2.902680
  0
VERTEX
  8
0
  6
CONTINUOUS
 10
4.322120
 20
2.870560
  0
VERTEX
  8
0
  6
CONTINUOUS
 10
4.396920
 20
2.830080
  0
VERTEX
  8
0
  6
CONTINUOUS
 10
4.532440
 20
2.728880
  0
VERTEX
  8
0
  6
CONTINUOUS
 10
4.590960
 20
2.669920
  0
VERTEX
  8
0
  6
CONTINUOUS
 10
4.641560
 20
2.605680
  0
VERTEX
  8
0
  6
CONTINUOUS
 10
4.683360
 20
2.537920
  0
VERTEX
  8
0
  6
CONTINUOUS
 10
4.714160
 20
2.466640
  0
VERTEX
  8
0
  6
CONTINUOUS
 10
4.733960
 20
2.393160
  0
VERTEX
  8
0
  6
CONTINUOUS
 10
4.740560
 20
2.317920
  0
VERTEX
  8
0
  6
CONTINUOUS
 10
4.786320
 20
2.369400
  0
VERTEX
  8
0
  6
CONTINUOUS
 10
4.843080
 20
2.409000
  0
VERTEX
  8
0
  6
CONTINUOUS
 10
4.908200
 20
2.434520
  0
VERTEX
  8
0
  6
CONTINUOUS
 10
4.980360
 20
2.443320
  0
VERTEX
  8
0
  6
CONTINUOUS
 10
5.038880
 20
2.437600
  0
VERTEX
  8
0
  6
CONTINUOUS
 10
5.093440
 20
2.420440
  0
VERTEX
  8
0
  6
CONTINUOUS
 10
5.142720
 20
2.394040
  0
VERTEX
  8
0
  6
CONTINUOUS
 10
5.185840
 20
2.358400
  0
VERTEX
  8
0
  6
CONTINUOUS
 10
5.221480
 20
2.315280
  0
VERTEX
  8
0
  6
CONTINUOUS
 10
5.248320
 20
2.265560
  0
VERTEX
  8
0
  6
CONTINUOUS
 10
5.265040
 20
2.211000
  0
VERTEX
  8
0
  6
CONTINUOUS
 10
5.271200
 20
2.152480
  0
VERTEX
  8
0
  6
CONTINUOUS
 10
5.265920
 20
2.097040
  0
VERTEX
  8
0
  6
CONTINUOUS
 10
5.250520
 20
2.045120
  0
VERTEX
  8
0
  6
CONTINUOUS
 10
5.226320
 20
1.997600
  0
VERTEX
  8
0
  6
CONTINUOUS
 10
5.194200
 20
1.955800
  0
VERTEX
  8
0
  6
CONTINUOUS
 10
5.194200
 20
1.956240
  0
SEQEND
  8
0
  0
TEXT
  8
0
 10
4.242480
 20
0.969760
 40
0.138251
  1
BA  763A 1-3/4" x 2-7/8"
 41
1.000000
  7
SN0
 71
     0
 72
     5
 11
6.037955
 21
0.969760
  0
TEXT
  8
0
 10
4.242480
 20
0.778360
 40
0.138251
  1
BA  763B 11/16" x 3-1/16"
 41
1.000000
  7
SN0
 71
     0
 72
     5
 11
6.167185
 21
0.778360
  0
TEXT
  8
0
 10
2.500080
 20
1.385120
 40
0.138251
  1
A
 41
1.000000
  7
SN0
 71
     0
 72
     5
 11
2.611088
 21
1.385120
  0
TEXT
  8
0
 10
4.799080
 20
1.381160
 40
0.138251
  1
B
 41
1.000000
  7
SN0
 71
     0
 72
     5
 11
4.910088
 21
1.381160
  0
ENDSEC
  0
EOF
