  0
SECTION
  2
HEADER
  9
$ACADVER
  1
AC1006
  9
$EXTMIN
 10
3.381400
 20
0.652080
  9
$EXTMAX
 10
7.498920
 20
4.046240
  9
$LTSCALE
 40
0.044000
  9
$PDMODE
 70
    35
  9
$PDSIZE
 40
0.035200
  0
ENDSEC
  0
SECTION
  2
TABLES
  0
TABLE
  2
LTYPE
 70
     9
  0
LTYPE
  2
CONTINUOUS
 70
    64
  3
Solid line
 72
    65
 73
     0
 40
0.000000
  0
LTYPE
  2
DASHED
 70
    64
  3
__ __ __ __ __ __ __ __ __ __ __ __ __ __ __
 72
    65
 73
     2
 40
0.000330
 49
0.000220
 49
-0.000110
  0
LTYPE
  2
HIDDEN
 70
    64
  3
 _ _ _ _ _ _ _ _ _ _ _ _ _ _ _ _ _ _ _ _ _ _
 72
    65
 73
     2
 40
0.000165
 49
0.000110
 49
-0.000055
  0
LTYPE
  2
CENTER
 70
    64
  3
____ _ ____ _ ____ _ ____ _ ____ _ ____ _ ____
 72
    65
 73
     4
 40
0.000880
 49
0.000550
 49
-0.000110
 49
0.000110
 49
-0.000110
  0
LTYPE
  2
PHANTOM
 70
    64
  3
_____ _ _ _____ _ _ _____ _ _ _____ _ _ ____
 72
    65
 73
     6
 40
0.001100
 49
0.000550
 49
-0.000110
 49
0.000110
 49
-0.000110
 49
0.000110
 49
-0.000110
  0
LTYPE
  2
DOT
 70
    64
  3
...............................................
 72
    65
 73
     2
 40
0.000110
 49
0.000000
 49
-0.000110
  0
LTYPE
  2
DASHDOT
 70
    64
  3
__ . __ . __ . __ . __ . __ . __ . __ . __ . __
 72
    65
 73
     4
 40
0.000440
 49
0.000220
 49
-0.000110
 49
0.000000
 49
-0.000110
  0
LTYPE
  2
BORDER
 70
    64
  3
__ __ . __ __ . __ __ . __ __ . __ __ . __ __
 72
    65
 73
     6
 40
0.000770
 49
0.000220
 49
-0.000110
 49
0.000220
 49
-0.000110
 49
0.000000
 49
-0.000110
  0
LTYPE
  2
DIVIDE
 70
    64
  3
__ . . __ . . __ . . __ . . __ . . __ . . __
 72
    65
 73
     6
 40
0.000550
 49
0.000220
 49
-0.000110
 49
0.000000
 49
-0.000110
 49
0.000000
 49
-0.000110
  0
LTYPE
  2
DOTDOT
 70
    64
  3
 . .  . .  . .  . .  . .  . . 
 72
    65
 73
     5
 40
0.000242
 49
-0.000110
 49
0.000000
 49
-0.000110
 49
0.000000
 49
-0.000110
  0
ENDTAB
  0
TABLE
  2
STYLE
 70
     2
  0
STYLE
 70
     0
  2
SN0
 40
0.000000
 41
0.000440
 50
0.000000
 71
     0
 42
0.000000
  3
ROMAND
  0
STYLE
 70
    68
  2
SV0
 40
0.000000
 41
0.000440
 50
0.000000
 71
     0
 42
0.000000
  3
ROMAND
  0
ENDTAB
  0
TABLE
  2
LAYER
 70
     3
  0
LAYER
  2
FOREGROUND
 70
    64
 62
     7
  6
CONTINUOUS
  0
LAYER
  2
BACKGROUND
 70
    65
 62
    -7
  6
CONTINUOUS
  0
LAYER
  2
0
 70
    64
 62
     7
  6
CONTINUOUS
  0
ENDTAB
  0
ENDSEC
  0
SECTION
  2
ENTITIES
  0
POLYLINE
  8
FOREGROUND
  6
CONTINUOUS
 66
     1
 40
0.000000
 41
0.000000
  0
VERTEX
  8
FOREGROUND
  6
CONTINUOUS
 10
0.000000
 20
4.698320
  0
VERTEX
  8
FOREGROUND
  6
CONTINUOUS
 10
8.499920
 20
4.698320
  0
VERTEX
  8
FOREGROUND
  6
CONTINUOUS
 10
8.499920
 20
-6.301680
  0
VERTEX
  8
FOREGROUND
  6
CONTINUOUS
 10
0.000000
 20
-6.301680
  0
VERTEX
  8
FOREGROUND
  6
CONTINUOUS
 10
0.000000
 20
4.698320
  0
SEQEND
  8
0
  0
POLYLINE
  8
FOREGROUND
  6
CONTINUOUS
 66
     1
 40
0.000000
 41
0.000000
  0
VERTEX
  8
FOREGROUND
  6
CONTINUOUS
 10
0.000000
 20
4.698320
  0
VERTEX
  8
FOREGROUND
  6
CONTINUOUS
 10
8.499920
 20
4.698320
  0
VERTEX
  8
FOREGROUND
  6
CONTINUOUS
 10
8.499920
 20
-6.301680
  0
VERTEX
  8
FOREGROUND
  6
CONTINUOUS
 10
0.000000
 20
-6.301680
  0
VERTEX
  8
FOREGROUND
  6
CONTINUOUS
 10
0.000000
 20
4.698320
  0
SEQEND
  8
0
  0
POLYLINE
  8
0
  6
CONTINUOUS
 66
     1
 40
0.014080
 41
0.014080
  0
VERTEX
  8
0
  6
CONTINUOUS
 10
4.033920
 20
4.035680
  0
VERTEX
  8
0
  6
CONTINUOUS
 10
4.051520
 20
3.939760
  0
VERTEX
  8
0
  6
CONTINUOUS
 10
4.108280
 20
3.971000
  0
VERTEX
  8
0
  6
CONTINUOUS
 10
4.144800
 20
3.986400
  0
VERTEX
  8
0
  6
CONTINUOUS
 10
4.163720
 20
3.991680
  0
VERTEX
  8
0
  6
CONTINUOUS
 10
4.193200
 20
3.996520
  0
VERTEX
  8
0
  6
CONTINUOUS
 10
4.214320
 20
3.996960
  0
VERTEX
  8
0
  6
CONTINUOUS
 10
4.249080
 20
3.993000
  0
VERTEX
  8
0
  6
CONTINUOUS
 10
4.288680
 20
3.983320
  0
VERTEX
  8
0
  6
CONTINUOUS
 10
4.333120
 20
3.967040
  0
VERTEX
  8
0
  6
CONTINUOUS
 10
4.403080
 20
3.933160
  0
VERTEX
  8
0
  6
CONTINUOUS
 10
4.484920
 20
3.888280
  0
VERTEX
  8
0
  6
CONTINUOUS
 10
4.568520
 20
3.849120
  0
VERTEX
  8
0
  6
CONTINUOUS
 10
4.648600
 20
3.818320
  0
VERTEX
  8
0
  6
CONTINUOUS
 10
4.722960
 20
3.795000
  0
VERTEX
  8
0
  6
CONTINUOUS
 10
4.816680
 20
3.771680
  0
VERTEX
  8
0
  6
CONTINUOUS
 10
4.893240
 20
3.758480
  0
VERTEX
  8
0
  6
CONTINUOUS
 10
4.903800
 20
3.757160
  0
VERTEX
  8
0
  6
CONTINUOUS
 10
4.915680
 20
3.676200
  0
VERTEX
  8
0
  6
CONTINUOUS
 10
7.491440
 20
3.676200
  0
VERTEX
  8
0
  6
CONTINUOUS
 10
7.491440
 20
3.233120
  0
VERTEX
  8
0
  6
CONTINUOUS
 10
3.506360
 20
3.233120
  0
VERTEX
  8
0
  6
CONTINUOUS
 10
3.506360
 20
4.038320
  0
VERTEX
  8
0
  6
CONTINUOUS
 10
4.033920
 20
4.038320
  0
VERTEX
  8
0
  6
CONTINUOUS
 10
4.033920
 20
4.035680
  0
SEQEND
  8
0
  0
SOLID
  8
0
 62
    15
 10
4.404400
 20
1.749000
 11
4.402640
 21
2.507560
 12
4.486680
 22
1.714240
 13
4.484920
 23
2.472800
  0
POLYLINE
  8
0
  6
CONTINUOUS
 66
     1
 40
0.000000
 41
0.000000
  0
VERTEX
  8
0
  6
CONTINUOUS
 10
4.404400
 20
1.749000
  0
VERTEX
  8
0
  6
CONTINUOUS
 10
4.402640
 20
2.507560
  0
VERTEX
  8
0
  6
CONTINUOUS
 10
4.484920
 20
2.472800
  0
VERTEX
  8
0
  6
CONTINUOUS
 10
4.486680
 20
1.714240
  0
VERTEX
  8
0
  6
CONTINUOUS
 10
4.404400
 20
1.749000
  0
SEQEND
  8
0
  0
SOLID
  8
0
 62
    15
 10
3.929200
 20
1.821600
 11
3.927000
 21
2.580160
 12
3.967480
 22
1.843600
 13
3.965720
 23
2.602160
  0
POLYLINE
  8
0
  6
CONTINUOUS
 66
     1
 40
0.000000
 41
0.000000
  0
VERTEX
  8
0
  6
CONTINUOUS
 10
3.929200
 20
1.821600
  0
VERTEX
  8
0
  6
CONTINUOUS
 10
3.927000
 20
2.580160
  0
VERTEX
  8
0
  6
CONTINUOUS
 10
3.965720
 20
2.602160
  0
VERTEX
  8
0
  6
CONTINUOUS
 10
3.967480
 20
1.843600
  0
VERTEX
  8
0
  6
CONTINUOUS
 10
3.929200
 20
1.821600
  0
SEQEND
  8
0
  0
SOLID
  8
0
 62
    15
 10
3.967480
 20
1.843600
 11
3.965720
 21
2.602160
 12
4.004000
 22
1.861640
 13
4.002240
 23
2.619760
  0
POLYLINE
  8
0
  6
CONTINUOUS
 66
     1
 40
0.000000
 41
0.000000
  0
VERTEX
  8
0
  6
CONTINUOUS
 10
3.967480
 20
1.843600
  0
VERTEX
  8
0
  6
CONTINUOUS
 10
3.965720
 20
2.602160
  0
VERTEX
  8
0
  6
CONTINUOUS
 10
4.002240
 20
2.619760
  0
VERTEX
  8
0
  6
CONTINUOUS
 10
4.004000
 20
1.861640
  0
VERTEX
  8
0
  6
CONTINUOUS
 10
3.967480
 20
1.843600
  0
SEQEND
  8
0
  0
SOLID
  8
0
 62
    15
 10
4.004000
 20
1.861640
 11
4.002240
 21
2.619760
 12
4.041400
 22
1.873960
 13
4.039200
 23
2.632080
  0
POLYLINE
  8
0
  6
CONTINUOUS
 66
     1
 40
0.000000
 41
0.000000
  0
VERTEX
  8
0
  6
CONTINUOUS
 10
4.004000
 20
1.861640
  0
VERTEX
  8
0
  6
CONTINUOUS
 10
4.002240
 20
2.619760
  0
VERTEX
  8
0
  6
CONTINUOUS
 10
4.039200
 20
2.632080
  0
VERTEX
  8
0
  6
CONTINUOUS
 10
4.041400
 20
1.873960
  0
VERTEX
  8
0
  6
CONTINUOUS
 10
4.004000
 20
1.861640
  0
SEQEND
  8
0
  0
SOLID
  8
0
 62
    15
 10
4.041400
 20
1.873960
 11
4.039200
 21
2.632080
 12
4.081440
 22
1.878800
 13
4.079240
 23
2.637360
  0
POLYLINE
  8
0
  6
CONTINUOUS
 66
     1
 40
0.000000
 41
0.000000
  0
VERTEX
  8
0
  6
CONTINUOUS
 10
4.041400
 20
1.873960
  0
VERTEX
  8
0
  6
CONTINUOUS
 10
4.039200
 20
2.632080
  0
VERTEX
  8
0
  6
CONTINUOUS
 10
4.079240
 20
2.637360
  0
VERTEX
  8
0
  6
CONTINUOUS
 10
4.081440
 20
1.878800
  0
VERTEX
  8
0
  6
CONTINUOUS
 10
4.041400
 20
1.873960
  0
SEQEND
  8
0
  0
SOLID
  8
0
 62
    15
 10
4.081440
 20
1.878800
 11
4.079240
 21
2.637360
 12
4.126760
 22
1.874840
 13
4.125000
 23
2.633400
  0
POLYLINE
  8
0
  6
CONTINUOUS
 66
     1
 40
0.000000
 41
0.000000
  0
VERTEX
  8
0
  6
CONTINUOUS
 10
4.081440
 20
1.878800
  0
VERTEX
  8
0
  6
CONTINUOUS
 10
4.079240
 20
2.637360
  0
VERTEX
  8
0
  6
CONTINUOUS
 10
4.125000
 20
2.633400
  0
VERTEX
  8
0
  6
CONTINUOUS
 10
4.126760
 20
1.874840
  0
VERTEX
  8
0
  6
CONTINUOUS
 10
4.081440
 20
1.878800
  0
SEQEND
  8
0
  0
SOLID
  8
0
 62
    15
 10
4.126760
 20
1.874840
 11
4.125000
 21
2.633400
 12
4.180440
 22
1.860320
 13
4.178240
 23
2.618880
  0
POLYLINE
  8
0
  6
CONTINUOUS
 66
     1
 40
0.000000
 41
0.000000
  0
VERTEX
  8
0
  6
CONTINUOUS
 10
4.126760
 20
1.874840
  0
VERTEX
  8
0
  6
CONTINUOUS
 10
4.125000
 20
2.633400
  0
VERTEX
  8
0
  6
CONTINUOUS
 10
4.178240
 20
2.618880
  0
VERTEX
  8
0
  6
CONTINUOUS
 10
4.180440
 20
1.860320
  0
VERTEX
  8
0
  6
CONTINUOUS
 10
4.126760
 20
1.874840
  0
SEQEND
  8
0
  0
SOLID
  8
0
 62
    15
 10
4.180440
 20
1.860320
 11
4.178240
 21
2.618880
 12
4.210800
 22
1.848440
 13
4.208600
 23
2.607000
  0
POLYLINE
  8
0
  6
CONTINUOUS
 66
     1
 40
0.000000
 41
0.000000
  0
VERTEX
  8
0
  6
CONTINUOUS
 10
4.180440
 20
1.860320
  0
VERTEX
  8
0
  6
CONTINUOUS
 10
4.178240
 20
2.618880
  0
VERTEX
  8
0
  6
CONTINUOUS
 10
4.208600
 20
2.607000
  0
VERTEX
  8
0
  6
CONTINUOUS
 10
4.210800
 20
1.848440
  0
VERTEX
  8
0
  6
CONTINUOUS
 10
4.180440
 20
1.860320
  0
SEQEND
  8
0
  0
SOLID
  8
0
 62
    15
 10
4.210800
 20
1.848440
 11
4.208600
 21
2.607000
 12
4.244240
 22
1.833480
 13
4.242040
 23
2.592040
  0
POLYLINE
  8
0
  6
CONTINUOUS
 66
     1
 40
0.000000
 41
0.000000
  0
VERTEX
  8
0
  6
CONTINUOUS
 10
4.210800
 20
1.848440
  0
VERTEX
  8
0
  6
CONTINUOUS
 10
4.208600
 20
2.607000
  0
VERTEX
  8
0
  6
CONTINUOUS
 10
4.242040
 20
2.592040
  0
VERTEX
  8
0
  6
CONTINUOUS
 10
4.244240
 20
1.833480
  0
VERTEX
  8
0
  6
CONTINUOUS
 10
4.210800
 20
1.848440
  0
SEQEND
  8
0
  0
SOLID
  8
0
 62
    15
 10
4.244240
 20
1.833480
 11
4.242040
 21
2.592040
 12
4.280760
 22
1.815000
 13
4.278560
 23
2.573560
  0
POLYLINE
  8
0
  6
CONTINUOUS
 66
     1
 40
0.000000
 41
0.000000
  0
VERTEX
  8
0
  6
CONTINUOUS
 10
4.244240
 20
1.833480
  0
VERTEX
  8
0
  6
CONTINUOUS
 10
4.242040
 20
2.592040
  0
VERTEX
  8
0
  6
CONTINUOUS
 10
4.278560
 20
2.573560
  0
VERTEX
  8
0
  6
CONTINUOUS
 10
4.280760
 20
1.815000
  0
VERTEX
  8
0
  6
CONTINUOUS
 10
4.244240
 20
1.833480
  0
SEQEND
  8
0
  0
SOLID
  8
0
 62
    15
 10
4.280760
 20
1.815000
 11
4.278560
 21
2.573560
 12
4.320800
 22
1.792560
 13
4.318600
 23
2.551120
  0
POLYLINE
  8
0
  6
CONTINUOUS
 66
     1
 40
0.000000
 41
0.000000
  0
VERTEX
  8
0
  6
CONTINUOUS
 10
4.280760
 20
1.815000
  0
VERTEX
  8
0
  6
CONTINUOUS
 10
4.278560
 20
2.573560
  0
VERTEX
  8
0
  6
CONTINUOUS
 10
4.318600
 20
2.551120
  0
VERTEX
  8
0
  6
CONTINUOUS
 10
4.320800
 20
1.792560
  0
VERTEX
  8
0
  6
CONTINUOUS
 10
4.280760
 20
1.815000
  0
SEQEND
  8
0
  0
SOLID
  8
0
 62
    15
 10
4.320800
 20
1.792560
 11
4.318600
 21
2.551120
 12
4.404400
 22
1.749000
 13
4.402640
 23
2.507560
  0
POLYLINE
  8
0
  6
CONTINUOUS
 66
     1
 40
0.000000
 41
0.000000
  0
VERTEX
  8
0
  6
CONTINUOUS
 10
4.320800
 20
1.792560
  0
VERTEX
  8
0
  6
CONTINUOUS
 10
4.318600
 20
2.551120
  0
VERTEX
  8
0
  6
CONTINUOUS
 10
4.402640
 20
2.507560
  0
VERTEX
  8
0
  6
CONTINUOUS
 10
4.404400
 20
1.749000
  0
VERTEX
  8
0
  6
CONTINUOUS
 10
4.320800
 20
1.792560
  0
SEQEND
  8
0
  0
SOLID
  8
0
 62
    15
 10
3.912040
 20
1.917520
 11
3.909840
 21
2.676080
 12
3.929200
 22
1.821600
 13
3.927000
 23
2.580160
  0
POLYLINE
  8
0
  6
CONTINUOUS
 66
     1
 40
0.000000
 41
0.000000
  0
VERTEX
  8
0
  6
CONTINUOUS
 10
3.912040
 20
1.917520
  0
VERTEX
  8
0
  6
CONTINUOUS
 10
3.909840
 20
2.676080
  0
VERTEX
  8
0
  6
CONTINUOUS
 10
3.927000
 20
2.580160
  0
VERTEX
  8
0
  6
CONTINUOUS
 10
3.929200
 20
1.821600
  0
VERTEX
  8
0
  6
CONTINUOUS
 10
3.912040
 20
1.917520
  0
SEQEND
  8
0
  0
SOLID
  8
0
 62
    15
 10
4.486680
 20
1.714240
 11
4.484920
 21
2.472800
 12
4.564560
 22
1.687400
 13
4.562360
 23
2.445960
  0
POLYLINE
  8
0
  6
CONTINUOUS
 66
     1
 40
0.000000
 41
0.000000
  0
VERTEX
  8
0
  6
CONTINUOUS
 10
4.486680
 20
1.714240
  0
VERTEX
  8
0
  6
CONTINUOUS
 10
4.484920
 20
2.472800
  0
VERTEX
  8
0
  6
CONTINUOUS
 10
4.562360
 20
2.445960
  0
VERTEX
  8
0
  6
CONTINUOUS
 10
4.564560
 20
1.687400
  0
VERTEX
  8
0
  6
CONTINUOUS
 10
4.486680
 20
1.714240
  0
SEQEND
  8
0
  0
SOLID
  8
0
 62
    15
 10
4.564560
 20
1.687400
 11
4.562360
 21
2.445960
 12
4.634960
 22
1.667600
 13
4.632760
 23
2.426160
  0
POLYLINE
  8
0
  6
CONTINUOUS
 66
     1
 40
0.000000
 41
0.000000
  0
VERTEX
  8
0
  6
CONTINUOUS
 10
4.564560
 20
1.687400
  0
VERTEX
  8
0
  6
CONTINUOUS
 10
4.562360
 20
2.445960
  0
VERTEX
  8
0
  6
CONTINUOUS
 10
4.632760
 20
2.426160
  0
VERTEX
  8
0
  6
CONTINUOUS
 10
4.634960
 20
1.667600
  0
VERTEX
  8
0
  6
CONTINUOUS
 10
4.564560
 20
1.687400
  0
SEQEND
  8
0
  0
SOLID
  8
0
 62
    15
 10
4.634960
 20
1.667600
 11
4.632760
 21
2.426160
 12
4.694800
 22
1.653520
 13
4.692600
 23
2.412080
  0
POLYLINE
  8
0
  6
CONTINUOUS
 66
     1
 40
0.000000
 41
0.000000
  0
VERTEX
  8
0
  6
CONTINUOUS
 10
4.634960
 20
1.667600
  0
VERTEX
  8
0
  6
CONTINUOUS
 10
4.632760
 20
2.426160
  0
VERTEX
  8
0
  6
CONTINUOUS
 10
4.692600
 20
2.412080
  0
VERTEX
  8
0
  6
CONTINUOUS
 10
4.694800
 20
1.653520
  0
VERTEX
  8
0
  6
CONTINUOUS
 10
4.634960
 20
1.667600
  0
SEQEND
  8
0
  0
SOLID
  8
0
 62
    15
 10
4.694800
 20
1.653520
 11
4.692600
 21
2.412080
 12
4.719440
 22
1.648680
 13
4.717680
 23
2.407240
  0
POLYLINE
  8
0
  6
CONTINUOUS
 66
     1
 40
0.000000
 41
0.000000
  0
VERTEX
  8
0
  6
CONTINUOUS
 10
4.694800
 20
1.653520
  0
VERTEX
  8
0
  6
CONTINUOUS
 10
4.692600
 20
2.412080
  0
VERTEX
  8
0
  6
CONTINUOUS
 10
4.717680
 20
2.407240
  0
VERTEX
  8
0
  6
CONTINUOUS
 10
4.719440
 20
1.648680
  0
VERTEX
  8
0
  6
CONTINUOUS
 10
4.694800
 20
1.653520
  0
SEQEND
  8
0
  0
SOLID
  8
0
 62
    15
 10
4.719440
 20
1.648680
 11
4.717680
 21
2.407240
 12
4.741000
 22
1.644720
 13
4.738800
 23
2.403280
  0
POLYLINE
  8
0
  6
CONTINUOUS
 66
     1
 40
0.000000
 41
0.000000
  0
VERTEX
  8
0
  6
CONTINUOUS
 10
4.719440
 20
1.648680
  0
VERTEX
  8
0
  6
CONTINUOUS
 10
4.717680
 20
2.407240
  0
VERTEX
  8
0
  6
CONTINUOUS
 10
4.738800
 20
2.403280
  0
VERTEX
  8
0
  6
CONTINUOUS
 10
4.741000
 20
1.644720
  0
VERTEX
  8
0
  6
CONTINUOUS
 10
4.719440
 20
1.648680
  0
SEQEND
  8
0
  0
SOLID
  8
0
 62
    15
 10
4.741000
 20
1.644720
 11
4.738800
 21
2.403280
 12
4.758160
 22
1.642080
 13
4.755960
 23
2.400640
  0
POLYLINE
  8
0
  6
CONTINUOUS
 66
     1
 40
0.000000
 41
0.000000
  0
VERTEX
  8
0
  6
CONTINUOUS
 10
4.741000
 20
1.644720
  0
VERTEX
  8
0
  6
CONTINUOUS
 10
4.738800
 20
2.403280
  0
VERTEX
  8
0
  6
CONTINUOUS
 10
4.755960
 20
2.400640
  0
VERTEX
  8
0
  6
CONTINUOUS
 10
4.758160
 20
1.642080
  0
VERTEX
  8
0
  6
CONTINUOUS
 10
4.741000
 20
1.644720
  0
SEQEND
  8
0
  0
SOLID
  8
0
 62
    15
 10
4.758160
 20
1.642080
 11
4.755960
 21
2.400640
 12
4.770920
 22
1.640320
 13
4.768720
 23
2.398880
  0
POLYLINE
  8
0
  6
CONTINUOUS
 66
     1
 40
0.000000
 41
0.000000
  0
VERTEX
  8
0
  6
CONTINUOUS
 10
4.758160
 20
1.642080
  0
VERTEX
  8
0
  6
CONTINUOUS
 10
4.755960
 20
2.400640
  0
VERTEX
  8
0
  6
CONTINUOUS
 10
4.768720
 20
2.398880
  0
VERTEX
  8
0
  6
CONTINUOUS
 10
4.770920
 20
1.640320
  0
VERTEX
  8
0
  6
CONTINUOUS
 10
4.758160
 20
1.642080
  0
SEQEND
  8
0
  0
SOLID
  8
0
 62
    15
 10
4.770920
 20
1.640320
 11
4.768720
 21
2.398880
 12
4.781480
 22
1.639000
 13
4.779720
 23
2.397560
  0
POLYLINE
  8
0
  6
CONTINUOUS
 66
     1
 40
0.000000
 41
0.000000
  0
VERTEX
  8
0
  6
CONTINUOUS
 10
4.770920
 20
1.640320
  0
VERTEX
  8
0
  6
CONTINUOUS
 10
4.768720
 20
2.398880
  0
VERTEX
  8
0
  6
CONTINUOUS
 10
4.779720
 20
2.397560
  0
VERTEX
  8
0
  6
CONTINUOUS
 10
4.781480
 20
1.639000
  0
VERTEX
  8
0
  6
CONTINUOUS
 10
4.770920
 20
1.640320
  0
SEQEND
  8
0
  0
SOLID
  8
0
 62
    15
 10
4.781480
 20
1.639000
 11
4.779720
 21
2.397560
 12
4.793360
 22
1.557600
 13
4.791160
 23
2.316160
  0
POLYLINE
  8
0
  6
CONTINUOUS
 66
     1
 40
0.000000
 41
0.000000
  0
VERTEX
  8
0
  6
CONTINUOUS
 10
4.781480
 20
1.639000
  0
VERTEX
  8
0
  6
CONTINUOUS
 10
4.779720
 20
2.397560
  0
VERTEX
  8
0
  6
CONTINUOUS
 10
4.791160
 20
2.316160
  0
VERTEX
  8
0
  6
CONTINUOUS
 10
4.793360
 20
1.557600
  0
VERTEX
  8
0
  6
CONTINUOUS
 10
4.781480
 20
1.639000
  0
SEQEND
  8
0
  0
SOLID
  8
0
 62
    15
 10
4.793360
 20
1.557600
 11
4.791160
 21
2.316160
 12
7.369120
 22
1.557600
 13
7.367360
 23
2.316160
  0
POLYLINE
  8
0
  6
CONTINUOUS
 66
     1
 40
0.000000
 41
0.000000
  0
VERTEX
  8
0
  6
CONTINUOUS
 10
4.793360
 20
1.557600
  0
VERTEX
  8
0
  6
CONTINUOUS
 10
4.791160
 20
2.316160
  0
VERTEX
  8
0
  6
CONTINUOUS
 10
7.367360
 20
2.316160
  0
VERTEX
  8
0
  6
CONTINUOUS
 10
7.369120
 20
1.557600
  0
VERTEX
  8
0
  6
CONTINUOUS
 10
4.793360
 20
1.557600
  0
SEQEND
  8
0
  0
SOLID
  8
0
 62
    15
 10
3.384040
 20
1.114960
 11
3.382280
 21
1.873520
 12
3.384040
 22
1.920160
 13
3.382280
 23
2.678720
  0
POLYLINE
  8
0
  6
CONTINUOUS
 66
     1
 40
0.000000
 41
0.000000
  0
VERTEX
  8
0
  6
CONTINUOUS
 10
3.384040
 20
1.114960
  0
VERTEX
  8
0
  6
CONTINUOUS
 10
3.382280
 20
1.873520
  0
VERTEX
  8
0
  6
CONTINUOUS
 10
3.382280
 20
2.678720
  0
VERTEX
  8
0
  6
CONTINUOUS
 10
3.384040
 20
1.920160
  0
VERTEX
  8
0
  6
CONTINUOUS
 10
3.384040
 20
1.114960
  0
SEQEND
  8
0
  0
SOLID
  8
0
 62
    15
 10
3.384040
 20
1.920160
 11
3.382280
 21
2.678720
 12
3.912040
 22
1.920160
 13
3.909840
 23
2.678720
  0
POLYLINE
  8
0
  6
CONTINUOUS
 66
     1
 40
0.000000
 41
0.000000
  0
VERTEX
  8
0
  6
CONTINUOUS
 10
3.384040
 20
1.920160
  0
VERTEX
  8
0
  6
CONTINUOUS
 10
3.382280
 20
2.678720
  0
VERTEX
  8
0
  6
CONTINUOUS
 10
3.909840
 20
2.678720
  0
VERTEX
  8
0
  6
CONTINUOUS
 10
3.912040
 20
1.920160
  0
VERTEX
  8
0
  6
CONTINUOUS
 10
3.384040
 20
1.920160
  0
SEQEND
  8
0
  0
POLYLINE
  8
0
  6
CONTINUOUS
 66
     1
 40
0.000000
 41
0.000000
  0
VERTEX
  8
0
  6
CONTINUOUS
 10
3.912040
 20
1.917520
  0
VERTEX
  8
0
  6
CONTINUOUS
 10
3.929200
 20
1.821600
  0
VERTEX
  8
0
  6
CONTINUOUS
 10
3.967480
 20
1.843600
  0
VERTEX
  8
0
  6
CONTINUOUS
 10
4.004000
 20
1.861640
  0
VERTEX
  8
0
  6
CONTINUOUS
 10
4.041400
 20
1.873960
  0
VERTEX
  8
0
  6
CONTINUOUS
 10
4.081440
 20
1.878800
  0
VERTEX
  8
0
  6
CONTINUOUS
 10
4.126760
 20
1.874840
  0
VERTEX
  8
0
  6
CONTINUOUS
 10
4.180440
 20
1.860320
  0
VERTEX
  8
0
  6
CONTINUOUS
 10
4.210800
 20
1.848440
  0
VERTEX
  8
0
  6
CONTINUOUS
 10
4.244240
 20
1.833480
  0
VERTEX
  8
0
  6
CONTINUOUS
 10
4.280760
 20
1.815000
  0
VERTEX
  8
0
  6
CONTINUOUS
 10
4.320800
 20
1.792560
  0
VERTEX
  8
0
  6
CONTINUOUS
 10
4.404400
 20
1.749000
  0
VERTEX
  8
0
  6
CONTINUOUS
 10
4.486680
 20
1.714240
  0
VERTEX
  8
0
  6
CONTINUOUS
 10
4.564560
 20
1.687400
  0
VERTEX
  8
0
  6
CONTINUOUS
 10
4.634960
 20
1.667600
  0
VERTEX
  8
0
  6
CONTINUOUS
 10
4.694800
 20
1.653520
  0
VERTEX
  8
0
  6
CONTINUOUS
 10
4.719440
 20
1.648680
  0
VERTEX
  8
0
  6
CONTINUOUS
 10
4.741000
 20
1.644720
  0
VERTEX
  8
0
  6
CONTINUOUS
 10
4.758160
 20
1.642080
  0
VERTEX
  8
0
  6
CONTINUOUS
 10
4.770920
 20
1.640320
  0
VERTEX
  8
0
  6
CONTINUOUS
 10
4.781480
 20
1.639000
  0
VERTEX
  8
0
  6
CONTINUOUS
 10
4.793360
 20
1.557600
  0
VERTEX
  8
0
  6
CONTINUOUS
 10
7.369120
 20
1.557600
  0
VERTEX
  8
0
  6
CONTINUOUS
 10
7.369120
 20
1.114960
  0
VERTEX
  8
0
  6
CONTINUOUS
 10
3.384040
 20
1.114960
  0
VERTEX
  8
0
  6
CONTINUOUS
 10
3.384040
 20
1.920160
  0
VERTEX
  8
0
  6
CONTINUOUS
 10
3.912040
 20
1.920160
  0
VERTEX
  8
0
  6
CONTINUOUS
 10
3.912040
 20
1.917520
  0
SEQEND
  8
0
  0
TEXT
  8
0
 10
5.070560
 20
0.887040
 40
0.137959
  1
BA  762
 41
1.000000
  7
SN0
 71
     0
 72
     5
 11
5.659571
 21
0.887040
  0
TEXT
  8
0
 10
4.965400
 20
0.695640
 40
0.137959
  1
13/16" x 4"
 41
1.000000
  7
SN0
 71
     0
 72
     5
 11
5.763169
 21
0.695640
  0
ENDSEC
  0
EOF
