  0
SECTION
  2
HEADER
  9
$ACADVER
  1
AC1006
  9
$EXTMIN
 10
5.004120
 20
0.455840
  9
$EXTMAX
 10
7.489240
 20
3.026760
  9
$LTSCALE
 40
0.044000
  9
$PDMODE
 70
    35
  9
$PDSIZE
 40
0.035200
  0
ENDSEC
  0
SECTION
  2
TABLES
  0
TABLE
  2
LTYPE
 70
     9
  0
LTYPE
  2
CONTINUOUS
 70
    64
  3
Solid line
 72
    65
 73
     0
 40
0.000000
  0
LTYPE
  2
DASHED
 70
    64
  3
__ __ __ __ __ __ __ __ __ __ __ __ __ __ __
 72
    65
 73
     2
 40
0.000330
 49
0.000220
 49
-0.000110
  0
LTYPE
  2
HIDDEN
 70
    64
  3
 _ _ _ _ _ _ _ _ _ _ _ _ _ _ _ _ _ _ _ _ _ _
 72
    65
 73
     2
 40
0.000165
 49
0.000110
 49
-0.000055
  0
LTYPE
  2
CENTER
 70
    64
  3
____ _ ____ _ ____ _ ____ _ ____ _ ____ _ ____
 72
    65
 73
     4
 40
0.000880
 49
0.000550
 49
-0.000110
 49
0.000110
 49
-0.000110
  0
LTYPE
  2
PHANTOM
 70
    64
  3
_____ _ _ _____ _ _ _____ _ _ _____ _ _ ____
 72
    65
 73
     6
 40
0.001100
 49
0.000550
 49
-0.000110
 49
0.000110
 49
-0.000110
 49
0.000110
 49
-0.000110
  0
LTYPE
  2
DOT
 70
    64
  3
...............................................
 72
    65
 73
     2
 40
0.000110
 49
0.000000
 49
-0.000110
  0
LTYPE
  2
DASHDOT
 70
    64
  3
__ . __ . __ . __ . __ . __ . __ . __ . __ . __
 72
    65
 73
     4
 40
0.000440
 49
0.000220
 49
-0.000110
 49
0.000000
 49
-0.000110
  0
LTYPE
  2
BORDER
 70
    64
  3
__ __ . __ __ . __ __ . __ __ . __ __ . __ __
 72
    65
 73
     6
 40
0.000770
 49
0.000220
 49
-0.000110
 49
0.000220
 49
-0.000110
 49
0.000000
 49
-0.000110
  0
LTYPE
  2
DIVIDE
 70
    64
  3
__ . . __ . . __ . . __ . . __ . . __ . . __
 72
    65
 73
     6
 40
0.000550
 49
0.000220
 49
-0.000110
 49
0.000000
 49
-0.000110
 49
0.000000
 49
-0.000110
  0
LTYPE
  2
DOTDOT
 70
    64
  3
 . .  . .  . .  . .  . .  . . 
 72
    65
 73
     5
 40
0.000242
 49
-0.000110
 49
0.000000
 49
-0.000110
 49
0.000000
 49
-0.000110
  0
ENDTAB
  0
TABLE
  2
STYLE
 70
     2
  0
STYLE
 70
     0
  2
SN0
 40
0.000000
 41
0.000440
 50
0.000000
 71
     0
 42
0.000000
  3
ROMAND
  0
STYLE
 70
    68
  2
SV0
 40
0.000000
 41
0.000440
 50
0.000000
 71
     0
 42
0.000000
  3
ROMAND
  0
ENDTAB
  0
TABLE
  2
LAYER
 70
     3
  0
LAYER
  2
FOREGROUND
 70
    64
 62
     7
  6
CONTINUOUS
  0
LAYER
  2
BACKGROUND
 70
    65
 62
    -7
  6
CONTINUOUS
  0
LAYER
  2
0
 70
    64
 62
     7
  6
CONTINUOUS
  0
ENDTAB
  0
ENDSEC
  0
SECTION
  2
ENTITIES
  0
POLYLINE
  8
FOREGROUND
  6
CONTINUOUS
 66
     1
 40
0.000000
 41
0.000000
  0
VERTEX
  8
FOREGROUND
  6
CONTINUOUS
 10
0.000000
 20
3.482600
  0
VERTEX
  8
FOREGROUND
  6
CONTINUOUS
 10
8.499920
 20
3.482600
  0
VERTEX
  8
FOREGROUND
  6
CONTINUOUS
 10
8.499920
 20
-7.517400
  0
VERTEX
  8
FOREGROUND
  6
CONTINUOUS
 10
0.000000
 20
-7.517400
  0
VERTEX
  8
FOREGROUND
  6
CONTINUOUS
 10
0.000000
 20
3.482600
  0
SEQEND
  8
0
  0
POLYLINE
  8
FOREGROUND
  6
CONTINUOUS
 66
     1
 40
0.000000
 41
0.000000
  0
VERTEX
  8
FOREGROUND
  6
CONTINUOUS
 10
0.000000
 20
3.482600
  0
VERTEX
  8
FOREGROUND
  6
CONTINUOUS
 10
8.499920
 20
3.482600
  0
VERTEX
  8
FOREGROUND
  6
CONTINUOUS
 10
8.499920
 20
-7.517400
  0
VERTEX
  8
FOREGROUND
  6
CONTINUOUS
 10
0.000000
 20
-7.517400
  0
VERTEX
  8
FOREGROUND
  6
CONTINUOUS
 10
0.000000
 20
3.482600
  0
SEQEND
  8
0
  0
POLYLINE
  8
0
  6
CONTINUOUS
 66
     1
 40
0.014080
 41
0.014080
  0
VERTEX
  8
0
  6
CONTINUOUS
 10
7.406520
 20
1.170840
  0
VERTEX
  8
0
  6
CONTINUOUS
 10
6.762800
 20
1.170840
  0
VERTEX
  8
0
  6
CONTINUOUS
 10
6.762800
 20
2.908840
  0
VERTEX
  8
0
  6
CONTINUOUS
 10
6.916800
 20
2.908840
  0
VERTEX
  8
0
  6
CONTINUOUS
 10
6.916800
 20
2.707760
  0
VERTEX
  8
0
  6
CONTINUOUS
 10
6.916800
 20
2.708200
  0
VERTEX
  8
0
  6
CONTINUOUS
 10
6.921640
 20
2.687520
  0
VERTEX
  8
0
  6
CONTINUOUS
 10
6.926920
 20
2.682240
  0
VERTEX
  8
0
  6
CONTINUOUS
 10
6.960800
 20
2.680040
  0
VERTEX
  8
0
  6
CONTINUOUS
 10
6.988960
 20
2.674760
  0
VERTEX
  8
0
  6
CONTINUOUS
 10
7.014040
 20
2.665960
  0
VERTEX
  8
0
  6
CONTINUOUS
 10
7.035160
 20
2.653200
  0
VERTEX
  8
0
  6
CONTINUOUS
 10
7.052760
 20
2.637360
  0
VERTEX
  8
0
  6
CONTINUOUS
 10
7.065520
 20
2.618000
  0
VERTEX
  8
0
  6
CONTINUOUS
 10
7.070360
 20
2.607000
  0
VERTEX
  8
0
  6
CONTINUOUS
 10
7.073880
 20
2.594680
  0
VERTEX
  8
0
  6
CONTINUOUS
 10
7.076520
 20
2.568280
  0
VERTEX
  8
0
  6
CONTINUOUS
 10
7.075640
 20
2.544520
  0
VERTEX
  8
0
  6
CONTINUOUS
 10
7.069480
 20
2.511080
  0
VERTEX
  8
0
  6
CONTINUOUS
 10
7.061560
 20
2.490840
  0
VERTEX
  8
0
  6
CONTINUOUS
 10
7.050120
 20
2.472360
  0
VERTEX
  8
0
  6
CONTINUOUS
 10
7.034280
 20
2.456520
  0
VERTEX
  8
0
  6
CONTINUOUS
 10
7.014480
 20
2.444200
  0
VERTEX
  8
0
  6
CONTINUOUS
 10
6.989840
 20
2.434960
  0
VERTEX
  8
0
  6
CONTINUOUS
 10
6.975320
 20
2.431880
  0
VERTEX
  8
0
  6
CONTINUOUS
 10
6.973560
 20
2.394480
  0
VERTEX
  8
0
  6
CONTINUOUS
 10
6.974440
 20
2.357080
  0
VERTEX
  8
0
  6
CONTINUOUS
 10
6.977520
 20
2.319240
  0
VERTEX
  8
0
  6
CONTINUOUS
 10
6.987200
 20
2.262040
  0
VERTEX
  8
0
  6
CONTINUOUS
 10
7.002600
 20
2.206160
  0
VERTEX
  8
0
  6
CONTINUOUS
 10
7.023720
 20
2.150720
  0
VERTEX
  8
0
  6
CONTINUOUS
 10
7.051000
 20
2.097480
  0
VERTEX
  8
0
  6
CONTINUOUS
 10
7.084440
 20
2.046440
  0
VERTEX
  8
0
  6
CONTINUOUS
 10
7.124480
 20
1.998040
  0
VERTEX
  8
0
  6
CONTINUOUS
 10
7.154400
 20
1.968120
  0
VERTEX
  8
0
  6
CONTINUOUS
 10
7.205000
 20
1.925880
  0
VERTEX
  8
0
  6
CONTINUOUS
 10
7.311920
 20
1.855480
  0
VERTEX
  8
0
  6
CONTINUOUS
 10
7.352400
 20
1.822920
  0
VERTEX
  8
0
  6
CONTINUOUS
 10
7.385840
 20
1.790800
  0
VERTEX
  8
0
  6
CONTINUOUS
 10
7.411800
 20
1.759120
  0
VERTEX
  8
0
  6
CONTINUOUS
 10
7.431160
 20
1.728760
  0
VERTEX
  8
0
  6
CONTINUOUS
 10
7.444800
 20
1.698840
  0
VERTEX
  8
0
  6
CONTINUOUS
 10
7.453160
 20
1.670680
  0
VERTEX
  8
0
  6
CONTINUOUS
 10
7.456680
 20
1.643400
  0
VERTEX
  8
0
  6
CONTINUOUS
 10
7.455800
 20
1.618320
  0
VERTEX
  8
0
  6
CONTINUOUS
 10
7.451840
 20
1.594560
  0
VERTEX
  8
0
  6
CONTINUOUS
 10
7.444800
 20
1.573000
  0
VERTEX
  8
0
  6
CONTINUOUS
 10
7.430280
 20
1.544840
  0
VERTEX
  8
0
  6
CONTINUOUS
 10
7.412240
 20
1.522400
  0
VERTEX
  8
0
  6
CONTINUOUS
 10
7.393320
 20
1.506560
  0
VERTEX
  8
0
  6
CONTINUOUS
 10
7.387160
 20
1.502600
  0
VERTEX
  8
0
  6
CONTINUOUS
 10
7.387160
 20
1.467400
  0
VERTEX
  8
0
  6
CONTINUOUS
 10
7.414000
 20
1.457720
  0
VERTEX
  8
0
  6
CONTINUOUS
 10
7.436000
 20
1.444520
  0
VERTEX
  8
0
  6
CONTINUOUS
 10
7.453160
 20
1.428680
  0
VERTEX
  8
0
  6
CONTINUOUS
 10
7.466360
 20
1.411080
  0
VERTEX
  8
0
  6
CONTINUOUS
 10
7.475160
 20
1.391280
  0
VERTEX
  8
0
  6
CONTINUOUS
 10
7.480440
 20
1.371040
  0
VERTEX
  8
0
  6
CONTINUOUS
 10
7.482200
 20
1.349480
  0
VERTEX
  8
0
  6
CONTINUOUS
 10
7.481320
 20
1.328360
  0
VERTEX
  8
0
  6
CONTINUOUS
 10
7.477800
 20
1.307680
  0
VERTEX
  8
0
  6
CONTINUOUS
 10
7.471640
 20
1.287880
  0
VERTEX
  8
0
  6
CONTINUOUS
 10
7.459320
 20
1.261480
  0
VERTEX
  8
0
  6
CONTINUOUS
 10
7.443920
 20
1.239920
  0
VERTEX
  8
0
  6
CONTINUOUS
 10
7.432920
 20
1.229360
  0
VERTEX
  8
0
  6
CONTINUOUS
 10
7.420600
 20
1.222760
  0
VERTEX
  8
0
  6
CONTINUOUS
 10
7.408720
 20
1.220120
  0
VERTEX
  8
0
  6
CONTINUOUS
 10
7.406520
 20
1.171720
  0
SEQEND
  8
0
  0
SOLID
  8
0
 62
     7
 10
5.430040
 20
1.679040
 11
6.078600
 21
2.057000
 12
5.466120
 22
1.652640
 13
6.114680
 23
2.030160
  0
POLYLINE
  8
0
  6
CONTINUOUS
 66
     1
 40
0.000000
 41
0.000000
  0
VERTEX
  8
0
  6
CONTINUOUS
 10
5.430040
 20
1.679040
  0
VERTEX
  8
0
  6
CONTINUOUS
 10
6.078600
 20
2.057000
  0
VERTEX
  8
0
  6
CONTINUOUS
 10
6.114680
 20
2.030160
  0
VERTEX
  8
0
  6
CONTINUOUS
 10
5.466120
 20
1.652640
  0
VERTEX
  8
0
  6
CONTINUOUS
 10
5.430040
 20
1.679040
  0
SEQEND
  8
0
  0
SOLID
  8
0
 62
    15
 10
5.159000
 20
2.648360
 11
5.808000
 21
3.026320
 12
5.159000
 22
2.447720
 13
5.808000
 23
2.825680
  0
POLYLINE
  8
0
  6
CONTINUOUS
 66
     1
 40
0.000000
 41
0.000000
  0
VERTEX
  8
0
  6
CONTINUOUS
 10
5.159000
 20
2.648360
  0
VERTEX
  8
0
  6
CONTINUOUS
 10
5.808000
 20
3.026320
  0
VERTEX
  8
0
  6
CONTINUOUS
 10
5.808000
 20
2.825680
  0
VERTEX
  8
0
  6
CONTINUOUS
 10
5.159000
 20
2.447720
  0
VERTEX
  8
0
  6
CONTINUOUS
 10
5.159000
 20
2.648360
  0
SEQEND
  8
0
  0
SOLID
  8
0
 62
    15
 10
5.159000
 20
2.447720
 11
5.808000
 21
2.825680
 12
5.161640
 22
2.435400
 13
5.810640
 23
2.813360
  0
POLYLINE
  8
0
  6
CONTINUOUS
 66
     1
 40
0.000000
 41
0.000000
  0
VERTEX
  8
0
  6
CONTINUOUS
 10
5.159000
 20
2.447720
  0
VERTEX
  8
0
  6
CONTINUOUS
 10
5.808000
 20
2.825680
  0
VERTEX
  8
0
  6
CONTINUOUS
 10
5.810640
 20
2.813360
  0
VERTEX
  8
0
  6
CONTINUOUS
 10
5.161640
 20
2.435400
  0
VERTEX
  8
0
  6
CONTINUOUS
 10
5.159000
 20
2.447720
  0
SEQEND
  8
0
  0
SOLID
  8
0
 62
    15
 10
5.161640
 20
2.435400
 11
5.810640
 21
2.813360
 12
5.163840
 22
2.427480
 13
5.812840
 23
2.805000
  0
POLYLINE
  8
0
  6
CONTINUOUS
 66
     1
 40
0.000000
 41
0.000000
  0
VERTEX
  8
0
  6
CONTINUOUS
 10
5.161640
 20
2.435400
  0
VERTEX
  8
0
  6
CONTINUOUS
 10
5.810640
 20
2.813360
  0
VERTEX
  8
0
  6
CONTINUOUS
 10
5.812840
 20
2.805000
  0
VERTEX
  8
0
  6
CONTINUOUS
 10
5.163840
 20
2.427480
  0
VERTEX
  8
0
  6
CONTINUOUS
 10
5.161640
 20
2.435400
  0
SEQEND
  8
0
  0
SOLID
  8
0
 62
    15
 10
5.163840
 20
2.427480
 11
5.812840
 21
2.805000
 12
5.166920
 22
2.423080
 13
5.815920
 23
2.800600
  0
POLYLINE
  8
0
  6
CONTINUOUS
 66
     1
 40
0.000000
 41
0.000000
  0
VERTEX
  8
0
  6
CONTINUOUS
 10
5.163840
 20
2.427480
  0
VERTEX
  8
0
  6
CONTINUOUS
 10
5.812840
 20
2.805000
  0
VERTEX
  8
0
  6
CONTINUOUS
 10
5.815920
 20
2.800600
  0
VERTEX
  8
0
  6
CONTINUOUS
 10
5.166920
 20
2.423080
  0
VERTEX
  8
0
  6
CONTINUOUS
 10
5.163840
 20
2.427480
  0
SEQEND
  8
0
  0
SOLID
  8
0
 62
    15
 10
5.166920
 20
2.423080
 11
5.815920
 21
2.800600
 12
5.172200
 22
2.421760
 13
5.821200
 23
2.799280
  0
POLYLINE
  8
0
  6
CONTINUOUS
 66
     1
 40
0.000000
 41
0.000000
  0
VERTEX
  8
0
  6
CONTINUOUS
 10
5.166920
 20
2.423080
  0
VERTEX
  8
0
  6
CONTINUOUS
 10
5.815920
 20
2.800600
  0
VERTEX
  8
0
  6
CONTINUOUS
 10
5.821200
 20
2.799280
  0
VERTEX
  8
0
  6
CONTINUOUS
 10
5.172200
 20
2.421760
  0
VERTEX
  8
0
  6
CONTINUOUS
 10
5.166920
 20
2.423080
  0
SEQEND
  8
0
  0
SOLID
  8
0
 62
    15
 10
5.172200
 20
2.421760
 11
5.821200
 21
2.799280
 12
5.203440
 22
2.420000
 13
5.852000
 23
2.797520
  0
POLYLINE
  8
0
  6
CONTINUOUS
 66
     1
 40
0.000000
 41
0.000000
  0
VERTEX
  8
0
  6
CONTINUOUS
 10
5.172200
 20
2.421760
  0
VERTEX
  8
0
  6
CONTINUOUS
 10
5.821200
 20
2.799280
  0
VERTEX
  8
0
  6
CONTINUOUS
 10
5.852000
 20
2.797520
  0
VERTEX
  8
0
  6
CONTINUOUS
 10
5.203440
 20
2.420000
  0
VERTEX
  8
0
  6
CONTINUOUS
 10
5.172200
 20
2.421760
  0
SEQEND
  8
0
  0
SOLID
  8
0
 62
    15
 10
5.203440
 20
2.420000
 11
5.852000
 21
2.797520
 12
5.231600
 22
2.414720
 13
5.880160
 23
2.792240
  0
POLYLINE
  8
0
  6
CONTINUOUS
 66
     1
 40
0.000000
 41
0.000000
  0
VERTEX
  8
0
  6
CONTINUOUS
 10
5.203440
 20
2.420000
  0
VERTEX
  8
0
  6
CONTINUOUS
 10
5.852000
 20
2.797520
  0
VERTEX
  8
0
  6
CONTINUOUS
 10
5.880160
 20
2.792240
  0
VERTEX
  8
0
  6
CONTINUOUS
 10
5.231600
 20
2.414720
  0
VERTEX
  8
0
  6
CONTINUOUS
 10
5.203440
 20
2.420000
  0
SEQEND
  8
0
  0
SOLID
  8
0
 62
    15
 10
5.231600
 20
2.414720
 11
5.880160
 21
2.792240
 12
5.256240
 22
2.405920
 13
5.905240
 23
2.783440
  0
POLYLINE
  8
0
  6
CONTINUOUS
 66
     1
 40
0.000000
 41
0.000000
  0
VERTEX
  8
0
  6
CONTINUOUS
 10
5.231600
 20
2.414720
  0
VERTEX
  8
0
  6
CONTINUOUS
 10
5.880160
 20
2.792240
  0
VERTEX
  8
0
  6
CONTINUOUS
 10
5.905240
 20
2.783440
  0
VERTEX
  8
0
  6
CONTINUOUS
 10
5.256240
 20
2.405920
  0
VERTEX
  8
0
  6
CONTINUOUS
 10
5.231600
 20
2.414720
  0
SEQEND
  8
0
  0
SOLID
  8
0
 62
    15
 10
5.256240
 20
2.405920
 11
5.905240
 21
2.783440
 12
5.277800
 22
2.393160
 13
5.926800
 23
2.771120
  0
POLYLINE
  8
0
  6
CONTINUOUS
 66
     1
 40
0.000000
 41
0.000000
  0
VERTEX
  8
0
  6
CONTINUOUS
 10
5.256240
 20
2.405920
  0
VERTEX
  8
0
  6
CONTINUOUS
 10
5.905240
 20
2.783440
  0
VERTEX
  8
0
  6
CONTINUOUS
 10
5.926800
 20
2.771120
  0
VERTEX
  8
0
  6
CONTINUOUS
 10
5.277800
 20
2.393160
  0
VERTEX
  8
0
  6
CONTINUOUS
 10
5.256240
 20
2.405920
  0
SEQEND
  8
0
  0
SOLID
  8
0
 62
    15
 10
5.277800
 20
2.393160
 11
5.926800
 21
2.771120
 12
5.295400
 22
2.377320
 13
5.943960
 23
2.754840
  0
POLYLINE
  8
0
  6
CONTINUOUS
 66
     1
 40
0.000000
 41
0.000000
  0
VERTEX
  8
0
  6
CONTINUOUS
 10
5.277800
 20
2.393160
  0
VERTEX
  8
0
  6
CONTINUOUS
 10
5.926800
 20
2.771120
  0
VERTEX
  8
0
  6
CONTINUOUS
 10
5.943960
 20
2.754840
  0
VERTEX
  8
0
  6
CONTINUOUS
 10
5.295400
 20
2.377320
  0
VERTEX
  8
0
  6
CONTINUOUS
 10
5.277800
 20
2.393160
  0
SEQEND
  8
0
  0
SOLID
  8
0
 62
    15
 10
5.295400
 20
2.377320
 11
5.943960
 21
2.754840
 12
5.308160
 22
2.357960
 13
5.957160
 23
2.735480
  0
POLYLINE
  8
0
  6
CONTINUOUS
 66
     1
 40
0.000000
 41
0.000000
  0
VERTEX
  8
0
  6
CONTINUOUS
 10
5.295400
 20
2.377320
  0
VERTEX
  8
0
  6
CONTINUOUS
 10
5.943960
 20
2.754840
  0
VERTEX
  8
0
  6
CONTINUOUS
 10
5.957160
 20
2.735480
  0
VERTEX
  8
0
  6
CONTINUOUS
 10
5.308160
 20
2.357960
  0
VERTEX
  8
0
  6
CONTINUOUS
 10
5.295400
 20
2.377320
  0
SEQEND
  8
0
  0
SOLID
  8
0
 62
    15
 10
5.308160
 20
2.357960
 11
5.957160
 21
2.735480
 12
5.316520
 22
2.334640
 13
5.965080
 23
2.712600
  0
POLYLINE
  8
0
  6
CONTINUOUS
 66
     1
 40
0.000000
 41
0.000000
  0
VERTEX
  8
0
  6
CONTINUOUS
 10
5.308160
 20
2.357960
  0
VERTEX
  8
0
  6
CONTINUOUS
 10
5.957160
 20
2.735480
  0
VERTEX
  8
0
  6
CONTINUOUS
 10
5.965080
 20
2.712600
  0
VERTEX
  8
0
  6
CONTINUOUS
 10
5.316520
 20
2.334640
  0
VERTEX
  8
0
  6
CONTINUOUS
 10
5.308160
 20
2.357960
  0
SEQEND
  8
0
  0
SOLID
  8
0
 62
    15
 10
5.316520
 20
2.334640
 11
5.965080
 21
2.712600
 12
5.319160
 22
2.308240
 13
5.968160
 23
2.685760
  0
POLYLINE
  8
0
  6
CONTINUOUS
 66
     1
 40
0.000000
 41
0.000000
  0
VERTEX
  8
0
  6
CONTINUOUS
 10
5.316520
 20
2.334640
  0
VERTEX
  8
0
  6
CONTINUOUS
 10
5.965080
 20
2.712600
  0
VERTEX
  8
0
  6
CONTINUOUS
 10
5.968160
 20
2.685760
  0
VERTEX
  8
0
  6
CONTINUOUS
 10
5.319160
 20
2.308240
  0
VERTEX
  8
0
  6
CONTINUOUS
 10
5.316520
 20
2.334640
  0
SEQEND
  8
0
  0
SOLID
  8
0
 62
    15
 10
5.319160
 20
2.308240
 11
5.968160
 21
2.685760
 12
5.314760
 22
2.262040
 13
5.963320
 23
2.639560
  0
POLYLINE
  8
0
  6
CONTINUOUS
 66
     1
 40
0.000000
 41
0.000000
  0
VERTEX
  8
0
  6
CONTINUOUS
 10
5.319160
 20
2.308240
  0
VERTEX
  8
0
  6
CONTINUOUS
 10
5.968160
 20
2.685760
  0
VERTEX
  8
0
  6
CONTINUOUS
 10
5.963320
 20
2.639560
  0
VERTEX
  8
0
  6
CONTINUOUS
 10
5.314760
 20
2.262040
  0
VERTEX
  8
0
  6
CONTINUOUS
 10
5.319160
 20
2.308240
  0
SEQEND
  8
0
  0
SOLID
  8
0
 62
    15
 10
5.314760
 20
2.262040
 11
5.963320
 21
2.639560
 12
5.308160
 22
2.240480
 13
5.957160
 23
2.618440
  0
POLYLINE
  8
0
  6
CONTINUOUS
 66
     1
 40
0.000000
 41
0.000000
  0
VERTEX
  8
0
  6
CONTINUOUS
 10
5.314760
 20
2.262040
  0
VERTEX
  8
0
  6
CONTINUOUS
 10
5.963320
 20
2.639560
  0
VERTEX
  8
0
  6
CONTINUOUS
 10
5.957160
 20
2.618440
  0
VERTEX
  8
0
  6
CONTINUOUS
 10
5.308160
 20
2.240480
  0
VERTEX
  8
0
  6
CONTINUOUS
 10
5.314760
 20
2.262040
  0
SEQEND
  8
0
  0
SOLID
  8
0
 62
    15
 10
5.308160
 20
2.240480
 11
5.957160
 21
2.618440
 12
5.298480
 22
2.221120
 13
5.947480
 23
2.598640
  0
POLYLINE
  8
0
  6
CONTINUOUS
 66
     1
 40
0.000000
 41
0.000000
  0
VERTEX
  8
0
  6
CONTINUOUS
 10
5.308160
 20
2.240480
  0
VERTEX
  8
0
  6
CONTINUOUS
 10
5.957160
 20
2.618440
  0
VERTEX
  8
0
  6
CONTINUOUS
 10
5.947480
 20
2.598640
  0
VERTEX
  8
0
  6
CONTINUOUS
 10
5.298480
 20
2.221120
  0
VERTEX
  8
0
  6
CONTINUOUS
 10
5.308160
 20
2.240480
  0
SEQEND
  8
0
  0
SOLID
  8
0
 62
    15
 10
5.217960
 20
2.171400
 11
5.866960
 21
2.549360
 12
5.217080
 22
2.096600
 13
5.866080
 23
2.474120
  0
POLYLINE
  8
0
  6
CONTINUOUS
 66
     1
 40
0.000000
 41
0.000000
  0
VERTEX
  8
0
  6
CONTINUOUS
 10
5.217960
 20
2.171400
  0
VERTEX
  8
0
  6
CONTINUOUS
 10
5.866960
 20
2.549360
  0
VERTEX
  8
0
  6
CONTINUOUS
 10
5.866080
 20
2.474120
  0
VERTEX
  8
0
  6
CONTINUOUS
 10
5.217080
 20
2.096600
  0
VERTEX
  8
0
  6
CONTINUOUS
 10
5.217960
 20
2.171400
  0
SEQEND
  8
0
  0
SOLID
  8
0
 62
    15
 10
5.285280
 20
2.203960
 11
5.934280
 21
2.581920
 12
5.267680
 22
2.189880
 13
5.916680
 23
2.567400
  0
POLYLINE
  8
0
  6
CONTINUOUS
 66
     1
 40
0.000000
 41
0.000000
  0
VERTEX
  8
0
  6
CONTINUOUS
 10
5.285280
 20
2.203960
  0
VERTEX
  8
0
  6
CONTINUOUS
 10
5.934280
 20
2.581920
  0
VERTEX
  8
0
  6
CONTINUOUS
 10
5.916680
 20
2.567400
  0
VERTEX
  8
0
  6
CONTINUOUS
 10
5.267680
 20
2.189880
  0
VERTEX
  8
0
  6
CONTINUOUS
 10
5.285280
 20
2.203960
  0
SEQEND
  8
0
  0
SOLID
  8
0
 62
    15
 10
5.298480
 20
2.221120
 11
5.947480
 21
2.598640
 12
5.285280
 22
2.203960
 13
5.934280
 23
2.581920
  0
POLYLINE
  8
0
  6
CONTINUOUS
 66
     1
 40
0.000000
 41
0.000000
  0
VERTEX
  8
0
  6
CONTINUOUS
 10
5.298480
 20
2.221120
  0
VERTEX
  8
0
  6
CONTINUOUS
 10
5.947480
 20
2.598640
  0
VERTEX
  8
0
  6
CONTINUOUS
 10
5.934280
 20
2.581920
  0
VERTEX
  8
0
  6
CONTINUOUS
 10
5.285280
 20
2.203960
  0
VERTEX
  8
0
  6
CONTINUOUS
 10
5.298480
 20
2.221120
  0
SEQEND
  8
0
  0
SOLID
  8
0
 62
    15
 10
5.217080
 20
2.096600
 11
5.866080
 21
2.474120
 12
5.225880
 22
2.020920
 13
5.874880
 23
2.398440
  0
POLYLINE
  8
0
  6
CONTINUOUS
 66
     1
 40
0.000000
 41
0.000000
  0
VERTEX
  8
0
  6
CONTINUOUS
 10
5.217080
 20
2.096600
  0
VERTEX
  8
0
  6
CONTINUOUS
 10
5.866080
 20
2.474120
  0
VERTEX
  8
0
  6
CONTINUOUS
 10
5.874880
 20
2.398440
  0
VERTEX
  8
0
  6
CONTINUOUS
 10
5.225880
 20
2.020920
  0
VERTEX
  8
0
  6
CONTINUOUS
 10
5.217080
 20
2.096600
  0
SEQEND
  8
0
  0
SOLID
  8
0
 62
    15
 10
5.225880
 20
2.020920
 11
5.874880
 21
2.398440
 12
5.245240
 22
1.945680
 13
5.893800
 23
2.323200
  0
POLYLINE
  8
0
  6
CONTINUOUS
 66
     1
 40
0.000000
 41
0.000000
  0
VERTEX
  8
0
  6
CONTINUOUS
 10
5.225880
 20
2.020920
  0
VERTEX
  8
0
  6
CONTINUOUS
 10
5.874880
 20
2.398440
  0
VERTEX
  8
0
  6
CONTINUOUS
 10
5.893800
 20
2.323200
  0
VERTEX
  8
0
  6
CONTINUOUS
 10
5.245240
 20
1.945680
  0
VERTEX
  8
0
  6
CONTINUOUS
 10
5.225880
 20
2.020920
  0
SEQEND
  8
0
  0
SOLID
  8
0
 62
    15
 10
5.245240
 20
1.945680
 11
5.893800
 21
2.323200
 12
5.274720
 22
1.872640
 13
5.923720
 23
2.250160
  0
POLYLINE
  8
0
  6
CONTINUOUS
 66
     1
 40
0.000000
 41
0.000000
  0
VERTEX
  8
0
  6
CONTINUOUS
 10
5.245240
 20
1.945680
  0
VERTEX
  8
0
  6
CONTINUOUS
 10
5.893800
 20
2.323200
  0
VERTEX
  8
0
  6
CONTINUOUS
 10
5.923720
 20
2.250160
  0
VERTEX
  8
0
  6
CONTINUOUS
 10
5.274720
 20
1.872640
  0
VERTEX
  8
0
  6
CONTINUOUS
 10
5.245240
 20
1.945680
  0
SEQEND
  8
0
  0
SOLID
  8
0
 62
    15
 10
5.274720
 20
1.872640
 11
5.923720
 21
2.250160
 12
5.315200
 22
1.802680
 13
5.964200
 23
2.180640
  0
POLYLINE
  8
0
  6
CONTINUOUS
 66
     1
 40
0.000000
 41
0.000000
  0
VERTEX
  8
0
  6
CONTINUOUS
 10
5.274720
 20
1.872640
  0
VERTEX
  8
0
  6
CONTINUOUS
 10
5.923720
 20
2.250160
  0
VERTEX
  8
0
  6
CONTINUOUS
 10
5.964200
 20
2.180640
  0
VERTEX
  8
0
  6
CONTINUOUS
 10
5.315200
 20
1.802680
  0
VERTEX
  8
0
  6
CONTINUOUS
 10
5.274720
 20
1.872640
  0
SEQEND
  8
0
  0
SOLID
  8
0
 62
     7
 10
5.315200
 20
1.802680
 11
5.964200
 21
2.180640
 12
5.366680
 22
1.738000
 13
6.015680
 23
2.115520
  0
POLYLINE
  8
0
  6
CONTINUOUS
 66
     1
 40
0.000000
 41
0.000000
  0
VERTEX
  8
0
  6
CONTINUOUS
 10
5.315200
 20
1.802680
  0
VERTEX
  8
0
  6
CONTINUOUS
 10
5.964200
 20
2.180640
  0
VERTEX
  8
0
  6
CONTINUOUS
 10
6.015680
 20
2.115520
  0
VERTEX
  8
0
  6
CONTINUOUS
 10
5.366680
 20
1.738000
  0
VERTEX
  8
0
  6
CONTINUOUS
 10
5.315200
 20
1.802680
  0
SEQEND
  8
0
  0
SOLID
  8
0
 62
     7
 10
5.366680
 20
1.738000
 11
6.015680
 21
2.115520
 12
5.397040
 22
1.707640
 13
6.045600
 23
2.085160
  0
POLYLINE
  8
0
  6
CONTINUOUS
 66
     1
 40
0.000000
 41
0.000000
  0
VERTEX
  8
0
  6
CONTINUOUS
 10
5.366680
 20
1.738000
  0
VERTEX
  8
0
  6
CONTINUOUS
 10
6.015680
 20
2.115520
  0
VERTEX
  8
0
  6
CONTINUOUS
 10
6.045600
 20
2.085160
  0
VERTEX
  8
0
  6
CONTINUOUS
 10
5.397040
 20
1.707640
  0
VERTEX
  8
0
  6
CONTINUOUS
 10
5.366680
 20
1.738000
  0
SEQEND
  8
0
  0
SOLID
  8
0
 62
     7
 10
5.397040
 20
1.707640
 11
6.045600
 21
2.085160
 12
5.430040
 22
1.679040
 13
6.078600
 23
2.057000
  0
POLYLINE
  8
0
  6
CONTINUOUS
 66
     1
 40
0.000000
 41
0.000000
  0
VERTEX
  8
0
  6
CONTINUOUS
 10
5.397040
 20
1.707640
  0
VERTEX
  8
0
  6
CONTINUOUS
 10
6.045600
 20
2.085160
  0
VERTEX
  8
0
  6
CONTINUOUS
 10
6.078600
 20
2.057000
  0
VERTEX
  8
0
  6
CONTINUOUS
 10
5.430040
 20
1.679040
  0
VERTEX
  8
0
  6
CONTINUOUS
 10
5.397040
 20
1.707640
  0
SEQEND
  8
0
  0
SOLID
  8
0
 62
    15
 10
5.005000
 20
2.648360
 11
5.654000
 21
3.026320
 12
5.159000
 22
2.648360
 13
5.808000
 23
3.026320
  0
POLYLINE
  8
0
  6
CONTINUOUS
 66
     1
 40
0.000000
 41
0.000000
  0
VERTEX
  8
0
  6
CONTINUOUS
 10
5.005000
 20
2.648360
  0
VERTEX
  8
0
  6
CONTINUOUS
 10
5.654000
 20
3.026320
  0
VERTEX
  8
0
  6
CONTINUOUS
 10
5.808000
 20
3.026320
  0
VERTEX
  8
0
  6
CONTINUOUS
 10
5.159000
 20
2.648360
  0
VERTEX
  8
0
  6
CONTINUOUS
 10
5.005000
 20
2.648360
  0
SEQEND
  8
0
  0
SOLID
  8
0
 62
     7
 10
5.466120
 20
1.652640
 11
6.114680
 21
2.030160
 12
5.504840
 22
1.628000
 13
6.153840
 23
2.005960
  0
POLYLINE
  8
0
  6
CONTINUOUS
 66
     1
 40
0.000000
 41
0.000000
  0
VERTEX
  8
0
  6
CONTINUOUS
 10
5.466120
 20
1.652640
  0
VERTEX
  8
0
  6
CONTINUOUS
 10
6.114680
 20
2.030160
  0
VERTEX
  8
0
  6
CONTINUOUS
 10
6.153840
 20
2.005960
  0
VERTEX
  8
0
  6
CONTINUOUS
 10
5.504840
 20
1.628000
  0
VERTEX
  8
0
  6
CONTINUOUS
 10
5.466120
 20
1.652640
  0
SEQEND
  8
0
  0
SOLID
  8
0
 62
     7
 10
5.504840
 20
1.628000
 11
6.153840
 21
2.005960
 12
5.554120
 22
1.595000
 13
6.203120
 23
1.972960
  0
POLYLINE
  8
0
  6
CONTINUOUS
 66
     1
 40
0.000000
 41
0.000000
  0
VERTEX
  8
0
  6
CONTINUOUS
 10
5.504840
 20
1.628000
  0
VERTEX
  8
0
  6
CONTINUOUS
 10
6.153840
 20
2.005960
  0
VERTEX
  8
0
  6
CONTINUOUS
 10
6.203120
 20
1.972960
  0
VERTEX
  8
0
  6
CONTINUOUS
 10
5.554120
 20
1.595000
  0
VERTEX
  8
0
  6
CONTINUOUS
 10
5.504840
 20
1.628000
  0
SEQEND
  8
0
  0
SOLID
  8
0
 62
     7
 10
5.554120
 20
1.595000
 11
6.203120
 21
1.972960
 12
5.595040
 22
1.562440
 13
6.243600
 23
1.940400
  0
POLYLINE
  8
0
  6
CONTINUOUS
 66
     1
 40
0.000000
 41
0.000000
  0
VERTEX
  8
0
  6
CONTINUOUS
 10
5.554120
 20
1.595000
  0
VERTEX
  8
0
  6
CONTINUOUS
 10
6.203120
 20
1.972960
  0
VERTEX
  8
0
  6
CONTINUOUS
 10
6.243600
 20
1.940400
  0
VERTEX
  8
0
  6
CONTINUOUS
 10
5.595040
 20
1.562440
  0
VERTEX
  8
0
  6
CONTINUOUS
 10
5.554120
 20
1.595000
  0
SEQEND
  8
0
  0
SOLID
  8
0
 62
     7
 10
5.595040
 20
1.562440
 11
6.243600
 21
1.940400
 12
5.628040
 22
1.530320
 13
6.277040
 23
1.908280
  0
POLYLINE
  8
0
  6
CONTINUOUS
 66
     1
 40
0.000000
 41
0.000000
  0
VERTEX
  8
0
  6
CONTINUOUS
 10
5.595040
 20
1.562440
  0
VERTEX
  8
0
  6
CONTINUOUS
 10
6.243600
 20
1.940400
  0
VERTEX
  8
0
  6
CONTINUOUS
 10
6.277040
 20
1.908280
  0
VERTEX
  8
0
  6
CONTINUOUS
 10
5.628040
 20
1.530320
  0
VERTEX
  8
0
  6
CONTINUOUS
 10
5.595040
 20
1.562440
  0
SEQEND
  8
0
  0
SOLID
  8
0
 62
     7
 10
5.628040
 20
1.530320
 11
6.277040
 21
1.908280
 12
5.654000
 22
1.499080
 13
6.303000
 23
1.876600
  0
POLYLINE
  8
0
  6
CONTINUOUS
 66
     1
 40
0.000000
 41
0.000000
  0
VERTEX
  8
0
  6
CONTINUOUS
 10
5.628040
 20
1.530320
  0
VERTEX
  8
0
  6
CONTINUOUS
 10
6.277040
 20
1.908280
  0
VERTEX
  8
0
  6
CONTINUOUS
 10
6.303000
 20
1.876600
  0
VERTEX
  8
0
  6
CONTINUOUS
 10
5.654000
 20
1.499080
  0
VERTEX
  8
0
  6
CONTINUOUS
 10
5.628040
 20
1.530320
  0
SEQEND
  8
0
  0
SOLID
  8
0
 62
    15
 10
5.654000
 20
1.499080
 11
6.303000
 21
1.876600
 12
5.673360
 22
1.468280
 13
6.322360
 23
1.845800
  0
POLYLINE
  8
0
  6
CONTINUOUS
 66
     1
 40
0.000000
 41
0.000000
  0
VERTEX
  8
0
  6
CONTINUOUS
 10
5.654000
 20
1.499080
  0
VERTEX
  8
0
  6
CONTINUOUS
 10
6.303000
 20
1.876600
  0
VERTEX
  8
0
  6
CONTINUOUS
 10
6.322360
 20
1.845800
  0
VERTEX
  8
0
  6
CONTINUOUS
 10
5.673360
 20
1.468280
  0
VERTEX
  8
0
  6
CONTINUOUS
 10
5.654000
 20
1.499080
  0
SEQEND
  8
0
  0
SOLID
  8
0
 62
    15
 10
5.673360
 20
1.468280
 11
6.322360
 21
1.845800
 12
5.687000
 22
1.438800
 13
6.336000
 23
1.816320
  0
POLYLINE
  8
0
  6
CONTINUOUS
 66
     1
 40
0.000000
 41
0.000000
  0
VERTEX
  8
0
  6
CONTINUOUS
 10
5.673360
 20
1.468280
  0
VERTEX
  8
0
  6
CONTINUOUS
 10
6.322360
 20
1.845800
  0
VERTEX
  8
0
  6
CONTINUOUS
 10
6.336000
 20
1.816320
  0
VERTEX
  8
0
  6
CONTINUOUS
 10
5.687000
 20
1.438800
  0
VERTEX
  8
0
  6
CONTINUOUS
 10
5.673360
 20
1.468280
  0
SEQEND
  8
0
  0
SOLID
  8
0
 62
    15
 10
5.687000
 20
1.438800
 11
6.336000
 21
1.816320
 12
5.695360
 22
1.410200
 13
6.344360
 23
1.788160
  0
POLYLINE
  8
0
  6
CONTINUOUS
 66
     1
 40
0.000000
 41
0.000000
  0
VERTEX
  8
0
  6
CONTINUOUS
 10
5.687000
 20
1.438800
  0
VERTEX
  8
0
  6
CONTINUOUS
 10
6.336000
 20
1.816320
  0
VERTEX
  8
0
  6
CONTINUOUS
 10
6.344360
 20
1.788160
  0
VERTEX
  8
0
  6
CONTINUOUS
 10
5.695360
 20
1.410200
  0
VERTEX
  8
0
  6
CONTINUOUS
 10
5.687000
 20
1.438800
  0
SEQEND
  8
0
  0
SOLID
  8
0
 62
    15
 10
5.695360
 20
1.410200
 11
6.344360
 21
1.788160
 12
5.698880
 22
1.383360
 13
6.347880
 23
1.760880
  0
POLYLINE
  8
0
  6
CONTINUOUS
 66
     1
 40
0.000000
 41
0.000000
  0
VERTEX
  8
0
  6
CONTINUOUS
 10
5.695360
 20
1.410200
  0
VERTEX
  8
0
  6
CONTINUOUS
 10
6.344360
 20
1.788160
  0
VERTEX
  8
0
  6
CONTINUOUS
 10
6.347880
 20
1.760880
  0
VERTEX
  8
0
  6
CONTINUOUS
 10
5.698880
 20
1.383360
  0
VERTEX
  8
0
  6
CONTINUOUS
 10
5.695360
 20
1.410200
  0
SEQEND
  8
0
  0
SOLID
  8
0
 62
    15
 10
5.698880
 20
1.383360
 11
6.347880
 21
1.760880
 12
5.698440
 22
1.357840
 13
6.347440
 23
1.735800
  0
POLYLINE
  8
0
  6
CONTINUOUS
 66
     1
 40
0.000000
 41
0.000000
  0
VERTEX
  8
0
  6
CONTINUOUS
 10
5.698880
 20
1.383360
  0
VERTEX
  8
0
  6
CONTINUOUS
 10
6.347880
 20
1.760880
  0
VERTEX
  8
0
  6
CONTINUOUS
 10
6.347440
 20
1.735800
  0
VERTEX
  8
0
  6
CONTINUOUS
 10
5.698440
 20
1.357840
  0
VERTEX
  8
0
  6
CONTINUOUS
 10
5.698880
 20
1.383360
  0
SEQEND
  8
0
  0
SOLID
  8
0
 62
    15
 10
5.698440
 20
1.357840
 11
6.347440
 21
1.735800
 12
5.694480
 22
1.334520
 13
6.343040
 23
1.712040
  0
POLYLINE
  8
0
  6
CONTINUOUS
 66
     1
 40
0.000000
 41
0.000000
  0
VERTEX
  8
0
  6
CONTINUOUS
 10
5.698440
 20
1.357840
  0
VERTEX
  8
0
  6
CONTINUOUS
 10
6.347440
 20
1.735800
  0
VERTEX
  8
0
  6
CONTINUOUS
 10
6.343040
 20
1.712040
  0
VERTEX
  8
0
  6
CONTINUOUS
 10
5.694480
 20
1.334520
  0
VERTEX
  8
0
  6
CONTINUOUS
 10
5.698440
 20
1.357840
  0
SEQEND
  8
0
  0
SOLID
  8
0
 62
    15
 10
5.694480
 20
1.334520
 11
6.343040
 21
1.712040
 12
5.678200
 22
1.293600
 13
6.326760
 23
1.671120
  0
POLYLINE
  8
0
  6
CONTINUOUS
 66
     1
 40
0.000000
 41
0.000000
  0
VERTEX
  8
0
  6
CONTINUOUS
 10
5.694480
 20
1.334520
  0
VERTEX
  8
0
  6
CONTINUOUS
 10
6.343040
 20
1.712040
  0
VERTEX
  8
0
  6
CONTINUOUS
 10
6.326760
 20
1.671120
  0
VERTEX
  8
0
  6
CONTINUOUS
 10
5.678200
 20
1.293600
  0
VERTEX
  8
0
  6
CONTINUOUS
 10
5.694480
 20
1.334520
  0
SEQEND
  8
0
  0
SOLID
  8
0
 62
    15
 10
5.678200
 20
1.293600
 11
6.326760
 21
1.671120
 12
5.654880
 22
1.262360
 13
6.303880
 23
1.639880
  0
POLYLINE
  8
0
  6
CONTINUOUS
 66
     1
 40
0.000000
 41
0.000000
  0
VERTEX
  8
0
  6
CONTINUOUS
 10
5.678200
 20
1.293600
  0
VERTEX
  8
0
  6
CONTINUOUS
 10
6.326760
 20
1.671120
  0
VERTEX
  8
0
  6
CONTINUOUS
 10
6.303880
 20
1.639880
  0
VERTEX
  8
0
  6
CONTINUOUS
 10
5.654880
 20
1.262360
  0
VERTEX
  8
0
  6
CONTINUOUS
 10
5.678200
 20
1.293600
  0
SEQEND
  8
0
  0
SOLID
  8
0
 62
    15
 10
5.654880
 20
1.262360
 11
6.303880
 21
1.639880
 12
5.629800
 22
1.242120
 13
6.278360
 23
1.620080
  0
POLYLINE
  8
0
  6
CONTINUOUS
 66
     1
 40
0.000000
 41
0.000000
  0
VERTEX
  8
0
  6
CONTINUOUS
 10
5.654880
 20
1.262360
  0
VERTEX
  8
0
  6
CONTINUOUS
 10
6.303880
 20
1.639880
  0
VERTEX
  8
0
  6
CONTINUOUS
 10
6.278360
 20
1.620080
  0
VERTEX
  8
0
  6
CONTINUOUS
 10
5.629800
 20
1.242120
  0
VERTEX
  8
0
  6
CONTINUOUS
 10
5.654880
 20
1.262360
  0
SEQEND
  8
0
  0
SOLID
  8
0
 62
    15
 10
5.629800
 20
1.242120
 11
6.278360
 21
1.620080
 12
5.629800
 22
1.207360
 13
6.278360
 23
1.584880
  0
POLYLINE
  8
0
  6
CONTINUOUS
 66
     1
 40
0.000000
 41
0.000000
  0
VERTEX
  8
0
  6
CONTINUOUS
 10
5.629800
 20
1.242120
  0
VERTEX
  8
0
  6
CONTINUOUS
 10
6.278360
 20
1.620080
  0
VERTEX
  8
0
  6
CONTINUOUS
 10
6.278360
 20
1.584880
  0
VERTEX
  8
0
  6
CONTINUOUS
 10
5.629800
 20
1.207360
  0
VERTEX
  8
0
  6
CONTINUOUS
 10
5.629800
 20
1.242120
  0
SEQEND
  8
0
  0
SOLID
  8
0
 62
     7
 10
5.629800
 20
1.207360
 11
6.278360
 21
1.584880
 12
5.656640
 22
1.197240
 13
6.305640
 23
1.575200
  0
POLYLINE
  8
0
  6
CONTINUOUS
 66
     1
 40
0.000000
 41
0.000000
  0
VERTEX
  8
0
  6
CONTINUOUS
 10
5.629800
 20
1.207360
  0
VERTEX
  8
0
  6
CONTINUOUS
 10
6.278360
 20
1.584880
  0
VERTEX
  8
0
  6
CONTINUOUS
 10
6.305640
 20
1.575200
  0
VERTEX
  8
0
  6
CONTINUOUS
 10
5.656640
 20
1.197240
  0
VERTEX
  8
0
  6
CONTINUOUS
 10
5.629800
 20
1.207360
  0
SEQEND
  8
0
  0
SOLID
  8
0
 62
     7
 10
5.656640
 20
1.197240
 11
6.305640
 21
1.575200
 12
5.678640
 22
1.184480
 13
6.327200
 23
1.562000
  0
POLYLINE
  8
0
  6
CONTINUOUS
 66
     1
 40
0.000000
 41
0.000000
  0
VERTEX
  8
0
  6
CONTINUOUS
 10
5.656640
 20
1.197240
  0
VERTEX
  8
0
  6
CONTINUOUS
 10
6.305640
 20
1.575200
  0
VERTEX
  8
0
  6
CONTINUOUS
 10
6.327200
 20
1.562000
  0
VERTEX
  8
0
  6
CONTINUOUS
 10
5.678640
 20
1.184480
  0
VERTEX
  8
0
  6
CONTINUOUS
 10
5.656640
 20
1.197240
  0
SEQEND
  8
0
  0
SOLID
  8
0
 62
     7
 10
5.678640
 20
1.184480
 11
6.327200
 21
1.562000
 12
5.695800
 22
1.168640
 13
6.344360
 23
1.546160
  0
POLYLINE
  8
0
  6
CONTINUOUS
 66
     1
 40
0.000000
 41
0.000000
  0
VERTEX
  8
0
  6
CONTINUOUS
 10
5.678640
 20
1.184480
  0
VERTEX
  8
0
  6
CONTINUOUS
 10
6.327200
 20
1.562000
  0
VERTEX
  8
0
  6
CONTINUOUS
 10
6.344360
 20
1.546160
  0
VERTEX
  8
0
  6
CONTINUOUS
 10
5.695800
 20
1.168640
  0
VERTEX
  8
0
  6
CONTINUOUS
 10
5.678640
 20
1.184480
  0
SEQEND
  8
0
  0
SOLID
  8
0
 62
     7
 10
5.695800
 20
1.168640
 11
6.344360
 21
1.546160
 12
5.708560
 22
1.150600
 13
6.357560
 23
1.528560
  0
POLYLINE
  8
0
  6
CONTINUOUS
 66
     1
 40
0.000000
 41
0.000000
  0
VERTEX
  8
0
  6
CONTINUOUS
 10
5.695800
 20
1.168640
  0
VERTEX
  8
0
  6
CONTINUOUS
 10
6.344360
 20
1.546160
  0
VERTEX
  8
0
  6
CONTINUOUS
 10
6.357560
 20
1.528560
  0
VERTEX
  8
0
  6
CONTINUOUS
 10
5.708560
 20
1.150600
  0
VERTEX
  8
0
  6
CONTINUOUS
 10
5.695800
 20
1.168640
  0
SEQEND
  8
0
  0
SOLID
  8
0
 62
    15
 10
5.708560
 20
1.150600
 11
6.357560
 21
1.528560
 12
5.717360
 22
1.131240
 13
6.366360
 23
1.508760
  0
POLYLINE
  8
0
  6
CONTINUOUS
 66
     1
 40
0.000000
 41
0.000000
  0
VERTEX
  8
0
  6
CONTINUOUS
 10
5.708560
 20
1.150600
  0
VERTEX
  8
0
  6
CONTINUOUS
 10
6.357560
 20
1.528560
  0
VERTEX
  8
0
  6
CONTINUOUS
 10
6.366360
 20
1.508760
  0
VERTEX
  8
0
  6
CONTINUOUS
 10
5.717360
 20
1.131240
  0
VERTEX
  8
0
  6
CONTINUOUS
 10
5.708560
 20
1.150600
  0
SEQEND
  8
0
  0
SOLID
  8
0
 62
    15
 10
5.717360
 20
1.131240
 11
6.366360
 21
1.508760
 12
5.722640
 22
1.110560
 13
6.371640
 23
1.488520
  0
POLYLINE
  8
0
  6
CONTINUOUS
 66
     1
 40
0.000000
 41
0.000000
  0
VERTEX
  8
0
  6
CONTINUOUS
 10
5.717360
 20
1.131240
  0
VERTEX
  8
0
  6
CONTINUOUS
 10
6.366360
 20
1.508760
  0
VERTEX
  8
0
  6
CONTINUOUS
 10
6.371640
 20
1.488520
  0
VERTEX
  8
0
  6
CONTINUOUS
 10
5.722640
 20
1.110560
  0
VERTEX
  8
0
  6
CONTINUOUS
 10
5.717360
 20
1.131240
  0
SEQEND
  8
0
  0
SOLID
  8
0
 62
    15
 10
5.722640
 20
1.110560
 11
6.371640
 21
1.488520
 12
5.723520
 22
1.068320
 13
6.372520
 23
1.445840
  0
POLYLINE
  8
0
  6
CONTINUOUS
 66
     1
 40
0.000000
 41
0.000000
  0
VERTEX
  8
0
  6
CONTINUOUS
 10
5.722640
 20
1.110560
  0
VERTEX
  8
0
  6
CONTINUOUS
 10
6.371640
 20
1.488520
  0
VERTEX
  8
0
  6
CONTINUOUS
 10
6.372520
 20
1.445840
  0
VERTEX
  8
0
  6
CONTINUOUS
 10
5.723520
 20
1.068320
  0
VERTEX
  8
0
  6
CONTINUOUS
 10
5.722640
 20
1.110560
  0
SEQEND
  8
0
  0
SOLID
  8
0
 62
    15
 10
5.723520
 20
1.068320
 11
6.372520
 21
1.445840
 12
5.714280
 22
1.027840
 13
6.362840
 23
1.405360
  0
POLYLINE
  8
0
  6
CONTINUOUS
 66
     1
 40
0.000000
 41
0.000000
  0
VERTEX
  8
0
  6
CONTINUOUS
 10
5.723520
 20
1.068320
  0
VERTEX
  8
0
  6
CONTINUOUS
 10
6.372520
 20
1.445840
  0
VERTEX
  8
0
  6
CONTINUOUS
 10
6.362840
 20
1.405360
  0
VERTEX
  8
0
  6
CONTINUOUS
 10
5.714280
 20
1.027840
  0
VERTEX
  8
0
  6
CONTINUOUS
 10
5.723520
 20
1.068320
  0
SEQEND
  8
0
  0
SOLID
  8
0
 62
    15
 10
5.714280
 20
1.027840
 11
6.362840
 21
1.405360
 12
5.697120
 22
0.993520
 13
6.345680
 23
1.371040
  0
POLYLINE
  8
0
  6
CONTINUOUS
 66
     1
 40
0.000000
 41
0.000000
  0
VERTEX
  8
0
  6
CONTINUOUS
 10
5.714280
 20
1.027840
  0
VERTEX
  8
0
  6
CONTINUOUS
 10
6.362840
 20
1.405360
  0
VERTEX
  8
0
  6
CONTINUOUS
 10
6.345680
 20
1.371040
  0
VERTEX
  8
0
  6
CONTINUOUS
 10
5.697120
 20
0.993520
  0
VERTEX
  8
0
  6
CONTINUOUS
 10
5.714280
 20
1.027840
  0
SEQEND
  8
0
  0
SOLID
  8
0
 62
    15
 10
5.650920
 20
0.959640
 11
6.299920
 21
1.337600
 12
5.649160
 22
0.911680
 13
6.298160
 23
1.289200
  0
POLYLINE
  8
0
  6
CONTINUOUS
 66
     1
 40
0.000000
 41
0.000000
  0
VERTEX
  8
0
  6
CONTINUOUS
 10
5.650920
 20
0.959640
  0
VERTEX
  8
0
  6
CONTINUOUS
 10
6.299920
 20
1.337600
  0
VERTEX
  8
0
  6
CONTINUOUS
 10
6.298160
 20
1.289200
  0
VERTEX
  8
0
  6
CONTINUOUS
 10
5.649160
 20
0.911680
  0
VERTEX
  8
0
  6
CONTINUOUS
 10
5.650920
 20
0.959640
  0
SEQEND
  8
0
  0
SOLID
  8
0
 62
    15
 10
5.697120
 20
0.993520
 11
6.345680
 21
1.371040
 12
5.675120
 22
0.969320
 13
6.324120
 23
1.346840
  0
POLYLINE
  8
0
  6
CONTINUOUS
 66
     1
 40
0.000000
 41
0.000000
  0
VERTEX
  8
0
  6
CONTINUOUS
 10
5.697120
 20
0.993520
  0
VERTEX
  8
0
  6
CONTINUOUS
 10
6.345680
 20
1.371040
  0
VERTEX
  8
0
  6
CONTINUOUS
 10
6.324120
 20
1.346840
  0
VERTEX
  8
0
  6
CONTINUOUS
 10
5.675120
 20
0.969320
  0
VERTEX
  8
0
  6
CONTINUOUS
 10
5.697120
 20
0.993520
  0
SEQEND
  8
0
  0
SOLID
  8
0
 62
    15
 10
5.649160
 20
0.911680
 11
6.298160
 21
1.289200
 12
5.649160
 22
0.910800
 13
6.298160
 23
1.288320
  0
POLYLINE
  8
0
  6
CONTINUOUS
 66
     1
 40
0.000000
 41
0.000000
  0
VERTEX
  8
0
  6
CONTINUOUS
 10
5.649160
 20
0.911680
  0
VERTEX
  8
0
  6
CONTINUOUS
 10
6.298160
 20
1.289200
  0
VERTEX
  8
0
  6
CONTINUOUS
 10
6.298160
 20
1.288320
  0
VERTEX
  8
0
  6
CONTINUOUS
 10
5.649160
 20
0.910800
  0
VERTEX
  8
0
  6
CONTINUOUS
 10
5.649160
 20
0.911680
  0
SEQEND
  8
0
  0
POLYLINE
  8
0
  6
CONTINUOUS
 66
     1
 40
0.000000
 41
0.000000
  0
VERTEX
  8
0
  6
CONTINUOUS
 10
5.649160
 20
0.910800
  0
VERTEX
  8
0
  6
CONTINUOUS
 10
5.005440
 20
0.910800
  0
VERTEX
  8
0
  6
CONTINUOUS
 10
5.004560
 20
1.637680
  0
VERTEX
  8
0
  6
CONTINUOUS
 10
5.005000
 20
2.648360
  0
VERTEX
  8
0
  6
CONTINUOUS
 10
5.159000
 20
2.648360
  0
VERTEX
  8
0
  6
CONTINUOUS
 10
5.159000
 20
2.447720
  0
VERTEX
  8
0
  6
CONTINUOUS
 10
5.163840
 20
2.427480
  0
VERTEX
  8
0
  6
CONTINUOUS
 10
5.166920
 20
2.423080
  0
VERTEX
  8
0
  6
CONTINUOUS
 10
5.172200
 20
2.421760
  0
VERTEX
  8
0
  6
CONTINUOUS
 10
5.203440
 20
2.420000
  0
VERTEX
  8
0
  6
CONTINUOUS
 10
5.231600
 20
2.414720
  0
VERTEX
  8
0
  6
CONTINUOUS
 10
5.256240
 20
2.405920
  0
VERTEX
  8
0
  6
CONTINUOUS
 10
5.277800
 20
2.393160
  0
VERTEX
  8
0
  6
CONTINUOUS
 10
5.295400
 20
2.377320
  0
VERTEX
  8
0
  6
CONTINUOUS
 10
5.308160
 20
2.357960
  0
VERTEX
  8
0
  6
CONTINUOUS
 10
5.316520
 20
2.334640
  0
VERTEX
  8
0
  6
CONTINUOUS
 10
5.319160
 20
2.308240
  0
VERTEX
  8
0
  6
CONTINUOUS
 10
5.314760
 20
2.262040
  0
VERTEX
  8
0
  6
CONTINUOUS
 10
5.308160
 20
2.240480
  0
VERTEX
  8
0
  6
CONTINUOUS
 10
5.298480
 20
2.221120
  0
VERTEX
  8
0
  6
CONTINUOUS
 10
5.285280
 20
2.203960
  0
VERTEX
  8
0
  6
CONTINUOUS
 10
5.267680
 20
2.189880
  0
VERTEX
  8
0
  6
CONTINUOUS
 10
5.245240
 20
2.178880
  0
VERTEX
  8
0
  6
CONTINUOUS
 10
5.217960
 20
2.171400
  0
VERTEX
  8
0
  6
CONTINUOUS
 10
5.217080
 20
2.096600
  0
VERTEX
  8
0
  6
CONTINUOUS
 10
5.225880
 20
2.020920
  0
VERTEX
  8
0
  6
CONTINUOUS
 10
5.245240
 20
1.945680
  0
VERTEX
  8
0
  6
CONTINUOUS
 10
5.274720
 20
1.872640
  0
VERTEX
  8
0
  6
CONTINUOUS
 10
5.315200
 20
1.802680
  0
VERTEX
  8
0
  6
CONTINUOUS
 10
5.366680
 20
1.738000
  0
VERTEX
  8
0
  6
CONTINUOUS
 10
5.397040
 20
1.707640
  0
VERTEX
  8
0
  6
CONTINUOUS
 10
5.430040
 20
1.679040
  0
VERTEX
  8
0
  6
CONTINUOUS
 10
5.466120
 20
1.652640
  0
VERTEX
  8
0
  6
CONTINUOUS
 10
5.554120
 20
1.595000
  0
VERTEX
  8
0
  6
CONTINUOUS
 10
5.595040
 20
1.562440
  0
VERTEX
  8
0
  6
CONTINUOUS
 10
5.628040
 20
1.530320
  0
VERTEX
  8
0
  6
CONTINUOUS
 10
5.654000
 20
1.499080
  0
VERTEX
  8
0
  6
CONTINUOUS
 10
5.673360
 20
1.468280
  0
VERTEX
  8
0
  6
CONTINUOUS
 10
5.687000
 20
1.438800
  0
VERTEX
  8
0
  6
CONTINUOUS
 10
5.695360
 20
1.410200
  0
VERTEX
  8
0
  6
CONTINUOUS
 10
5.698880
 20
1.383360
  0
VERTEX
  8
0
  6
CONTINUOUS
 10
5.698440
 20
1.357840
  0
VERTEX
  8
0
  6
CONTINUOUS
 10
5.694480
 20
1.334520
  0
VERTEX
  8
0
  6
CONTINUOUS
 10
5.678200
 20
1.293600
  0
VERTEX
  8
0
  6
CONTINUOUS
 10
5.654880
 20
1.262360
  0
VERTEX
  8
0
  6
CONTINUOUS
 10
5.629800
 20
1.242120
  0
VERTEX
  8
0
  6
CONTINUOUS
 10
5.629800
 20
1.207360
  0
VERTEX
  8
0
  6
CONTINUOUS
 10
5.656640
 20
1.197240
  0
VERTEX
  8
0
  6
CONTINUOUS
 10
5.678640
 20
1.184480
  0
VERTEX
  8
0
  6
CONTINUOUS
 10
5.695800
 20
1.168640
  0
VERTEX
  8
0
  6
CONTINUOUS
 10
5.708560
 20
1.150600
  0
VERTEX
  8
0
  6
CONTINUOUS
 10
5.717360
 20
1.131240
  0
VERTEX
  8
0
  6
CONTINUOUS
 10
5.722640
 20
1.110560
  0
VERTEX
  8
0
  6
CONTINUOUS
 10
5.723520
 20
1.068320
  0
VERTEX
  8
0
  6
CONTINUOUS
 10
5.714280
 20
1.027840
  0
VERTEX
  8
0
  6
CONTINUOUS
 10
5.697120
 20
0.993520
  0
VERTEX
  8
0
  6
CONTINUOUS
 10
5.675120
 20
0.969320
  0
VERTEX
  8
0
  6
CONTINUOUS
 10
5.663240
 20
0.962280
  0
VERTEX
  8
0
  6
CONTINUOUS
 10
5.650920
 20
0.959640
  0
VERTEX
  8
0
  6
CONTINUOUS
 10
5.649160
 20
0.910800
  0
SEQEND
  8
0
  0
TEXT
  8
0
 10
5.393960
 20
0.691680
 40
0.138106
  1
BA  761
 41
1.000000
  7
SN0
 71
     0
 72
     5
 11
5.983986
 21
0.691680
  0
TEXT
  8
0
 10
5.238200
 20
0.500280
 40
0.138106
  1
3/4" x 1-3/4"
 41
1.000000
  7
SN0
 71
     0
 72
     5
 11
6.138408
 21
0.500280
  0
ENDSEC
  0
EOF
