  0
SECTION
  2
HEADER
  9
$ACADVER
  1
AC1006
  9
$EXTMIN
 10
2.684000
 20
0.572880
  9
$EXTMAX
 10
7.732560
 20
2.037200
  9
$LTSCALE
 40
0.044000
  9
$PDMODE
 70
    35
  9
$PDSIZE
 40
0.035200
  0
ENDSEC
  0
SECTION
  2
TABLES
  0
TABLE
  2
LTYPE
 70
     9
  0
LTYPE
  2
CONTINUOUS
 70
    64
  3
Solid line
 72
    65
 73
     0
 40
0.000000
  0
LTYPE
  2
DASHED
 70
    64
  3
__ __ __ __ __ __ __ __ __ __ __ __ __ __ __
 72
    65
 73
     2
 40
0.000330
 49
0.000220
 49
-0.000110
  0
LTYPE
  2
HIDDEN
 70
    64
  3
 _ _ _ _ _ _ _ _ _ _ _ _ _ _ _ _ _ _ _ _ _ _
 72
    65
 73
     2
 40
0.000165
 49
0.000110
 49
-0.000055
  0
LTYPE
  2
CENTER
 70
    64
  3
____ _ ____ _ ____ _ ____ _ ____ _ ____ _ ____
 72
    65
 73
     4
 40
0.000880
 49
0.000550
 49
-0.000110
 49
0.000110
 49
-0.000110
  0
LTYPE
  2
PHANTOM
 70
    64
  3
_____ _ _ _____ _ _ _____ _ _ _____ _ _ ____
 72
    65
 73
     6
 40
0.001100
 49
0.000550
 49
-0.000110
 49
0.000110
 49
-0.000110
 49
0.000110
 49
-0.000110
  0
LTYPE
  2
DOT
 70
    64
  3
...............................................
 72
    65
 73
     2
 40
0.000110
 49
0.000000
 49
-0.000110
  0
LTYPE
  2
DASHDOT
 70
    64
  3
__ . __ . __ . __ . __ . __ . __ . __ . __ . __
 72
    65
 73
     4
 40
0.000440
 49
0.000220
 49
-0.000110
 49
0.000000
 49
-0.000110
  0
LTYPE
  2
BORDER
 70
    64
  3
__ __ . __ __ . __ __ . __ __ . __ __ . __ __
 72
    65
 73
     6
 40
0.000770
 49
0.000220
 49
-0.000110
 49
0.000220
 49
-0.000110
 49
0.000000
 49
-0.000110
  0
LTYPE
  2
DIVIDE
 70
    64
  3
__ . . __ . . __ . . __ . . __ . . __ . . __
 72
    65
 73
     6
 40
0.000550
 49
0.000220
 49
-0.000110
 49
0.000000
 49
-0.000110
 49
0.000000
 49
-0.000110
  0
LTYPE
  2
DOTDOT
 70
    64
  3
 . .  . .  . .  . .  . .  . . 
 72
    65
 73
     5
 40
0.000242
 49
-0.000110
 49
0.000000
 49
-0.000110
 49
0.000000
 49
-0.000110
  0
ENDTAB
  0
TABLE
  2
STYLE
 70
     2
  0
STYLE
 70
     0
  2
SN0
 40
0.000000
 41
0.000440
 50
0.000000
 71
     0
 42
0.000000
  3
ROMAND
  0
STYLE
 70
    68
  2
SV0
 40
0.000000
 41
0.000440
 50
0.000000
 71
     0
 42
0.000000
  3
ROMAND
  0
ENDTAB
  0
TABLE
  2
LAYER
 70
     3
  0
LAYER
  2
FOREGROUND
 70
    64
 62
     7
  6
CONTINUOUS
  0
LAYER
  2
BACKGROUND
 70
    65
 62
    -7
  6
CONTINUOUS
  0
LAYER
  2
0
 70
    64
 62
     7
  6
CONTINUOUS
  0
ENDTAB
  0
ENDSEC
  0
SECTION
  2
ENTITIES
  0
POLYLINE
  8
FOREGROUND
  6
CONTINUOUS
 66
     1
 40
0.000000
 41
0.000000
  0
VERTEX
  8
FOREGROUND
  6
CONTINUOUS
 10
0.000000
 20
2.610080
  0
VERTEX
  8
FOREGROUND
  6
CONTINUOUS
 10
8.499920
 20
2.610080
  0
VERTEX
  8
FOREGROUND
  6
CONTINUOUS
 10
8.499920
 20
-8.389920
  0
VERTEX
  8
FOREGROUND
  6
CONTINUOUS
 10
0.000000
 20
-8.389920
  0
VERTEX
  8
FOREGROUND
  6
CONTINUOUS
 10
0.000000
 20
2.610080
  0
SEQEND
  8
0
  0
POLYLINE
  8
FOREGROUND
  6
CONTINUOUS
 66
     1
 40
0.000000
 41
0.000000
  0
VERTEX
  8
FOREGROUND
  6
CONTINUOUS
 10
0.000000
 20
2.610080
  0
VERTEX
  8
FOREGROUND
  6
CONTINUOUS
 10
8.499920
 20
2.610080
  0
VERTEX
  8
FOREGROUND
  6
CONTINUOUS
 10
8.499920
 20
-8.389920
  0
VERTEX
  8
FOREGROUND
  6
CONTINUOUS
 10
0.000000
 20
-8.389920
  0
VERTEX
  8
FOREGROUND
  6
CONTINUOUS
 10
0.000000
 20
2.610080
  0
SEQEND
  8
0
  0
POLYLINE
  8
0
  6
CONTINUOUS
 66
     1
 40
0.014080
 41
0.014080
  0
VERTEX
  8
0
  6
CONTINUOUS
 10
5.655320
 20
1.776720
  0
VERTEX
  8
0
  6
CONTINUOUS
 10
5.797880
 20
1.776720
  0
VERTEX
  8
0
  6
CONTINUOUS
 10
5.797880
 20
1.902560
  0
VERTEX
  8
0
  6
CONTINUOUS
 10
6.168800
 20
1.902560
  0
VERTEX
  8
0
  6
CONTINUOUS
 10
6.168800
 20
1.642520
  0
VERTEX
  8
0
  6
CONTINUOUS
 10
7.200160
 20
1.642520
  0
VERTEX
  8
0
  6
CONTINUOUS
 10
7.200160
 20
1.901240
  0
VERTEX
  8
0
  6
CONTINUOUS
 10
7.586480
 20
1.901240
  0
VERTEX
  8
0
  6
CONTINUOUS
 10
7.586480
 20
1.777160
  0
VERTEX
  8
0
  6
CONTINUOUS
 10
7.725520
 20
1.777160
  0
VERTEX
  8
0
  6
CONTINUOUS
 10
7.725520
 20
1.271160
  0
VERTEX
  8
0
  6
CONTINUOUS
 10
5.655320
 20
1.271160
  0
VERTEX
  8
0
  6
CONTINUOUS
 10
5.655320
 20
1.777160
  0
VERTEX
  8
0
  6
CONTINUOUS
 10
5.655320
 20
1.776720
  0
SEQEND
  8
0
  0
SOLID
  8
0
 62
    15
 10
3.198360
 20
1.416360
 11
3.853080
 21
1.776280
 12
4.229720
 22
1.416360
 13
4.884440
 23
1.776280
  0
POLYLINE
  8
0
  6
CONTINUOUS
 66
     1
 40
0.000000
 41
0.000000
  0
VERTEX
  8
0
  6
CONTINUOUS
 10
3.198360
 20
1.416360
  0
VERTEX
  8
0
  6
CONTINUOUS
 10
3.853080
 20
1.776280
  0
VERTEX
  8
0
  6
CONTINUOUS
 10
4.884440
 20
1.776280
  0
VERTEX
  8
0
  6
CONTINUOUS
 10
4.229720
 20
1.416360
  0
VERTEX
  8
0
  6
CONTINUOUS
 10
3.198360
 20
1.416360
  0
SEQEND
  8
0
  0
SOLID
  8
0
 62
    15
 10
2.684880
 20
1.551000
 11
3.339600
 21
1.910920
 12
2.827440
 22
1.551000
 13
3.482160
 23
1.910920
  0
POLYLINE
  8
0
  6
CONTINUOUS
 66
     1
 40
0.000000
 41
0.000000
  0
VERTEX
  8
0
  6
CONTINUOUS
 10
2.684880
 20
1.551000
  0
VERTEX
  8
0
  6
CONTINUOUS
 10
3.339600
 20
1.910920
  0
VERTEX
  8
0
  6
CONTINUOUS
 10
3.482160
 20
1.910920
  0
VERTEX
  8
0
  6
CONTINUOUS
 10
2.827440
 20
1.551000
  0
VERTEX
  8
0
  6
CONTINUOUS
 10
2.684880
 20
1.551000
  0
SEQEND
  8
0
  0
SOLID
  8
0
 62
    15
 10
3.198360
 20
1.676840
 11
3.853080
 21
2.036320
 12
3.198360
 22
1.416360
 13
3.853080
 23
1.776280
  0
POLYLINE
  8
0
  6
CONTINUOUS
 66
     1
 40
0.000000
 41
0.000000
  0
VERTEX
  8
0
  6
CONTINUOUS
 10
3.198360
 20
1.676840
  0
VERTEX
  8
0
  6
CONTINUOUS
 10
3.853080
 20
2.036320
  0
VERTEX
  8
0
  6
CONTINUOUS
 10
3.853080
 20
1.776280
  0
VERTEX
  8
0
  6
CONTINUOUS
 10
3.198360
 20
1.416360
  0
VERTEX
  8
0
  6
CONTINUOUS
 10
3.198360
 20
1.676840
  0
SEQEND
  8
0
  0
SOLID
  8
0
 62
    15
 10
4.229720
 20
1.675520
 11
4.884440
 21
2.035000
 12
4.616040
 22
1.675520
 13
5.270760
 23
2.035000
  0
POLYLINE
  8
0
  6
CONTINUOUS
 66
     1
 40
0.000000
 41
0.000000
  0
VERTEX
  8
0
  6
CONTINUOUS
 10
4.229720
 20
1.675520
  0
VERTEX
  8
0
  6
CONTINUOUS
 10
4.884440
 20
2.035000
  0
VERTEX
  8
0
  6
CONTINUOUS
 10
5.270760
 20
2.035000
  0
VERTEX
  8
0
  6
CONTINUOUS
 10
4.616040
 20
1.675520
  0
VERTEX
  8
0
  6
CONTINUOUS
 10
4.229720
 20
1.675520
  0
SEQEND
  8
0
  0
SOLID
  8
0
 62
    15
 10
2.684880
 20
1.551440
 11
3.339600
 21
1.911360
 12
2.684880
 22
1.551000
 13
3.339600
 23
1.910920
  0
POLYLINE
  8
0
  6
CONTINUOUS
 66
     1
 40
0.000000
 41
0.000000
  0
VERTEX
  8
0
  6
CONTINUOUS
 10
2.684880
 20
1.551440
  0
VERTEX
  8
0
  6
CONTINUOUS
 10
3.339600
 20
1.911360
  0
VERTEX
  8
0
  6
CONTINUOUS
 10
3.339600
 20
1.910920
  0
VERTEX
  8
0
  6
CONTINUOUS
 10
2.684880
 20
1.551000
  0
VERTEX
  8
0
  6
CONTINUOUS
 10
2.684880
 20
1.551440
  0
SEQEND
  8
0
  0
SOLID
  8
0
 62
    15
 10
4.616040
 20
1.675520
 11
5.270760
 21
2.035000
 12
4.616040
 22
1.551440
 13
5.270760
 23
1.911360
  0
POLYLINE
  8
0
  6
CONTINUOUS
 66
     1
 40
0.000000
 41
0.000000
  0
VERTEX
  8
0
  6
CONTINUOUS
 10
4.616040
 20
1.675520
  0
VERTEX
  8
0
  6
CONTINUOUS
 10
5.270760
 20
2.035000
  0
VERTEX
  8
0
  6
CONTINUOUS
 10
5.270760
 20
1.911360
  0
VERTEX
  8
0
  6
CONTINUOUS
 10
4.616040
 20
1.551440
  0
VERTEX
  8
0
  6
CONTINUOUS
 10
4.616040
 20
1.675520
  0
SEQEND
  8
0
  0
SOLID
  8
0
 62
    15
 10
4.616040
 20
1.551440
 11
5.270760
 21
1.911360
 12
4.754640
 22
1.551440
 13
5.409360
 23
1.911360
  0
POLYLINE
  8
0
  6
CONTINUOUS
 66
     1
 40
0.000000
 41
0.000000
  0
VERTEX
  8
0
  6
CONTINUOUS
 10
4.616040
 20
1.551440
  0
VERTEX
  8
0
  6
CONTINUOUS
 10
5.270760
 20
1.911360
  0
VERTEX
  8
0
  6
CONTINUOUS
 10
5.409360
 20
1.911360
  0
VERTEX
  8
0
  6
CONTINUOUS
 10
4.754640
 20
1.551440
  0
VERTEX
  8
0
  6
CONTINUOUS
 10
4.616040
 20
1.551440
  0
SEQEND
  8
0
  0
SOLID
  8
0
 62
    15
 10
4.754640
 20
1.551440
 11
5.409360
 21
1.911360
 12
4.754640
 22
1.045440
 13
5.409360
 23
1.404920
  0
POLYLINE
  8
0
  6
CONTINUOUS
 66
     1
 40
0.000000
 41
0.000000
  0
VERTEX
  8
0
  6
CONTINUOUS
 10
4.754640
 20
1.551440
  0
VERTEX
  8
0
  6
CONTINUOUS
 10
5.409360
 20
1.911360
  0
VERTEX
  8
0
  6
CONTINUOUS
 10
5.409360
 20
1.404920
  0
VERTEX
  8
0
  6
CONTINUOUS
 10
4.754640
 20
1.045440
  0
VERTEX
  8
0
  6
CONTINUOUS
 10
4.754640
 20
1.551440
  0
SEQEND
  8
0
  0
SOLID
  8
0
 62
    15
 10
2.827440
 20
1.676840
 11
3.482160
 21
2.036320
 12
3.198360
 22
1.676840
 13
3.853080
 23
2.036320
  0
POLYLINE
  8
0
  6
CONTINUOUS
 66
     1
 40
0.000000
 41
0.000000
  0
VERTEX
  8
0
  6
CONTINUOUS
 10
2.827440
 20
1.676840
  0
VERTEX
  8
0
  6
CONTINUOUS
 10
3.482160
 20
2.036320
  0
VERTEX
  8
0
  6
CONTINUOUS
 10
3.853080
 20
2.036320
  0
VERTEX
  8
0
  6
CONTINUOUS
 10
3.198360
 20
1.676840
  0
VERTEX
  8
0
  6
CONTINUOUS
 10
2.827440
 20
1.676840
  0
SEQEND
  8
0
  0
POLYLINE
  8
0
  6
CONTINUOUS
 66
     1
 40
0.000000
 41
0.000000
  0
VERTEX
  8
0
  6
CONTINUOUS
 10
2.684880
 20
1.551000
  0
VERTEX
  8
0
  6
CONTINUOUS
 10
2.827440
 20
1.551000
  0
VERTEX
  8
0
  6
CONTINUOUS
 10
2.827440
 20
1.676840
  0
VERTEX
  8
0
  6
CONTINUOUS
 10
3.198360
 20
1.676840
  0
VERTEX
  8
0
  6
CONTINUOUS
 10
3.198360
 20
1.416360
  0
VERTEX
  8
0
  6
CONTINUOUS
 10
4.229720
 20
1.416360
  0
VERTEX
  8
0
  6
CONTINUOUS
 10
4.229720
 20
1.675520
  0
VERTEX
  8
0
  6
CONTINUOUS
 10
4.616040
 20
1.675520
  0
VERTEX
  8
0
  6
CONTINUOUS
 10
4.616040
 20
1.551440
  0
VERTEX
  8
0
  6
CONTINUOUS
 10
4.754640
 20
1.551440
  0
VERTEX
  8
0
  6
CONTINUOUS
 10
4.754640
 20
1.045440
  0
VERTEX
  8
0
  6
CONTINUOUS
 10
2.684880
 20
1.045440
  0
VERTEX
  8
0
  6
CONTINUOUS
 10
2.684880
 20
1.551440
  0
VERTEX
  8
0
  6
CONTINUOUS
 10
2.684880
 20
1.551000
  0
SEQEND
  8
0
  0
TEXT
  8
0
 10
3.751880
 20
0.807840
 40
0.138146
  1
BA  759
 41
1.000000
  7
SN0
 71
     0
 72
     5
 11
4.342814
 21
0.807840
  0
TEXT
  8
0
 10
3.549920
 20
0.616440
 40
0.138146
  1
5/8" x 2-1/16"
 41
1.000000
  7
SN0
 71
     0
 72
     5
 11
4.543981
 21
0.616440
  0
ENDSEC
  0
EOF
