  0
SECTION
  2
HEADER
  9
$ACADVER
  1
AC1006
  9
$EXTMIN
 10
2.929080
 20
4.672800
  9
$EXTMAX
 10
5.570400
 20
6.326760
  9
$LTSCALE
 40
0.044000
  9
$PDMODE
 70
    35
  9
$PDSIZE
 40
0.035200
  0
ENDSEC
  0
SECTION
  2
TABLES
  0
TABLE
  2
LTYPE
 70
     9
  0
LTYPE
  2
CONTINUOUS
 70
    64
  3
Solid line
 72
    65
 73
     0
 40
0.000000
  0
LTYPE
  2
DASHED
 70
    64
  3
__ __ __ __ __ __ __ __ __ __ __ __ __ __ __
 72
    65
 73
     2
 40
0.000330
 49
0.000220
 49
-0.000110
  0
LTYPE
  2
HIDDEN
 70
    64
  3
 _ _ _ _ _ _ _ _ _ _ _ _ _ _ _ _ _ _ _ _ _ _
 72
    65
 73
     2
 40
0.000165
 49
0.000110
 49
-0.000055
  0
LTYPE
  2
CENTER
 70
    64
  3
____ _ ____ _ ____ _ ____ _ ____ _ ____ _ ____
 72
    65
 73
     4
 40
0.000880
 49
0.000550
 49
-0.000110
 49
0.000110
 49
-0.000110
  0
LTYPE
  2
PHANTOM
 70
    64
  3
_____ _ _ _____ _ _ _____ _ _ _____ _ _ ____
 72
    65
 73
     6
 40
0.001100
 49
0.000550
 49
-0.000110
 49
0.000110
 49
-0.000110
 49
0.000110
 49
-0.000110
  0
LTYPE
  2
DOT
 70
    64
  3
...............................................
 72
    65
 73
     2
 40
0.000110
 49
0.000000
 49
-0.000110
  0
LTYPE
  2
DASHDOT
 70
    64
  3
__ . __ . __ . __ . __ . __ . __ . __ . __ . __
 72
    65
 73
     4
 40
0.000440
 49
0.000220
 49
-0.000110
 49
0.000000
 49
-0.000110
  0
LTYPE
  2
BORDER
 70
    64
  3
__ __ . __ __ . __ __ . __ __ . __ __ . __ __
 72
    65
 73
     6
 40
0.000770
 49
0.000220
 49
-0.000110
 49
0.000220
 49
-0.000110
 49
0.000000
 49
-0.000110
  0
LTYPE
  2
DIVIDE
 70
    64
  3
__ . . __ . . __ . . __ . . __ . . __ . . __
 72
    65
 73
     6
 40
0.000550
 49
0.000220
 49
-0.000110
 49
0.000000
 49
-0.000110
 49
0.000000
 49
-0.000110
  0
LTYPE
  2
DOTDOT
 70
    64
  3
 . .  . .  . .  . .  . .  . . 
 72
    65
 73
     5
 40
0.000242
 49
-0.000110
 49
0.000000
 49
-0.000110
 49
0.000000
 49
-0.000110
  0
ENDTAB
  0
TABLE
  2
STYLE
 70
     2
  0
STYLE
 70
     0
  2
SN0
 40
0.000000
 41
0.000440
 50
0.000000
 71
     0
 42
0.000000
  3
ROMAND
  0
STYLE
 70
    68
  2
SV0
 40
0.000000
 41
0.000440
 50
0.000000
 71
     0
 42
0.000000
  3
ROMAND
  0
ENDTAB
  0
TABLE
  2
LAYER
 70
     3
  0
LAYER
  2
FOREGROUND
 70
    64
 62
     7
  6
CONTINUOUS
  0
LAYER
  2
BACKGROUND
 70
    65
 62
    -7
  6
CONTINUOUS
  0
LAYER
  2
0
 70
    64
 62
     7
  6
CONTINUOUS
  0
ENDTAB
  0
ENDSEC
  0
SECTION
  2
ENTITIES
  0
POLYLINE
  8
FOREGROUND
  6
CONTINUOUS
 66
     1
 40
0.000000
 41
0.000000
  0
VERTEX
  8
FOREGROUND
  6
CONTINUOUS
 10
0.000000
 20
10.999560
  0
VERTEX
  8
FOREGROUND
  6
CONTINUOUS
 10
8.499920
 20
10.999560
  0
VERTEX
  8
FOREGROUND
  6
CONTINUOUS
 10
8.499920
 20
-0.000440
  0
VERTEX
  8
FOREGROUND
  6
CONTINUOUS
 10
0.000000
 20
-0.000440
  0
VERTEX
  8
FOREGROUND
  6
CONTINUOUS
 10
0.000000
 20
10.999560
  0
SEQEND
  8
0
  0
POLYLINE
  8
FOREGROUND
  6
CONTINUOUS
 66
     1
 40
0.000000
 41
0.000000
  0
VERTEX
  8
FOREGROUND
  6
CONTINUOUS
 10
0.000000
 20
10.999560
  0
VERTEX
  8
FOREGROUND
  6
CONTINUOUS
 10
8.499920
 20
10.999560
  0
VERTEX
  8
FOREGROUND
  6
CONTINUOUS
 10
8.499920
 20
-0.000440
  0
VERTEX
  8
FOREGROUND
  6
CONTINUOUS
 10
0.000000
 20
-0.000440
  0
VERTEX
  8
FOREGROUND
  6
CONTINUOUS
 10
0.000000
 20
10.999560
  0
SEQEND
  8
0
  0
SOLID
  8
0
 62
    15
 10
3.216840
 20
5.406280
 11
3.861000
 21
5.776760
 12
3.230040
 22
5.395280
 13
3.874640
 23
5.765760
  0
POLYLINE
  8
0
  6
CONTINUOUS
 66
     1
 40
0.000000
 41
0.000000
  0
VERTEX
  8
0
  6
CONTINUOUS
 10
3.216840
 20
5.406280
  0
VERTEX
  8
0
  6
CONTINUOUS
 10
3.861000
 20
5.776760
  0
VERTEX
  8
0
  6
CONTINUOUS
 10
3.874640
 20
5.765760
  0
VERTEX
  8
0
  6
CONTINUOUS
 10
3.230040
 20
5.395280
  0
VERTEX
  8
0
  6
CONTINUOUS
 10
3.216840
 20
5.406280
  0
SEQEND
  8
0
  0
SOLID
  8
0
 62
    15
 10
3.341360
 20
5.750800
 11
3.985960
 21
6.121280
 12
3.316720
 22
5.728800
 13
3.961320
 23
6.099280
  0
POLYLINE
  8
0
  6
CONTINUOUS
 66
     1
 40
0.000000
 41
0.000000
  0
VERTEX
  8
0
  6
CONTINUOUS
 10
3.341360
 20
5.750800
  0
VERTEX
  8
0
  6
CONTINUOUS
 10
3.985960
 20
6.121280
  0
VERTEX
  8
0
  6
CONTINUOUS
 10
3.961320
 20
6.099280
  0
VERTEX
  8
0
  6
CONTINUOUS
 10
3.316720
 20
5.728800
  0
VERTEX
  8
0
  6
CONTINUOUS
 10
3.341360
 20
5.750800
  0
SEQEND
  8
0
  0
SOLID
  8
0
 62
    15
 10
3.316720
 20
5.728800
 11
3.961320
 21
6.099280
 12
3.293400
 22
5.704600
 13
3.938000
 23
6.075080
  0
POLYLINE
  8
0
  6
CONTINUOUS
 66
     1
 40
0.000000
 41
0.000000
  0
VERTEX
  8
0
  6
CONTINUOUS
 10
3.316720
 20
5.728800
  0
VERTEX
  8
0
  6
CONTINUOUS
 10
3.961320
 20
6.099280
  0
VERTEX
  8
0
  6
CONTINUOUS
 10
3.938000
 20
6.075080
  0
VERTEX
  8
0
  6
CONTINUOUS
 10
3.293400
 20
5.704600
  0
VERTEX
  8
0
  6
CONTINUOUS
 10
3.316720
 20
5.728800
  0
SEQEND
  8
0
  0
SOLID
  8
0
 62
    15
 10
3.293400
 20
5.704600
 11
3.938000
 21
6.075080
 12
3.271400
 22
5.677760
 13
3.916000
 23
6.048240
  0
POLYLINE
  8
0
  6
CONTINUOUS
 66
     1
 40
0.000000
 41
0.000000
  0
VERTEX
  8
0
  6
CONTINUOUS
 10
3.293400
 20
5.704600
  0
VERTEX
  8
0
  6
CONTINUOUS
 10
3.938000
 20
6.075080
  0
VERTEX
  8
0
  6
CONTINUOUS
 10
3.916000
 20
6.048240
  0
VERTEX
  8
0
  6
CONTINUOUS
 10
3.271400
 20
5.677760
  0
VERTEX
  8
0
  6
CONTINUOUS
 10
3.293400
 20
5.704600
  0
SEQEND
  8
0
  0
SOLID
  8
0
 62
    15
 10
3.271400
 20
5.677760
 11
3.916000
 21
6.048240
 12
3.250720
 22
5.648720
 13
3.895320
 23
6.019200
  0
POLYLINE
  8
0
  6
CONTINUOUS
 66
     1
 40
0.000000
 41
0.000000
  0
VERTEX
  8
0
  6
CONTINUOUS
 10
3.271400
 20
5.677760
  0
VERTEX
  8
0
  6
CONTINUOUS
 10
3.916000
 20
6.048240
  0
VERTEX
  8
0
  6
CONTINUOUS
 10
3.895320
 20
6.019200
  0
VERTEX
  8
0
  6
CONTINUOUS
 10
3.250720
 20
5.648720
  0
VERTEX
  8
0
  6
CONTINUOUS
 10
3.271400
 20
5.677760
  0
SEQEND
  8
0
  0
SOLID
  8
0
 62
    15
 10
3.250720
 20
5.648720
 11
3.895320
 21
6.019200
 12
3.231800
 22
5.617480
 13
3.876400
 23
5.987960
  0
POLYLINE
  8
0
  6
CONTINUOUS
 66
     1
 40
0.000000
 41
0.000000
  0
VERTEX
  8
0
  6
CONTINUOUS
 10
3.250720
 20
5.648720
  0
VERTEX
  8
0
  6
CONTINUOUS
 10
3.895320
 20
6.019200
  0
VERTEX
  8
0
  6
CONTINUOUS
 10
3.876400
 20
5.987960
  0
VERTEX
  8
0
  6
CONTINUOUS
 10
3.231800
 20
5.617480
  0
VERTEX
  8
0
  6
CONTINUOUS
 10
3.250720
 20
5.648720
  0
SEQEND
  8
0
  0
SOLID
  8
0
 62
    15
 10
3.231800
 20
5.617480
 11
3.876400
 21
5.987960
 12
3.214640
 22
5.583600
 13
3.859240
 23
5.954080
  0
POLYLINE
  8
0
  6
CONTINUOUS
 66
     1
 40
0.000000
 41
0.000000
  0
VERTEX
  8
0
  6
CONTINUOUS
 10
3.231800
 20
5.617480
  0
VERTEX
  8
0
  6
CONTINUOUS
 10
3.876400
 20
5.987960
  0
VERTEX
  8
0
  6
CONTINUOUS
 10
3.859240
 20
5.954080
  0
VERTEX
  8
0
  6
CONTINUOUS
 10
3.214640
 20
5.583600
  0
VERTEX
  8
0
  6
CONTINUOUS
 10
3.231800
 20
5.617480
  0
SEQEND
  8
0
  0
SOLID
  8
0
 62
    15
 10
3.214640
 20
5.583600
 11
3.859240
 21
5.954080
 12
3.199240
 22
5.547080
 13
3.843840
 23
5.917560
  0
POLYLINE
  8
0
  6
CONTINUOUS
 66
     1
 40
0.000000
 41
0.000000
  0
VERTEX
  8
0
  6
CONTINUOUS
 10
3.214640
 20
5.583600
  0
VERTEX
  8
0
  6
CONTINUOUS
 10
3.859240
 20
5.954080
  0
VERTEX
  8
0
  6
CONTINUOUS
 10
3.843840
 20
5.917560
  0
VERTEX
  8
0
  6
CONTINUOUS
 10
3.199240
 20
5.547080
  0
VERTEX
  8
0
  6
CONTINUOUS
 10
3.214640
 20
5.583600
  0
SEQEND
  8
0
  0
SOLID
  8
0
 62
    15
 10
3.199240
 20
5.547080
 11
3.843840
 21
5.917560
 12
3.186040
 22
5.507920
 13
3.830200
 23
5.878400
  0
POLYLINE
  8
0
  6
CONTINUOUS
 66
     1
 40
0.000000
 41
0.000000
  0
VERTEX
  8
0
  6
CONTINUOUS
 10
3.199240
 20
5.547080
  0
VERTEX
  8
0
  6
CONTINUOUS
 10
3.843840
 20
5.917560
  0
VERTEX
  8
0
  6
CONTINUOUS
 10
3.830200
 20
5.878400
  0
VERTEX
  8
0
  6
CONTINUOUS
 10
3.186040
 20
5.507920
  0
VERTEX
  8
0
  6
CONTINUOUS
 10
3.199240
 20
5.547080
  0
SEQEND
  8
0
  0
SOLID
  8
0
 62
    15
 10
3.186040
 20
5.507920
 11
3.830200
 21
5.878400
 12
3.174600
 22
5.466120
 13
3.819200
 23
5.836600
  0
POLYLINE
  8
0
  6
CONTINUOUS
 66
     1
 40
0.000000
 41
0.000000
  0
VERTEX
  8
0
  6
CONTINUOUS
 10
3.186040
 20
5.507920
  0
VERTEX
  8
0
  6
CONTINUOUS
 10
3.830200
 20
5.878400
  0
VERTEX
  8
0
  6
CONTINUOUS
 10
3.819200
 20
5.836600
  0
VERTEX
  8
0
  6
CONTINUOUS
 10
3.174600
 20
5.466120
  0
VERTEX
  8
0
  6
CONTINUOUS
 10
3.186040
 20
5.507920
  0
SEQEND
  8
0
  0
SOLID
  8
0
 62
    15
 10
3.174600
 20
5.466120
 11
3.819200
 21
5.836600
 12
3.165360
 22
5.422120
 13
3.809960
 23
5.792600
  0
POLYLINE
  8
0
  6
CONTINUOUS
 66
     1
 40
0.000000
 41
0.000000
  0
VERTEX
  8
0
  6
CONTINUOUS
 10
3.174600
 20
5.466120
  0
VERTEX
  8
0
  6
CONTINUOUS
 10
3.819200
 20
5.836600
  0
VERTEX
  8
0
  6
CONTINUOUS
 10
3.809960
 20
5.792600
  0
VERTEX
  8
0
  6
CONTINUOUS
 10
3.165360
 20
5.422120
  0
VERTEX
  8
0
  6
CONTINUOUS
 10
3.174600
 20
5.466120
  0
SEQEND
  8
0
  0
SOLID
  8
0
 62
    15
 10
3.165800
 20
5.422120
 11
3.809960
 21
5.792600
 12
3.183840
 22
5.420360
 13
3.828440
 23
5.790840
  0
POLYLINE
  8
0
  6
CONTINUOUS
 66
     1
 40
0.000000
 41
0.000000
  0
VERTEX
  8
0
  6
CONTINUOUS
 10
3.165800
 20
5.422120
  0
VERTEX
  8
0
  6
CONTINUOUS
 10
3.809960
 20
5.792600
  0
VERTEX
  8
0
  6
CONTINUOUS
 10
3.828440
 20
5.790840
  0
VERTEX
  8
0
  6
CONTINUOUS
 10
3.183840
 20
5.420360
  0
VERTEX
  8
0
  6
CONTINUOUS
 10
3.165800
 20
5.422120
  0
SEQEND
  8
0
  0
SOLID
  8
0
 62
    15
 10
3.183840
 20
5.420360
 11
3.828440
 21
5.790840
 12
3.201000
 22
5.415080
 13
3.845600
 23
5.785560
  0
POLYLINE
  8
0
  6
CONTINUOUS
 66
     1
 40
0.000000
 41
0.000000
  0
VERTEX
  8
0
  6
CONTINUOUS
 10
3.183840
 20
5.420360
  0
VERTEX
  8
0
  6
CONTINUOUS
 10
3.828440
 20
5.790840
  0
VERTEX
  8
0
  6
CONTINUOUS
 10
3.845600
 20
5.785560
  0
VERTEX
  8
0
  6
CONTINUOUS
 10
3.201000
 20
5.415080
  0
VERTEX
  8
0
  6
CONTINUOUS
 10
3.183840
 20
5.420360
  0
SEQEND
  8
0
  0
SOLID
  8
0
 62
    15
 10
3.201000
 20
5.415080
 11
3.845600
 21
5.785560
 12
3.216840
 22
5.406280
 13
3.861000
 23
5.776760
  0
POLYLINE
  8
0
  6
CONTINUOUS
 66
     1
 40
0.000000
 41
0.000000
  0
VERTEX
  8
0
  6
CONTINUOUS
 10
3.201000
 20
5.415080
  0
VERTEX
  8
0
  6
CONTINUOUS
 10
3.845600
 20
5.785560
  0
VERTEX
  8
0
  6
CONTINUOUS
 10
3.861000
 20
5.776760
  0
VERTEX
  8
0
  6
CONTINUOUS
 10
3.216840
 20
5.406280
  0
VERTEX
  8
0
  6
CONTINUOUS
 10
3.201000
 20
5.415080
  0
SEQEND
  8
0
  0
SOLID
  8
0
 62
    15
 10
3.394600
 20
5.787760
 11
4.038760
 21
6.158240
 12
3.341360
 22
5.750800
 13
3.985960
 23
6.121280
  0
POLYLINE
  8
0
  6
CONTINUOUS
 66
     1
 40
0.000000
 41
0.000000
  0
VERTEX
  8
0
  6
CONTINUOUS
 10
3.394600
 20
5.787760
  0
VERTEX
  8
0
  6
CONTINUOUS
 10
4.038760
 20
6.158240
  0
VERTEX
  8
0
  6
CONTINUOUS
 10
3.985960
 20
6.121280
  0
VERTEX
  8
0
  6
CONTINUOUS
 10
3.341360
 20
5.750800
  0
VERTEX
  8
0
  6
CONTINUOUS
 10
3.394600
 20
5.787760
  0
SEQEND
  8
0
  0
SOLID
  8
0
 62
    15
 10
3.230040
 20
5.395280
 11
3.874640
 21
5.765760
 12
3.241480
 22
5.381640
 13
3.885640
 23
5.752120
  0
POLYLINE
  8
0
  6
CONTINUOUS
 66
     1
 40
0.000000
 41
0.000000
  0
VERTEX
  8
0
  6
CONTINUOUS
 10
3.230040
 20
5.395280
  0
VERTEX
  8
0
  6
CONTINUOUS
 10
3.874640
 20
5.765760
  0
VERTEX
  8
0
  6
CONTINUOUS
 10
3.885640
 20
5.752120
  0
VERTEX
  8
0
  6
CONTINUOUS
 10
3.241480
 20
5.381640
  0
VERTEX
  8
0
  6
CONTINUOUS
 10
3.230040
 20
5.395280
  0
SEQEND
  8
0
  0
SOLID
  8
0
 62
    15
 10
3.241480
 20
5.381640
 11
3.885640
 21
5.752120
 12
3.249840
 22
5.366240
 13
3.894000
 23
5.736720
  0
POLYLINE
  8
0
  6
CONTINUOUS
 66
     1
 40
0.000000
 41
0.000000
  0
VERTEX
  8
0
  6
CONTINUOUS
 10
3.241480
 20
5.381640
  0
VERTEX
  8
0
  6
CONTINUOUS
 10
3.885640
 20
5.752120
  0
VERTEX
  8
0
  6
CONTINUOUS
 10
3.894000
 20
5.736720
  0
VERTEX
  8
0
  6
CONTINUOUS
 10
3.249840
 20
5.366240
  0
VERTEX
  8
0
  6
CONTINUOUS
 10
3.241480
 20
5.381640
  0
SEQEND
  8
0
  0
SOLID
  8
0
 62
    15
 10
3.249840
 20
5.366240
 11
3.894000
 21
5.736720
 12
3.255120
 22
5.349080
 13
3.899720
 23
5.719560
  0
POLYLINE
  8
0
  6
CONTINUOUS
 66
     1
 40
0.000000
 41
0.000000
  0
VERTEX
  8
0
  6
CONTINUOUS
 10
3.249840
 20
5.366240
  0
VERTEX
  8
0
  6
CONTINUOUS
 10
3.894000
 20
5.736720
  0
VERTEX
  8
0
  6
CONTINUOUS
 10
3.899720
 20
5.719560
  0
VERTEX
  8
0
  6
CONTINUOUS
 10
3.255120
 20
5.349080
  0
VERTEX
  8
0
  6
CONTINUOUS
 10
3.249840
 20
5.366240
  0
SEQEND
  8
0
  0
SOLID
  8
0
 62
    15
 10
3.255120
 20
5.349080
 11
3.899720
 21
5.719560
 12
3.256880
 22
5.330600
 13
3.901480
 23
5.701080
  0
POLYLINE
  8
0
  6
CONTINUOUS
 66
     1
 40
0.000000
 41
0.000000
  0
VERTEX
  8
0
  6
CONTINUOUS
 10
3.255120
 20
5.349080
  0
VERTEX
  8
0
  6
CONTINUOUS
 10
3.899720
 20
5.719560
  0
VERTEX
  8
0
  6
CONTINUOUS
 10
3.901480
 20
5.701080
  0
VERTEX
  8
0
  6
CONTINUOUS
 10
3.256880
 20
5.330600
  0
VERTEX
  8
0
  6
CONTINUOUS
 10
3.255120
 20
5.349080
  0
SEQEND
  8
0
  0
SOLID
  8
0
 62
    15
 10
3.256880
 20
5.330600
 11
3.901480
 21
5.701080
 12
3.255120
 22
5.312560
 13
3.899720
 23
5.683040
  0
POLYLINE
  8
0
  6
CONTINUOUS
 66
     1
 40
0.000000
 41
0.000000
  0
VERTEX
  8
0
  6
CONTINUOUS
 10
3.256880
 20
5.330600
  0
VERTEX
  8
0
  6
CONTINUOUS
 10
3.901480
 20
5.701080
  0
VERTEX
  8
0
  6
CONTINUOUS
 10
3.899720
 20
5.683040
  0
VERTEX
  8
0
  6
CONTINUOUS
 10
3.255120
 20
5.312560
  0
VERTEX
  8
0
  6
CONTINUOUS
 10
3.256880
 20
5.330600
  0
SEQEND
  8
0
  0
SOLID
  8
0
 62
    15
 10
3.131480
 20
5.239520
 11
3.775640
 21
5.610000
 12
3.112560
 22
5.115000
 13
3.757160
 23
5.485480
  0
POLYLINE
  8
0
  6
CONTINUOUS
 66
     1
 40
0.000000
 41
0.000000
  0
VERTEX
  8
0
  6
CONTINUOUS
 10
3.131480
 20
5.239520
  0
VERTEX
  8
0
  6
CONTINUOUS
 10
3.775640
 20
5.610000
  0
VERTEX
  8
0
  6
CONTINUOUS
 10
3.757160
 20
5.485480
  0
VERTEX
  8
0
  6
CONTINUOUS
 10
3.112560
 20
5.115000
  0
VERTEX
  8
0
  6
CONTINUOUS
 10
3.131480
 20
5.239520
  0
SEQEND
  8
0
  0
SOLID
  8
0
 62
    15
 10
3.249840
 20
5.295400
 11
3.894000
 21
5.665880
 12
3.241480
 22
5.279560
 13
3.885640
 23
5.650040
  0
POLYLINE
  8
0
  6
CONTINUOUS
 66
     1
 40
0.000000
 41
0.000000
  0
VERTEX
  8
0
  6
CONTINUOUS
 10
3.249840
 20
5.295400
  0
VERTEX
  8
0
  6
CONTINUOUS
 10
3.894000
 20
5.665880
  0
VERTEX
  8
0
  6
CONTINUOUS
 10
3.885640
 20
5.650040
  0
VERTEX
  8
0
  6
CONTINUOUS
 10
3.241480
 20
5.279560
  0
VERTEX
  8
0
  6
CONTINUOUS
 10
3.249840
 20
5.295400
  0
SEQEND
  8
0
  0
SOLID
  8
0
 62
    15
 10
3.241480
 20
5.279560
 11
3.885640
 21
5.650040
 12
3.230040
 22
5.266360
 13
3.874640
 23
5.636840
  0
POLYLINE
  8
0
  6
CONTINUOUS
 66
     1
 40
0.000000
 41
0.000000
  0
VERTEX
  8
0
  6
CONTINUOUS
 10
3.241480
 20
5.279560
  0
VERTEX
  8
0
  6
CONTINUOUS
 10
3.885640
 20
5.650040
  0
VERTEX
  8
0
  6
CONTINUOUS
 10
3.874640
 20
5.636840
  0
VERTEX
  8
0
  6
CONTINUOUS
 10
3.230040
 20
5.266360
  0
VERTEX
  8
0
  6
CONTINUOUS
 10
3.241480
 20
5.279560
  0
SEQEND
  8
0
  0
SOLID
  8
0
 62
    15
 10
3.230040
 20
5.266360
 11
3.874640
 21
5.636840
 12
3.216840
 22
5.254920
 13
3.861000
 23
5.625400
  0
POLYLINE
  8
0
  6
CONTINUOUS
 66
     1
 40
0.000000
 41
0.000000
  0
VERTEX
  8
0
  6
CONTINUOUS
 10
3.230040
 20
5.266360
  0
VERTEX
  8
0
  6
CONTINUOUS
 10
3.874640
 20
5.636840
  0
VERTEX
  8
0
  6
CONTINUOUS
 10
3.861000
 20
5.625400
  0
VERTEX
  8
0
  6
CONTINUOUS
 10
3.216840
 20
5.254920
  0
VERTEX
  8
0
  6
CONTINUOUS
 10
3.230040
 20
5.266360
  0
SEQEND
  8
0
  0
SOLID
  8
0
 62
    15
 10
3.255120
 20
5.312560
 11
3.899720
 21
5.683040
 12
3.249840
 22
5.295400
 13
3.894000
 23
5.665880
  0
POLYLINE
  8
0
  6
CONTINUOUS
 66
     1
 40
0.000000
 41
0.000000
  0
VERTEX
  8
0
  6
CONTINUOUS
 10
3.255120
 20
5.312560
  0
VERTEX
  8
0
  6
CONTINUOUS
 10
3.899720
 20
5.683040
  0
VERTEX
  8
0
  6
CONTINUOUS
 10
3.894000
 20
5.665880
  0
VERTEX
  8
0
  6
CONTINUOUS
 10
3.249840
 20
5.295400
  0
VERTEX
  8
0
  6
CONTINUOUS
 10
3.255120
 20
5.312560
  0
SEQEND
  8
0
  0
SOLID
  8
0
 62
    15
 10
2.951080
 20
5.955400
 11
3.595680
 21
6.325880
 12
3.510760
 22
5.955400
 13
4.155360
 23
6.325880
  0
POLYLINE
  8
0
  6
CONTINUOUS
 66
     1
 40
0.000000
 41
0.000000
  0
VERTEX
  8
0
  6
CONTINUOUS
 10
2.951080
 20
5.955400
  0
VERTEX
  8
0
  6
CONTINUOUS
 10
3.595680
 20
6.325880
  0
VERTEX
  8
0
  6
CONTINUOUS
 10
4.155360
 20
6.325880
  0
VERTEX
  8
0
  6
CONTINUOUS
 10
3.510760
 20
5.955400
  0
VERTEX
  8
0
  6
CONTINUOUS
 10
2.951080
 20
5.955400
  0
SEQEND
  8
0
  0
SOLID
  8
0
 62
    15
 10
3.510760
 20
5.955400
 11
4.155360
 21
6.325880
 12
3.510760
 22
5.838800
 13
4.155360
 23
6.209280
  0
POLYLINE
  8
0
  6
CONTINUOUS
 66
     1
 40
0.000000
 41
0.000000
  0
VERTEX
  8
0
  6
CONTINUOUS
 10
3.510760
 20
5.955400
  0
VERTEX
  8
0
  6
CONTINUOUS
 10
4.155360
 20
6.325880
  0
VERTEX
  8
0
  6
CONTINUOUS
 10
4.155360
 20
6.209280
  0
VERTEX
  8
0
  6
CONTINUOUS
 10
3.510760
 20
5.838800
  0
VERTEX
  8
0
  6
CONTINUOUS
 10
3.510760
 20
5.955400
  0
SEQEND
  8
0
  0
SOLID
  8
0
 62
    15
 10
3.510760
 20
5.838800
 11
4.155360
 21
6.209280
 12
3.510320
 22
5.836600
 13
4.154920
 23
6.207080
  0
POLYLINE
  8
0
  6
CONTINUOUS
 66
     1
 40
0.000000
 41
0.000000
  0
VERTEX
  8
0
  6
CONTINUOUS
 10
3.510760
 20
5.838800
  0
VERTEX
  8
0
  6
CONTINUOUS
 10
4.155360
 20
6.209280
  0
VERTEX
  8
0
  6
CONTINUOUS
 10
4.154920
 20
6.207080
  0
VERTEX
  8
0
  6
CONTINUOUS
 10
3.510320
 20
5.836600
  0
VERTEX
  8
0
  6
CONTINUOUS
 10
3.510760
 20
5.838800
  0
SEQEND
  8
0
  0
POLYLINE
  8
0
  6
CONTINUOUS
 66
     1
 40
0.000000
 41
0.000000
  0
VERTEX
  8
0
  6
CONTINUOUS
 10
3.510320
 20
5.836600
  0
VERTEX
  8
0
  6
CONTINUOUS
 10
3.450920
 20
5.816360
  0
VERTEX
  8
0
  6
CONTINUOUS
 10
3.394600
 20
5.787760
  0
VERTEX
  8
0
  6
CONTINUOUS
 10
3.341360
 20
5.750800
  0
VERTEX
  8
0
  6
CONTINUOUS
 10
3.316720
 20
5.728800
  0
VERTEX
  8
0
  6
CONTINUOUS
 10
3.293400
 20
5.704600
  0
VERTEX
  8
0
  6
CONTINUOUS
 10
3.271400
 20
5.677760
  0
VERTEX
  8
0
  6
CONTINUOUS
 10
3.250720
 20
5.648720
  0
VERTEX
  8
0
  6
CONTINUOUS
 10
3.231800
 20
5.617480
  0
VERTEX
  8
0
  6
CONTINUOUS
 10
3.214640
 20
5.583600
  0
VERTEX
  8
0
  6
CONTINUOUS
 10
3.199240
 20
5.547080
  0
VERTEX
  8
0
  6
CONTINUOUS
 10
3.186040
 20
5.507920
  0
VERTEX
  8
0
  6
CONTINUOUS
 10
3.174600
 20
5.466120
  0
VERTEX
  8
0
  6
CONTINUOUS
 10
3.165360
 20
5.422120
  0
VERTEX
  8
0
  6
CONTINUOUS
 10
3.165800
 20
5.422120
  0
VERTEX
  8
0
  6
CONTINUOUS
 10
3.183840
 20
5.420360
  0
VERTEX
  8
0
  6
CONTINUOUS
 10
3.201000
 20
5.415080
  0
VERTEX
  8
0
  6
CONTINUOUS
 10
3.216840
 20
5.406280
  0
VERTEX
  8
0
  6
CONTINUOUS
 10
3.230040
 20
5.395280
  0
VERTEX
  8
0
  6
CONTINUOUS
 10
3.241480
 20
5.381640
  0
VERTEX
  8
0
  6
CONTINUOUS
 10
3.249840
 20
5.366240
  0
VERTEX
  8
0
  6
CONTINUOUS
 10
3.255120
 20
5.349080
  0
VERTEX
  8
0
  6
CONTINUOUS
 10
3.256880
 20
5.330600
  0
VERTEX
  8
0
  6
CONTINUOUS
 10
3.255120
 20
5.312560
  0
VERTEX
  8
0
  6
CONTINUOUS
 10
3.249840
 20
5.295400
  0
VERTEX
  8
0
  6
CONTINUOUS
 10
3.241480
 20
5.279560
  0
VERTEX
  8
0
  6
CONTINUOUS
 10
3.230040
 20
5.266360
  0
VERTEX
  8
0
  6
CONTINUOUS
 10
3.216840
 20
5.254920
  0
VERTEX
  8
0
  6
CONTINUOUS
 10
3.201000
 20
5.246560
  0
VERTEX
  8
0
  6
CONTINUOUS
 10
3.183840
 20
5.241280
  0
VERTEX
  8
0
  6
CONTINUOUS
 10
3.165800
 20
5.239520
  0
VERTEX
  8
0
  6
CONTINUOUS
 10
3.131480
 20
5.239520
  0
VERTEX
  8
0
  6
CONTINUOUS
 10
3.112560
 20
5.115000
  0
VERTEX
  8
0
  6
CONTINUOUS
 10
2.951080
 20
5.115000
  0
VERTEX
  8
0
  6
CONTINUOUS
 10
2.951080
 20
5.955400
  0
VERTEX
  8
0
  6
CONTINUOUS
 10
3.510760
 20
5.955400
  0
VERTEX
  8
0
  6
CONTINUOUS
 10
3.510760
 20
5.838800
  0
VERTEX
  8
0
  6
CONTINUOUS
 10
3.510320
 20
5.836600
  0
SEQEND
  8
0
  0
TEXT
  8
0
 10
3.258640
 20
4.908640
 40
0.138135
  1
BA  758
 41
1.000000
  7
SN0
 71
     0
 72
     5
 11
3.848315
 21
4.908640
  0
TEXT
  8
0
 10
3.038200
 20
4.716800
 40
0.138135
  1
9/16" x 13/16"
 41
1.000000
  7
SN0
 71
     0
 72
     5
 11
4.067258
 21
4.716800
  0
POLYLINE
  8
0
  6
CONTINUOUS
 66
     1
 40
0.014080
 41
0.014080
  0
VERTEX
  8
0
  6
CONTINUOUS
 10
4.672360
 20
6.065840
  0
VERTEX
  8
0
  6
CONTINUOUS
 10
4.681600
 20
6.035920
  0
VERTEX
  8
0
  6
CONTINUOUS
 10
4.692600
 20
6.006440
  0
VERTEX
  8
0
  6
CONTINUOUS
 10
4.705800
 20
5.977840
  0
VERTEX
  8
0
  6
CONTINUOUS
 10
4.721200
 20
5.949680
  0
VERTEX
  8
0
  6
CONTINUOUS
 10
4.748040
 20
5.909640
  0
VERTEX
  8
0
  6
CONTINUOUS
 10
4.780160
 20
5.872240
  0
VERTEX
  8
0
  6
CONTINUOUS
 10
4.817560
 20
5.837480
  0
VERTEX
  8
0
  6
CONTINUOUS
 10
4.860240
 20
5.805800
  0
VERTEX
  8
0
  6
CONTINUOUS
 10
4.908200
 20
5.778080
  0
VERTEX
  8
0
  6
CONTINUOUS
 10
4.943400
 20
5.761800
  0
VERTEX
  8
0
  6
CONTINUOUS
 10
5.001040
 20
5.741120
  0
VERTEX
  8
0
  6
CONTINUOUS
 10
5.064400
 20
5.725280
  0
VERTEX
  8
0
  6
CONTINUOUS
 10
5.086840
 20
5.720880
  0
VERTEX
  8
0
  6
CONTINUOUS
 10
5.088600
 20
5.739360
  0
VERTEX
  8
0
  6
CONTINUOUS
 10
5.093880
 20
5.756520
  0
VERTEX
  8
0
  6
CONTINUOUS
 10
5.107520
 20
5.778960
  0
VERTEX
  8
0
  6
CONTINUOUS
 10
5.119840
 20
5.791720
  0
VERTEX
  8
0
  6
CONTINUOUS
 10
5.134360
 20
5.801400
  0
VERTEX
  8
0
  6
CONTINUOUS
 10
5.159440
 20
5.810640
  0
VERTEX
  8
0
  6
CONTINUOUS
 10
5.177920
 20
5.812400
  0
VERTEX
  8
0
  6
CONTINUOUS
 10
5.196400
 20
5.810640
  0
VERTEX
  8
0
  6
CONTINUOUS
 10
5.213560
 20
5.805360
  0
VERTEX
  8
0
  6
CONTINUOUS
 10
5.236000
 20
5.791720
  0
VERTEX
  8
0
  6
CONTINUOUS
 10
5.254040
 20
5.771920
  0
VERTEX
  8
0
  6
CONTINUOUS
 10
5.265480
 20
5.748160
  0
VERTEX
  8
0
  6
CONTINUOUS
 10
5.269000
 20
5.730120
  0
VERTEX
  8
0
  6
CONTINUOUS
 10
5.269440
 20
5.686560
  0
VERTEX
  8
0
  6
CONTINUOUS
 10
5.393960
 20
5.668080
  0
VERTEX
  8
0
  6
CONTINUOUS
 10
5.393960
 20
5.506160
  0
VERTEX
  8
0
  6
CONTINUOUS
 10
4.553560
 20
5.506160
  0
VERTEX
  8
0
  6
CONTINUOUS
 10
4.553560
 20
6.066280
  0
VERTEX
  8
0
  6
CONTINUOUS
 10
4.672360
 20
6.065840
  0
SEQEND
  8
0
  0
TEXT
  8
0
 10
4.652120
 20
5.300240
 40
0.138135
  1
BA  758
 41
1.000000
  7
SN0
 71
     0
 72
     5
 11
5.241795
 21
5.300240
  0
TEXT
  8
0
 10
4.431680
 20
5.108840
 40
0.138135
  1
9/16" x 13/16"
 41
1.000000
  7
SN0
 71
     0
 72
     5
 11
5.460738
 21
5.108840
  0
ENDSEC
  0
EOF
