  0
SECTION
  2
HEADER
  9
$ACADVER
  1
AC1006
  9
$EXTMIN
 10
1.394800
 20
0.610720
  9
$EXTMAX
 10
6.908880
 20
3.977600
  9
$LTSCALE
 40
0.044000
  9
$PDMODE
 70
    35
  9
$PDSIZE
 40
0.035200
  0
ENDSEC
  0
SECTION
  2
TABLES
  0
TABLE
  2
LTYPE
 70
     9
  0
LTYPE
  2
CONTINUOUS
 70
    64
  3
Solid line
 72
    65
 73
     0
 40
0.000000
  0
LTYPE
  2
DASHED
 70
    64
  3
__ __ __ __ __ __ __ __ __ __ __ __ __ __ __
 72
    65
 73
     2
 40
0.000330
 49
0.000220
 49
-0.000110
  0
LTYPE
  2
HIDDEN
 70
    64
  3
 _ _ _ _ _ _ _ _ _ _ _ _ _ _ _ _ _ _ _ _ _ _
 72
    65
 73
     2
 40
0.000165
 49
0.000110
 49
-0.000055
  0
LTYPE
  2
CENTER
 70
    64
  3
____ _ ____ _ ____ _ ____ _ ____ _ ____ _ ____
 72
    65
 73
     4
 40
0.000880
 49
0.000550
 49
-0.000110
 49
0.000110
 49
-0.000110
  0
LTYPE
  2
PHANTOM
 70
    64
  3
_____ _ _ _____ _ _ _____ _ _ _____ _ _ ____
 72
    65
 73
     6
 40
0.001100
 49
0.000550
 49
-0.000110
 49
0.000110
 49
-0.000110
 49
0.000110
 49
-0.000110
  0
LTYPE
  2
DOT
 70
    64
  3
...............................................
 72
    65
 73
     2
 40
0.000110
 49
0.000000
 49
-0.000110
  0
LTYPE
  2
DASHDOT
 70
    64
  3
__ . __ . __ . __ . __ . __ . __ . __ . __ . __
 72
    65
 73
     4
 40
0.000440
 49
0.000220
 49
-0.000110
 49
0.000000
 49
-0.000110
  0
LTYPE
  2
BORDER
 70
    64
  3
__ __ . __ __ . __ __ . __ __ . __ __ . __ __
 72
    65
 73
     6
 40
0.000770
 49
0.000220
 49
-0.000110
 49
0.000220
 49
-0.000110
 49
0.000000
 49
-0.000110
  0
LTYPE
  2
DIVIDE
 70
    64
  3
__ . . __ . . __ . . __ . . __ . . __ . . __
 72
    65
 73
     6
 40
0.000550
 49
0.000220
 49
-0.000110
 49
0.000000
 49
-0.000110
 49
0.000000
 49
-0.000110
  0
LTYPE
  2
DOTDOT
 70
    64
  3
 . .  . .  . .  . .  . .  . . 
 72
    65
 73
     5
 40
0.000242
 49
-0.000110
 49
0.000000
 49
-0.000110
 49
0.000000
 49
-0.000110
  0
ENDTAB
  0
TABLE
  2
STYLE
 70
     2
  0
STYLE
 70
     0
  2
SN0
 40
0.000000
 41
0.000440
 50
0.000000
 71
     0
 42
0.000000
  3
ROMAND
  0
STYLE
 70
    68
  2
SV0
 40
0.000000
 41
0.000440
 50
0.000000
 71
     0
 42
0.000000
  3
ROMAND
  0
ENDTAB
  0
TABLE
  2
LAYER
 70
     3
  0
LAYER
  2
FOREGROUND
 70
    64
 62
     7
  6
CONTINUOUS
  0
LAYER
  2
BACKGROUND
 70
    65
 62
    -7
  6
CONTINUOUS
  0
LAYER
  2
0
 70
    64
 62
     7
  6
CONTINUOUS
  0
ENDTAB
  0
ENDSEC
  0
SECTION
  2
ENTITIES
  0
POLYLINE
  8
FOREGROUND
  6
CONTINUOUS
 66
     1
 40
0.000000
 41
0.000000
  0
VERTEX
  8
FOREGROUND
  6
CONTINUOUS
 10
0.000000
 20
4.588320
  0
VERTEX
  8
FOREGROUND
  6
CONTINUOUS
 10
8.499920
 20
4.588320
  0
VERTEX
  8
FOREGROUND
  6
CONTINUOUS
 10
8.499920
 20
-6.411680
  0
VERTEX
  8
FOREGROUND
  6
CONTINUOUS
 10
0.000000
 20
-6.411680
  0
VERTEX
  8
FOREGROUND
  6
CONTINUOUS
 10
0.000000
 20
4.588320
  0
SEQEND
  8
0
  0
POLYLINE
  8
FOREGROUND
  6
CONTINUOUS
 66
     1
 40
0.000000
 41
0.000000
  0
VERTEX
  8
FOREGROUND
  6
CONTINUOUS
 10
0.000000
 20
4.588320
  0
VERTEX
  8
FOREGROUND
  6
CONTINUOUS
 10
8.499920
 20
4.588320
  0
VERTEX
  8
FOREGROUND
  6
CONTINUOUS
 10
8.499920
 20
-6.411680
  0
VERTEX
  8
FOREGROUND
  6
CONTINUOUS
 10
0.000000
 20
-6.411680
  0
VERTEX
  8
FOREGROUND
  6
CONTINUOUS
 10
0.000000
 20
4.588320
  0
SEQEND
  8
0
  0
POLYLINE
  8
0
  6
CONTINUOUS
 66
     1
 40
0.014080
 41
0.014080
  0
VERTEX
  8
0
  6
CONTINUOUS
 10
5.651800
 20
1.482800
  0
VERTEX
  8
0
  6
CONTINUOUS
 10
5.722200
 20
1.483680
  0
VERTEX
  8
0
  6
CONTINUOUS
 10
5.822080
 20
1.490280
  0
VERTEX
  8
0
  6
CONTINUOUS
 10
5.884560
 20
1.497320
  0
VERTEX
  8
0
  6
CONTINUOUS
 10
5.973000
 20
1.512720
  0
VERTEX
  8
0
  6
CONTINUOUS
 10
6.053960
 20
1.532960
  0
VERTEX
  8
0
  6
CONTINUOUS
 10
6.127880
 20
1.558040
  0
VERTEX
  8
0
  6
CONTINUOUS
 10
6.195200
 20
1.587520
  0
VERTEX
  8
0
  6
CONTINUOUS
 10
6.255480
 20
1.621400
  0
VERTEX
  8
0
  6
CONTINUOUS
 10
6.291560
 20
1.646040
  0
VERTEX
  8
0
  6
CONTINUOUS
 10
6.339960
 20
1.686080
  0
VERTEX
  8
0
  6
CONTINUOUS
 10
6.381760
 20
1.730080
  0
VERTEX
  8
0
  6
CONTINUOUS
 10
6.405960
 20
1.760880
  0
VERTEX
  8
0
  6
CONTINUOUS
 10
6.435880
 20
1.809720
  0
VERTEX
  8
0
  6
CONTINUOUS
 10
6.452600
 20
1.844040
  0
VERTEX
  8
0
  6
CONTINUOUS
 10
6.465800
 20
1.879240
  0
VERTEX
  8
0
  6
CONTINUOUS
 10
6.475920
 20
1.915760
  0
VERTEX
  8
0
  6
CONTINUOUS
 10
6.483400
 20
1.953600
  0
VERTEX
  8
0
  6
CONTINUOUS
 10
6.488680
 20
2.011240
  0
VERTEX
  8
0
  6
CONTINUOUS
 10
6.488240
 20
2.050840
  0
VERTEX
  8
0
  6
CONTINUOUS
 10
6.485160
 20
2.091320
  0
VERTEX
  8
0
  6
CONTINUOUS
 10
6.474600
 20
2.153360
  0
VERTEX
  8
0
  6
CONTINUOUS
 10
6.457440
 20
2.216280
  0
VERTEX
  8
0
  6
CONTINUOUS
 10
6.433240
 20
2.280520
  0
VERTEX
  8
0
  6
CONTINUOUS
 10
6.402880
 20
2.345200
  0
VERTEX
  8
0
  6
CONTINUOUS
 10
6.335120
 20
2.468400
  0
VERTEX
  8
0
  6
CONTINUOUS
 10
6.299920
 20
2.545400
  0
VERTEX
  8
0
  6
CONTINUOUS
 10
6.272200
 20
2.619760
  0
VERTEX
  8
0
  6
CONTINUOUS
 10
6.258120
 20
2.667720
  0
VERTEX
  8
0
  6
CONTINUOUS
 10
6.243160
 20
2.737240
  0
VERTEX
  8
0
  6
CONTINUOUS
 10
6.237000
 20
2.781680
  0
VERTEX
  8
0
  6
CONTINUOUS
 10
6.234360
 20
2.825240
  0
VERTEX
  8
0
  6
CONTINUOUS
 10
6.233920
 20
2.846360
  0
VERTEX
  8
0
  6
CONTINUOUS
 10
6.237880
 20
2.907520
  0
VERTEX
  8
0
  6
CONTINUOUS
 10
6.244040
 20
2.946680
  0
VERTEX
  8
0
  6
CONTINUOUS
 10
6.253280
 20
2.984520
  0
VERTEX
  8
0
  6
CONTINUOUS
 10
6.272640
 20
3.038200
  0
VERTEX
  8
0
  6
CONTINUOUS
 10
6.298160
 20
3.088360
  0
VERTEX
  8
0
  6
CONTINUOUS
 10
6.318400
 20
3.120040
  0
VERTEX
  8
0
  6
CONTINUOUS
 10
6.341280
 20
3.149960
  0
VERTEX
  8
0
  6
CONTINUOUS
 10
6.366360
 20
3.178560
  0
VERTEX
  8
0
  6
CONTINUOUS
 10
6.409480
 20
3.217720
  0
VERTEX
  8
0
  6
CONTINUOUS
 10
6.457440
 20
3.253360
  0
VERTEX
  8
0
  6
CONTINUOUS
 10
6.511120
 20
3.285040
  0
VERTEX
  8
0
  6
CONTINUOUS
 10
6.569200
 20
3.312760
  0
VERTEX
  8
0
  6
CONTINUOUS
 10
6.632560
 20
3.336520
  0
VERTEX
  8
0
  6
CONTINUOUS
 10
6.677000
 20
3.350160
  0
VERTEX
  8
0
  6
CONTINUOUS
 10
6.723640
 20
3.361600
  0
VERTEX
  8
0
  6
CONTINUOUS
 10
6.797120
 20
3.375240
  0
VERTEX
  8
0
  6
CONTINUOUS
 10
6.874560
 20
3.384480
  0
VERTEX
  8
0
  6
CONTINUOUS
 10
6.901400
 20
3.386680
  0
VERTEX
  8
0
  6
CONTINUOUS
 10
6.901400
 20
3.970120
  0
VERTEX
  8
0
  6
CONTINUOUS
 10
4.913920
 20
3.970120
  0
VERTEX
  8
0
  6
CONTINUOUS
 10
4.913920
 20
1.482800
  0
VERTEX
  8
0
  6
CONTINUOUS
 10
5.653560
 20
1.482800
  0
VERTEX
  8
0
  6
CONTINUOUS
 10
5.651800
 20
1.482800
  0
SEQEND
  8
0
  0
SOLID
  8
0
 62
    15
 10
2.804120
 20
2.485120
 11
3.448720
 21
2.115960
 12
2.860000
 22
2.379520
 13
3.504600
 23
2.010360
  0
POLYLINE
  8
0
  6
CONTINUOUS
 66
     1
 40
0.000000
 41
0.000000
  0
VERTEX
  8
0
  6
CONTINUOUS
 10
2.804120
 20
2.485120
  0
VERTEX
  8
0
  6
CONTINUOUS
 10
3.448720
 20
2.115960
  0
VERTEX
  8
0
  6
CONTINUOUS
 10
3.504600
 20
2.010360
  0
VERTEX
  8
0
  6
CONTINUOUS
 10
2.860000
 20
2.379520
  0
VERTEX
  8
0
  6
CONTINUOUS
 10
2.804120
 20
2.485120
  0
SEQEND
  8
0
  0
SOLID
  8
0
 62
    15
 10
3.383160
 20
3.960880
 11
4.027760
 21
3.591720
 12
3.383160
 22
3.377440
 13
4.027760
 23
3.008280
  0
POLYLINE
  8
0
  6
CONTINUOUS
 66
     1
 40
0.000000
 41
0.000000
  0
VERTEX
  8
0
  6
CONTINUOUS
 10
3.383160
 20
3.960880
  0
VERTEX
  8
0
  6
CONTINUOUS
 10
4.027760
 20
3.591720
  0
VERTEX
  8
0
  6
CONTINUOUS
 10
4.027760
 20
3.008280
  0
VERTEX
  8
0
  6
CONTINUOUS
 10
3.383160
 20
3.377440
  0
VERTEX
  8
0
  6
CONTINUOUS
 10
3.383160
 20
3.960880
  0
SEQEND
  8
0
  0
SOLID
  8
0
 62
    15
 10
3.383160
 20
3.377440
 11
4.027760
 21
3.008280
 12
3.278880
 22
3.366000
 13
3.923480
 23
2.997280
  0
POLYLINE
  8
0
  6
CONTINUOUS
 66
     1
 40
0.000000
 41
0.000000
  0
VERTEX
  8
0
  6
CONTINUOUS
 10
3.383160
 20
3.377440
  0
VERTEX
  8
0
  6
CONTINUOUS
 10
4.027760
 20
3.008280
  0
VERTEX
  8
0
  6
CONTINUOUS
 10
3.923480
 20
2.997280
  0
VERTEX
  8
0
  6
CONTINUOUS
 10
3.278880
 20
3.366000
  0
VERTEX
  8
0
  6
CONTINUOUS
 10
3.383160
 20
3.377440
  0
SEQEND
  8
0
  0
SOLID
  8
0
 62
    15
 10
3.278880
 20
3.366000
 11
3.923480
 21
2.997280
 12
3.181640
 22
3.347080
 13
3.826240
 23
2.977920
  0
POLYLINE
  8
0
  6
CONTINUOUS
 66
     1
 40
0.000000
 41
0.000000
  0
VERTEX
  8
0
  6
CONTINUOUS
 10
3.278880
 20
3.366000
  0
VERTEX
  8
0
  6
CONTINUOUS
 10
3.923480
 20
2.997280
  0
VERTEX
  8
0
  6
CONTINUOUS
 10
3.826240
 20
2.977920
  0
VERTEX
  8
0
  6
CONTINUOUS
 10
3.181640
 20
3.347080
  0
VERTEX
  8
0
  6
CONTINUOUS
 10
3.278880
 20
3.366000
  0
SEQEND
  8
0
  0
SOLID
  8
0
 62
    15
 10
3.181640
 20
3.347080
 11
3.826240
 21
2.977920
 12
3.092320
 22
3.319800
 13
3.736920
 23
2.951080
  0
POLYLINE
  8
0
  6
CONTINUOUS
 66
     1
 40
0.000000
 41
0.000000
  0
VERTEX
  8
0
  6
CONTINUOUS
 10
3.181640
 20
3.347080
  0
VERTEX
  8
0
  6
CONTINUOUS
 10
3.826240
 20
2.977920
  0
VERTEX
  8
0
  6
CONTINUOUS
 10
3.736920
 20
2.951080
  0
VERTEX
  8
0
  6
CONTINUOUS
 10
3.092320
 20
3.319800
  0
VERTEX
  8
0
  6
CONTINUOUS
 10
3.181640
 20
3.347080
  0
SEQEND
  8
0
  0
SOLID
  8
0
 62
    15
 10
3.092320
 20
3.319800
 11
3.736920
 21
2.951080
 12
3.011360
 22
3.285920
 13
3.655960
 23
2.916760
  0
POLYLINE
  8
0
  6
CONTINUOUS
 66
     1
 40
0.000000
 41
0.000000
  0
VERTEX
  8
0
  6
CONTINUOUS
 10
3.092320
 20
3.319800
  0
VERTEX
  8
0
  6
CONTINUOUS
 10
3.736920
 20
2.951080
  0
VERTEX
  8
0
  6
CONTINUOUS
 10
3.655960
 20
2.916760
  0
VERTEX
  8
0
  6
CONTINUOUS
 10
3.011360
 20
3.285920
  0
VERTEX
  8
0
  6
CONTINUOUS
 10
3.092320
 20
3.319800
  0
SEQEND
  8
0
  0
SOLID
  8
0
 62
    15
 10
3.011360
 20
3.285920
 11
3.655960
 21
2.916760
 12
2.938760
 22
3.244560
 13
3.583800
 23
2.875400
  0
POLYLINE
  8
0
  6
CONTINUOUS
 66
     1
 40
0.000000
 41
0.000000
  0
VERTEX
  8
0
  6
CONTINUOUS
 10
3.011360
 20
3.285920
  0
VERTEX
  8
0
  6
CONTINUOUS
 10
3.655960
 20
2.916760
  0
VERTEX
  8
0
  6
CONTINUOUS
 10
3.583800
 20
2.875400
  0
VERTEX
  8
0
  6
CONTINUOUS
 10
2.938760
 20
3.244560
  0
VERTEX
  8
0
  6
CONTINUOUS
 10
3.011360
 20
3.285920
  0
SEQEND
  8
0
  0
SOLID
  8
0
 62
    15
 10
2.938760
 20
3.244560
 11
3.583800
 21
2.875400
 12
2.875840
 22
3.196160
 13
3.520440
 23
2.827000
  0
POLYLINE
  8
0
  6
CONTINUOUS
 66
     1
 40
0.000000
 41
0.000000
  0
VERTEX
  8
0
  6
CONTINUOUS
 10
2.938760
 20
3.244560
  0
VERTEX
  8
0
  6
CONTINUOUS
 10
3.583800
 20
2.875400
  0
VERTEX
  8
0
  6
CONTINUOUS
 10
3.520440
 20
2.827000
  0
VERTEX
  8
0
  6
CONTINUOUS
 10
2.875840
 20
3.196160
  0
VERTEX
  8
0
  6
CONTINUOUS
 10
2.938760
 20
3.244560
  0
SEQEND
  8
0
  0
SOLID
  8
0
 62
    15
 10
2.875840
 20
3.196160
 11
3.520440
 21
2.827000
 12
2.822600
 22
3.140720
 13
3.467200
 23
2.772000
  0
POLYLINE
  8
0
  6
CONTINUOUS
 66
     1
 40
0.000000
 41
0.000000
  0
VERTEX
  8
0
  6
CONTINUOUS
 10
2.875840
 20
3.196160
  0
VERTEX
  8
0
  6
CONTINUOUS
 10
3.520440
 20
2.827000
  0
VERTEX
  8
0
  6
CONTINUOUS
 10
3.467200
 20
2.772000
  0
VERTEX
  8
0
  6
CONTINUOUS
 10
2.822600
 20
3.140720
  0
VERTEX
  8
0
  6
CONTINUOUS
 10
2.875840
 20
3.196160
  0
SEQEND
  8
0
  0
SOLID
  8
0
 62
    15
 10
2.822600
 20
3.140720
 11
3.467200
 21
2.772000
 12
2.779480
 22
3.079560
 13
3.424080
 23
2.710400
  0
POLYLINE
  8
0
  6
CONTINUOUS
 66
     1
 40
0.000000
 41
0.000000
  0
VERTEX
  8
0
  6
CONTINUOUS
 10
2.822600
 20
3.140720
  0
VERTEX
  8
0
  6
CONTINUOUS
 10
3.467200
 20
2.772000
  0
VERTEX
  8
0
  6
CONTINUOUS
 10
3.424080
 20
2.710400
  0
VERTEX
  8
0
  6
CONTINUOUS
 10
2.779480
 20
3.079560
  0
VERTEX
  8
0
  6
CONTINUOUS
 10
2.822600
 20
3.140720
  0
SEQEND
  8
0
  0
SOLID
  8
0
 62
    15
 10
2.779480
 20
3.079560
 11
3.424080
 21
2.710400
 12
2.746920
 22
3.011360
 13
3.391520
 23
2.642640
  0
POLYLINE
  8
0
  6
CONTINUOUS
 66
     1
 40
0.000000
 41
0.000000
  0
VERTEX
  8
0
  6
CONTINUOUS
 10
2.779480
 20
3.079560
  0
VERTEX
  8
0
  6
CONTINUOUS
 10
3.424080
 20
2.710400
  0
VERTEX
  8
0
  6
CONTINUOUS
 10
3.391520
 20
2.642640
  0
VERTEX
  8
0
  6
CONTINUOUS
 10
2.746920
 20
3.011360
  0
VERTEX
  8
0
  6
CONTINUOUS
 10
2.779480
 20
3.079560
  0
SEQEND
  8
0
  0
SOLID
  8
0
 62
    15
 10
2.746920
 20
3.011360
 11
3.391520
 21
2.642640
 12
2.725800
 22
2.937440
 13
3.370400
 23
2.568720
  0
POLYLINE
  8
0
  6
CONTINUOUS
 66
     1
 40
0.000000
 41
0.000000
  0
VERTEX
  8
0
  6
CONTINUOUS
 10
2.746920
 20
3.011360
  0
VERTEX
  8
0
  6
CONTINUOUS
 10
3.391520
 20
2.642640
  0
VERTEX
  8
0
  6
CONTINUOUS
 10
3.370400
 20
2.568720
  0
VERTEX
  8
0
  6
CONTINUOUS
 10
2.725800
 20
2.937440
  0
VERTEX
  8
0
  6
CONTINUOUS
 10
2.746920
 20
3.011360
  0
SEQEND
  8
0
  0
SOLID
  8
0
 62
    15
 10
2.725800
 20
2.937440
 11
3.370400
 21
2.568720
 12
2.716120
 22
2.857800
 13
3.360720
 23
2.488640
  0
POLYLINE
  8
0
  6
CONTINUOUS
 66
     1
 40
0.000000
 41
0.000000
  0
VERTEX
  8
0
  6
CONTINUOUS
 10
2.725800
 20
2.937440
  0
VERTEX
  8
0
  6
CONTINUOUS
 10
3.370400
 20
2.568720
  0
VERTEX
  8
0
  6
CONTINUOUS
 10
3.360720
 20
2.488640
  0
VERTEX
  8
0
  6
CONTINUOUS
 10
2.716120
 20
2.857800
  0
VERTEX
  8
0
  6
CONTINUOUS
 10
2.725800
 20
2.937440
  0
SEQEND
  8
0
  0
SOLID
  8
0
 62
    15
 10
2.716120
 20
2.857800
 11
3.360720
 21
2.488640
 12
2.718760
 22
2.772440
 13
3.363360
 23
2.403720
  0
POLYLINE
  8
0
  6
CONTINUOUS
 66
     1
 40
0.000000
 41
0.000000
  0
VERTEX
  8
0
  6
CONTINUOUS
 10
2.716120
 20
2.857800
  0
VERTEX
  8
0
  6
CONTINUOUS
 10
3.360720
 20
2.488640
  0
VERTEX
  8
0
  6
CONTINUOUS
 10
3.363360
 20
2.403720
  0
VERTEX
  8
0
  6
CONTINUOUS
 10
2.718760
 20
2.772440
  0
VERTEX
  8
0
  6
CONTINUOUS
 10
2.716120
 20
2.857800
  0
SEQEND
  8
0
  0
SOLID
  8
0
 62
    15
 10
2.718760
 20
2.772440
 11
3.363360
 21
2.403720
 12
2.733720
 22
2.681800
 13
3.378320
 23
2.312640
  0
POLYLINE
  8
0
  6
CONTINUOUS
 66
     1
 40
0.000000
 41
0.000000
  0
VERTEX
  8
0
  6
CONTINUOUS
 10
2.718760
 20
2.772440
  0
VERTEX
  8
0
  6
CONTINUOUS
 10
3.363360
 20
2.403720
  0
VERTEX
  8
0
  6
CONTINUOUS
 10
3.378320
 20
2.312640
  0
VERTEX
  8
0
  6
CONTINUOUS
 10
2.733720
 20
2.681800
  0
VERTEX
  8
0
  6
CONTINUOUS
 10
2.718760
 20
2.772440
  0
SEQEND
  8
0
  0
SOLID
  8
0
 62
    15
 10
2.733720
 20
2.681800
 11
3.378320
 21
2.312640
 12
2.761880
 22
2.585880
 13
3.406920
 23
2.216720
  0
POLYLINE
  8
0
  6
CONTINUOUS
 66
     1
 40
0.000000
 41
0.000000
  0
VERTEX
  8
0
  6
CONTINUOUS
 10
2.733720
 20
2.681800
  0
VERTEX
  8
0
  6
CONTINUOUS
 10
3.378320
 20
2.312640
  0
VERTEX
  8
0
  6
CONTINUOUS
 10
3.406920
 20
2.216720
  0
VERTEX
  8
0
  6
CONTINUOUS
 10
2.761880
 20
2.585880
  0
VERTEX
  8
0
  6
CONTINUOUS
 10
2.733720
 20
2.681800
  0
SEQEND
  8
0
  0
SOLID
  8
0
 62
    15
 10
2.761880
 20
2.585880
 11
3.406920
 21
2.216720
 12
2.804120
 22
2.485120
 13
3.448720
 23
2.115960
  0
POLYLINE
  8
0
  6
CONTINUOUS
 66
     1
 40
0.000000
 41
0.000000
  0
VERTEX
  8
0
  6
CONTINUOUS
 10
2.761880
 20
2.585880
  0
VERTEX
  8
0
  6
CONTINUOUS
 10
3.406920
 20
2.216720
  0
VERTEX
  8
0
  6
CONTINUOUS
 10
3.448720
 20
2.115960
  0
VERTEX
  8
0
  6
CONTINUOUS
 10
2.804120
 20
2.485120
  0
VERTEX
  8
0
  6
CONTINUOUS
 10
2.761880
 20
2.585880
  0
SEQEND
  8
0
  0
SOLID
  8
0
 62
    15
 10
2.270840
 20
1.477960
 11
2.915440
 21
1.109240
 12
2.133120
 22
1.473560
 13
2.777720
 23
1.104400
  0
POLYLINE
  8
0
  6
CONTINUOUS
 66
     1
 40
0.000000
 41
0.000000
  0
VERTEX
  8
0
  6
CONTINUOUS
 10
2.270840
 20
1.477960
  0
VERTEX
  8
0
  6
CONTINUOUS
 10
2.915440
 20
1.109240
  0
VERTEX
  8
0
  6
CONTINUOUS
 10
2.777720
 20
1.104400
  0
VERTEX
  8
0
  6
CONTINUOUS
 10
2.133120
 20
1.473560
  0
VERTEX
  8
0
  6
CONTINUOUS
 10
2.270840
 20
1.477960
  0
SEQEND
  8
0
  0
SOLID
  8
0
 62
    15
 10
2.860000
 20
2.379520
 11
3.504600
 21
2.010360
 12
2.905320
 22
2.292840
 13
3.549920
 23
1.923680
  0
POLYLINE
  8
0
  6
CONTINUOUS
 66
     1
 40
0.000000
 41
0.000000
  0
VERTEX
  8
0
  6
CONTINUOUS
 10
2.860000
 20
2.379520
  0
VERTEX
  8
0
  6
CONTINUOUS
 10
3.504600
 20
2.010360
  0
VERTEX
  8
0
  6
CONTINUOUS
 10
3.549920
 20
1.923680
  0
VERTEX
  8
0
  6
CONTINUOUS
 10
2.905320
 20
2.292840
  0
VERTEX
  8
0
  6
CONTINUOUS
 10
2.860000
 20
2.379520
  0
SEQEND
  8
0
  0
SOLID
  8
0
 62
    15
 10
2.905320
 20
2.292840
 11
3.549920
 21
1.923680
 12
2.938760
 22
2.207040
 13
3.583360
 23
1.838320
  0
POLYLINE
  8
0
  6
CONTINUOUS
 66
     1
 40
0.000000
 41
0.000000
  0
VERTEX
  8
0
  6
CONTINUOUS
 10
2.905320
 20
2.292840
  0
VERTEX
  8
0
  6
CONTINUOUS
 10
3.549920
 20
1.923680
  0
VERTEX
  8
0
  6
CONTINUOUS
 10
3.583360
 20
1.838320
  0
VERTEX
  8
0
  6
CONTINUOUS
 10
2.938760
 20
2.207040
  0
VERTEX
  8
0
  6
CONTINUOUS
 10
2.905320
 20
2.292840
  0
SEQEND
  8
0
  0
SOLID
  8
0
 62
    15
 10
2.938760
 20
2.207040
 11
3.583360
 21
1.838320
 12
2.960320
 22
2.123440
 13
3.604920
 23
1.754280
  0
POLYLINE
  8
0
  6
CONTINUOUS
 66
     1
 40
0.000000
 41
0.000000
  0
VERTEX
  8
0
  6
CONTINUOUS
 10
2.938760
 20
2.207040
  0
VERTEX
  8
0
  6
CONTINUOUS
 10
3.583360
 20
1.838320
  0
VERTEX
  8
0
  6
CONTINUOUS
 10
3.604920
 20
1.754280
  0
VERTEX
  8
0
  6
CONTINUOUS
 10
2.960320
 20
2.123440
  0
VERTEX
  8
0
  6
CONTINUOUS
 10
2.938760
 20
2.207040
  0
SEQEND
  8
0
  0
SOLID
  8
0
 62
    15
 10
2.960320
 20
2.123440
 11
3.604920
 21
1.754280
 12
2.969560
 22
2.041600
 13
3.614600
 23
1.672880
  0
POLYLINE
  8
0
  6
CONTINUOUS
 66
     1
 40
0.000000
 41
0.000000
  0
VERTEX
  8
0
  6
CONTINUOUS
 10
2.960320
 20
2.123440
  0
VERTEX
  8
0
  6
CONTINUOUS
 10
3.604920
 20
1.754280
  0
VERTEX
  8
0
  6
CONTINUOUS
 10
3.614600
 20
1.672880
  0
VERTEX
  8
0
  6
CONTINUOUS
 10
2.969560
 20
2.041600
  0
VERTEX
  8
0
  6
CONTINUOUS
 10
2.960320
 20
2.123440
  0
SEQEND
  8
0
  0
SOLID
  8
0
 62
    15
 10
2.969560
 20
2.041600
 11
3.614600
 21
1.672880
 12
2.967360
 22
1.963280
 13
3.611960
 23
1.594120
  0
POLYLINE
  8
0
  6
CONTINUOUS
 66
     1
 40
0.000000
 41
0.000000
  0
VERTEX
  8
0
  6
CONTINUOUS
 10
2.969560
 20
2.041600
  0
VERTEX
  8
0
  6
CONTINUOUS
 10
3.614600
 20
1.672880
  0
VERTEX
  8
0
  6
CONTINUOUS
 10
3.611960
 20
1.594120
  0
VERTEX
  8
0
  6
CONTINUOUS
 10
2.967360
 20
1.963280
  0
VERTEX
  8
0
  6
CONTINUOUS
 10
2.969560
 20
2.041600
  0
SEQEND
  8
0
  0
SOLID
  8
0
 62
    15
 10
2.967360
 20
1.963280
 11
3.611960
 21
1.594120
 12
2.952840
 22
1.888040
 13
3.597440
 23
1.519320
  0
POLYLINE
  8
0
  6
CONTINUOUS
 66
     1
 40
0.000000
 41
0.000000
  0
VERTEX
  8
0
  6
CONTINUOUS
 10
2.967360
 20
1.963280
  0
VERTEX
  8
0
  6
CONTINUOUS
 10
3.611960
 20
1.594120
  0
VERTEX
  8
0
  6
CONTINUOUS
 10
3.597440
 20
1.519320
  0
VERTEX
  8
0
  6
CONTINUOUS
 10
2.952840
 20
1.888040
  0
VERTEX
  8
0
  6
CONTINUOUS
 10
2.967360
 20
1.963280
  0
SEQEND
  8
0
  0
SOLID
  8
0
 62
    15
 10
2.952840
 20
1.888040
 11
3.597440
 21
1.519320
 12
2.926000
 22
1.817200
 13
3.570600
 23
1.448480
  0
POLYLINE
  8
0
  6
CONTINUOUS
 66
     1
 40
0.000000
 41
0.000000
  0
VERTEX
  8
0
  6
CONTINUOUS
 10
2.952840
 20
1.888040
  0
VERTEX
  8
0
  6
CONTINUOUS
 10
3.597440
 20
1.519320
  0
VERTEX
  8
0
  6
CONTINUOUS
 10
3.570600
 20
1.448480
  0
VERTEX
  8
0
  6
CONTINUOUS
 10
2.926000
 20
1.817200
  0
VERTEX
  8
0
  6
CONTINUOUS
 10
2.952840
 20
1.888040
  0
SEQEND
  8
0
  0
SOLID
  8
0
 62
    15
 10
2.926000
 20
1.817200
 11
3.570600
 21
1.448480
 12
2.887280
 22
1.751640
 13
3.531880
 23
1.382480
  0
POLYLINE
  8
0
  6
CONTINUOUS
 66
     1
 40
0.000000
 41
0.000000
  0
VERTEX
  8
0
  6
CONTINUOUS
 10
2.926000
 20
1.817200
  0
VERTEX
  8
0
  6
CONTINUOUS
 10
3.570600
 20
1.448480
  0
VERTEX
  8
0
  6
CONTINUOUS
 10
3.531880
 20
1.382480
  0
VERTEX
  8
0
  6
CONTINUOUS
 10
2.887280
 20
1.751640
  0
VERTEX
  8
0
  6
CONTINUOUS
 10
2.926000
 20
1.817200
  0
SEQEND
  8
0
  0
SOLID
  8
0
 62
    15
 10
2.887280
 20
1.751640
 11
3.531880
 21
1.382480
 12
2.836240
 22
1.690920
 13
3.480840
 23
1.322200
  0
POLYLINE
  8
0
  6
CONTINUOUS
 66
     1
 40
0.000000
 41
0.000000
  0
VERTEX
  8
0
  6
CONTINUOUS
 10
2.887280
 20
1.751640
  0
VERTEX
  8
0
  6
CONTINUOUS
 10
3.531880
 20
1.382480
  0
VERTEX
  8
0
  6
CONTINUOUS
 10
3.480840
 20
1.322200
  0
VERTEX
  8
0
  6
CONTINUOUS
 10
2.836240
 20
1.690920
  0
VERTEX
  8
0
  6
CONTINUOUS
 10
2.887280
 20
1.751640
  0
SEQEND
  8
0
  0
SOLID
  8
0
 62
    15
 10
2.836240
 20
1.690920
 11
3.480840
 21
1.322200
 12
2.772880
 22
1.636800
 13
3.417480
 23
1.267640
  0
POLYLINE
  8
0
  6
CONTINUOUS
 66
     1
 40
0.000000
 41
0.000000
  0
VERTEX
  8
0
  6
CONTINUOUS
 10
2.836240
 20
1.690920
  0
VERTEX
  8
0
  6
CONTINUOUS
 10
3.480840
 20
1.322200
  0
VERTEX
  8
0
  6
CONTINUOUS
 10
3.417480
 20
1.267640
  0
VERTEX
  8
0
  6
CONTINUOUS
 10
2.772880
 20
1.636800
  0
VERTEX
  8
0
  6
CONTINUOUS
 10
2.836240
 20
1.690920
  0
SEQEND
  8
0
  0
SOLID
  8
0
 62
    15
 10
2.772880
 20
1.636800
 11
3.417480
 21
1.267640
 12
2.697200
 22
1.589280
 13
3.341800
 23
1.220120
  0
POLYLINE
  8
0
  6
CONTINUOUS
 66
     1
 40
0.000000
 41
0.000000
  0
VERTEX
  8
0
  6
CONTINUOUS
 10
2.772880
 20
1.636800
  0
VERTEX
  8
0
  6
CONTINUOUS
 10
3.417480
 20
1.267640
  0
VERTEX
  8
0
  6
CONTINUOUS
 10
3.341800
 20
1.220120
  0
VERTEX
  8
0
  6
CONTINUOUS
 10
2.697200
 20
1.589280
  0
VERTEX
  8
0
  6
CONTINUOUS
 10
2.772880
 20
1.636800
  0
SEQEND
  8
0
  0
SOLID
  8
0
 62
    15
 10
2.697200
 20
1.589280
 11
3.341800
 21
1.220120
 12
2.609200
 22
1.548800
 13
3.253800
 23
1.179640
  0
POLYLINE
  8
0
  6
CONTINUOUS
 66
     1
 40
0.000000
 41
0.000000
  0
VERTEX
  8
0
  6
CONTINUOUS
 10
2.697200
 20
1.589280
  0
VERTEX
  8
0
  6
CONTINUOUS
 10
3.341800
 20
1.220120
  0
VERTEX
  8
0
  6
CONTINUOUS
 10
3.253800
 20
1.179640
  0
VERTEX
  8
0
  6
CONTINUOUS
 10
2.609200
 20
1.548800
  0
VERTEX
  8
0
  6
CONTINUOUS
 10
2.697200
 20
1.589280
  0
SEQEND
  8
0
  0
SOLID
  8
0
 62
    15
 10
2.609200
 20
1.548800
 11
3.253800
 21
1.179640
 12
2.508880
 22
1.516240
 13
3.153480
 23
1.147520
  0
POLYLINE
  8
0
  6
CONTINUOUS
 66
     1
 40
0.000000
 41
0.000000
  0
VERTEX
  8
0
  6
CONTINUOUS
 10
2.609200
 20
1.548800
  0
VERTEX
  8
0
  6
CONTINUOUS
 10
3.253800
 20
1.179640
  0
VERTEX
  8
0
  6
CONTINUOUS
 10
3.153480
 20
1.147520
  0
VERTEX
  8
0
  6
CONTINUOUS
 10
2.508880
 20
1.516240
  0
VERTEX
  8
0
  6
CONTINUOUS
 10
2.609200
 20
1.548800
  0
SEQEND
  8
0
  0
SOLID
  8
0
 62
    15
 10
2.508880
 20
1.516240
 11
3.153480
 21
1.147520
 12
2.396240
 22
1.492480
 13
3.040840
 23
1.123760
  0
POLYLINE
  8
0
  6
CONTINUOUS
 66
     1
 40
0.000000
 41
0.000000
  0
VERTEX
  8
0
  6
CONTINUOUS
 10
2.508880
 20
1.516240
  0
VERTEX
  8
0
  6
CONTINUOUS
 10
3.153480
 20
1.147520
  0
VERTEX
  8
0
  6
CONTINUOUS
 10
3.040840
 20
1.123760
  0
VERTEX
  8
0
  6
CONTINUOUS
 10
2.396240
 20
1.492480
  0
VERTEX
  8
0
  6
CONTINUOUS
 10
2.508880
 20
1.516240
  0
SEQEND
  8
0
  0
SOLID
  8
0
 62
    15
 10
2.396240
 20
1.492480
 11
3.040840
 21
1.123760
 12
2.270840
 22
1.477960
 13
2.915440
 23
1.109240
  0
POLYLINE
  8
0
  6
CONTINUOUS
 66
     1
 40
0.000000
 41
0.000000
  0
VERTEX
  8
0
  6
CONTINUOUS
 10
2.396240
 20
1.492480
  0
VERTEX
  8
0
  6
CONTINUOUS
 10
3.040840
 20
1.123760
  0
VERTEX
  8
0
  6
CONTINUOUS
 10
2.915440
 20
1.109240
  0
VERTEX
  8
0
  6
CONTINUOUS
 10
2.270840
 20
1.477960
  0
VERTEX
  8
0
  6
CONTINUOUS
 10
2.396240
 20
1.492480
  0
SEQEND
  8
0
  0
SOLID
  8
0
 62
    15
 10
2.134880
 20
1.473560
 11
2.779920
 21
1.104400
 12
1.395680
 22
1.473560
 13
2.040280
 23
1.104400
  0
POLYLINE
  8
0
  6
CONTINUOUS
 66
     1
 40
0.000000
 41
0.000000
  0
VERTEX
  8
0
  6
CONTINUOUS
 10
2.134880
 20
1.473560
  0
VERTEX
  8
0
  6
CONTINUOUS
 10
2.779920
 20
1.104400
  0
VERTEX
  8
0
  6
CONTINUOUS
 10
2.040280
 20
1.104400
  0
VERTEX
  8
0
  6
CONTINUOUS
 10
1.395680
 20
1.473560
  0
VERTEX
  8
0
  6
CONTINUOUS
 10
2.134880
 20
1.473560
  0
SEQEND
  8
0
  0
POLYLINE
  8
0
  6
CONTINUOUS
 66
     1
 40
0.000000
 41
0.000000
  0
VERTEX
  8
0
  6
CONTINUOUS
 10
2.134880
 20
1.473560
  0
VERTEX
  8
0
  6
CONTINUOUS
 10
1.395680
 20
1.473560
  0
VERTEX
  8
0
  6
CONTINUOUS
 10
1.395680
 20
3.960880
  0
VERTEX
  8
0
  6
CONTINUOUS
 10
3.383160
 20
3.960880
  0
VERTEX
  8
0
  6
CONTINUOUS
 10
3.383160
 20
3.377440
  0
VERTEX
  8
0
  6
CONTINUOUS
 10
3.278880
 20
3.366000
  0
VERTEX
  8
0
  6
CONTINUOUS
 10
3.181640
 20
3.347080
  0
VERTEX
  8
0
  6
CONTINUOUS
 10
3.092320
 20
3.319800
  0
VERTEX
  8
0
  6
CONTINUOUS
 10
3.011360
 20
3.285920
  0
VERTEX
  8
0
  6
CONTINUOUS
 10
2.938760
 20
3.244560
  0
VERTEX
  8
0
  6
CONTINUOUS
 10
2.875840
 20
3.196160
  0
VERTEX
  8
0
  6
CONTINUOUS
 10
2.822600
 20
3.140720
  0
VERTEX
  8
0
  6
CONTINUOUS
 10
2.779480
 20
3.079560
  0
VERTEX
  8
0
  6
CONTINUOUS
 10
2.746920
 20
3.011360
  0
VERTEX
  8
0
  6
CONTINUOUS
 10
2.725800
 20
2.937440
  0
VERTEX
  8
0
  6
CONTINUOUS
 10
2.716120
 20
2.857800
  0
VERTEX
  8
0
  6
CONTINUOUS
 10
2.718760
 20
2.772440
  0
VERTEX
  8
0
  6
CONTINUOUS
 10
2.733720
 20
2.681800
  0
VERTEX
  8
0
  6
CONTINUOUS
 10
2.761880
 20
2.585880
  0
VERTEX
  8
0
  6
CONTINUOUS
 10
2.804120
 20
2.485120
  0
VERTEX
  8
0
  6
CONTINUOUS
 10
2.860000
 20
2.379520
  0
VERTEX
  8
0
  6
CONTINUOUS
 10
2.905320
 20
2.292840
  0
VERTEX
  8
0
  6
CONTINUOUS
 10
2.938760
 20
2.207040
  0
VERTEX
  8
0
  6
CONTINUOUS
 10
2.960320
 20
2.123440
  0
VERTEX
  8
0
  6
CONTINUOUS
 10
2.969560
 20
2.041600
  0
VERTEX
  8
0
  6
CONTINUOUS
 10
2.967360
 20
1.963280
  0
VERTEX
  8
0
  6
CONTINUOUS
 10
2.952840
 20
1.888040
  0
VERTEX
  8
0
  6
CONTINUOUS
 10
2.926000
 20
1.817200
  0
VERTEX
  8
0
  6
CONTINUOUS
 10
2.887280
 20
1.751640
  0
VERTEX
  8
0
  6
CONTINUOUS
 10
2.836240
 20
1.690920
  0
VERTEX
  8
0
  6
CONTINUOUS
 10
2.772880
 20
1.636800
  0
VERTEX
  8
0
  6
CONTINUOUS
 10
2.697200
 20
1.589280
  0
VERTEX
  8
0
  6
CONTINUOUS
 10
2.609200
 20
1.548800
  0
VERTEX
  8
0
  6
CONTINUOUS
 10
2.508880
 20
1.516240
  0
VERTEX
  8
0
  6
CONTINUOUS
 10
2.396240
 20
1.492480
  0
VERTEX
  8
0
  6
CONTINUOUS
 10
2.270840
 20
1.477960
  0
VERTEX
  8
0
  6
CONTINUOUS
 10
2.133120
 20
1.473560
  0
VERTEX
  8
0
  6
CONTINUOUS
 10
2.134880
 20
1.473560
  0
SEQEND
  8
0
  0
TEXT
  8
0
 10
2.416480
 20
0.845240
 40
0.138248
  1
BA  757
 41
1.000000
  7
SN0
 71
     0
 72
     5
 11
3.007589
 21
0.845240
  0
TEXT
  8
0
 10
2.329800
 20
0.653400
 40
0.138248
  1
2" x 2-1/2"
 41
1.000000
  7
SN0
 71
     0
 72
     5
 11
3.093224
 21
0.653400
  0
ENDSEC
  0
EOF
