  0
SECTION
  2
HEADER
  9
$ACADVER
  1
AC1006
  9
$EXTMIN
 10
3.923480
 20
0.399960
  9
$EXTMAX
 10
7.071240
 20
3.641000
  9
$LTSCALE
 40
0.044000
  9
$PDMODE
 70
    35
  9
$PDSIZE
 40
0.035200
  0
ENDSEC
  0
SECTION
  2
TABLES
  0
TABLE
  2
LTYPE
 70
     9
  0
LTYPE
  2
CONTINUOUS
 70
    64
  3
Solid line
 72
    65
 73
     0
 40
0.000000
  0
LTYPE
  2
DASHED
 70
    64
  3
__ __ __ __ __ __ __ __ __ __ __ __ __ __ __
 72
    65
 73
     2
 40
0.000330
 49
0.000220
 49
-0.000110
  0
LTYPE
  2
HIDDEN
 70
    64
  3
 _ _ _ _ _ _ _ _ _ _ _ _ _ _ _ _ _ _ _ _ _ _
 72
    65
 73
     2
 40
0.000165
 49
0.000110
 49
-0.000055
  0
LTYPE
  2
CENTER
 70
    64
  3
____ _ ____ _ ____ _ ____ _ ____ _ ____ _ ____
 72
    65
 73
     4
 40
0.000880
 49
0.000550
 49
-0.000110
 49
0.000110
 49
-0.000110
  0
LTYPE
  2
PHANTOM
 70
    64
  3
_____ _ _ _____ _ _ _____ _ _ _____ _ _ ____
 72
    65
 73
     6
 40
0.001100
 49
0.000550
 49
-0.000110
 49
0.000110
 49
-0.000110
 49
0.000110
 49
-0.000110
  0
LTYPE
  2
DOT
 70
    64
  3
...............................................
 72
    65
 73
     2
 40
0.000110
 49
0.000000
 49
-0.000110
  0
LTYPE
  2
DASHDOT
 70
    64
  3
__ . __ . __ . __ . __ . __ . __ . __ . __ . __
 72
    65
 73
     4
 40
0.000440
 49
0.000220
 49
-0.000110
 49
0.000000
 49
-0.000110
  0
LTYPE
  2
BORDER
 70
    64
  3
__ __ . __ __ . __ __ . __ __ . __ __ . __ __
 72
    65
 73
     6
 40
0.000770
 49
0.000220
 49
-0.000110
 49
0.000220
 49
-0.000110
 49
0.000000
 49
-0.000110
  0
LTYPE
  2
DIVIDE
 70
    64
  3
__ . . __ . . __ . . __ . . __ . . __ . . __
 72
    65
 73
     6
 40
0.000550
 49
0.000220
 49
-0.000110
 49
0.000000
 49
-0.000110
 49
0.000000
 49
-0.000110
  0
LTYPE
  2
DOTDOT
 70
    64
  3
 . .  . .  . .  . .  . .  . . 
 72
    65
 73
     5
 40
0.000242
 49
-0.000110
 49
0.000000
 49
-0.000110
 49
0.000000
 49
-0.000110
  0
ENDTAB
  0
TABLE
  2
STYLE
 70
     2
  0
STYLE
 70
     0
  2
SN0
 40
0.000000
 41
0.000440
 50
0.000000
 71
     0
 42
0.000000
  3
ROMAND
  0
STYLE
 70
    68
  2
SV0
 40
0.000000
 41
0.000440
 50
0.000000
 71
     0
 42
0.000000
  3
ROMAND
  0
ENDTAB
  0
TABLE
  2
LAYER
 70
     3
  0
LAYER
  2
FOREGROUND
 70
    64
 62
     7
  6
CONTINUOUS
  0
LAYER
  2
BACKGROUND
 70
    65
 62
    -7
  6
CONTINUOUS
  0
LAYER
  2
0
 70
    64
 62
     7
  6
CONTINUOUS
  0
ENDTAB
  0
ENDSEC
  0
SECTION
  2
ENTITIES
  0
POLYLINE
  8
FOREGROUND
  6
CONTINUOUS
 66
     1
 40
0.000000
 41
0.000000
  0
VERTEX
  8
FOREGROUND
  6
CONTINUOUS
 10
0.000000
 20
4.040960
  0
VERTEX
  8
FOREGROUND
  6
CONTINUOUS
 10
8.499920
 20
4.040960
  0
VERTEX
  8
FOREGROUND
  6
CONTINUOUS
 10
8.499920
 20
-6.959040
  0
VERTEX
  8
FOREGROUND
  6
CONTINUOUS
 10
0.000000
 20
-6.959040
  0
VERTEX
  8
FOREGROUND
  6
CONTINUOUS
 10
0.000000
 20
4.040960
  0
SEQEND
  8
0
  0
POLYLINE
  8
FOREGROUND
  6
CONTINUOUS
 66
     1
 40
0.000000
 41
0.000000
  0
VERTEX
  8
FOREGROUND
  6
CONTINUOUS
 10
0.000000
 20
4.040960
  0
VERTEX
  8
FOREGROUND
  6
CONTINUOUS
 10
8.499920
 20
4.040960
  0
VERTEX
  8
FOREGROUND
  6
CONTINUOUS
 10
8.499920
 20
-6.959040
  0
VERTEX
  8
FOREGROUND
  6
CONTINUOUS
 10
0.000000
 20
-6.959040
  0
VERTEX
  8
FOREGROUND
  6
CONTINUOUS
 10
0.000000
 20
4.040960
  0
SEQEND
  8
0
  0
SOLID
  8
0
 62
    15
 10
6.086080
 20
1.540440
 11
6.733320
 21
1.926760
 12
6.159120
 22
1.539560
 13
6.806800
 23
1.925880
  0
POLYLINE
  8
0
  6
CONTINUOUS
 66
     1
 40
0.000000
 41
0.000000
  0
VERTEX
  8
0
  6
CONTINUOUS
 10
6.086080
 20
1.540440
  0
VERTEX
  8
0
  6
CONTINUOUS
 10
6.733320
 20
1.926760
  0
VERTEX
  8
0
  6
CONTINUOUS
 10
6.806800
 20
1.925880
  0
VERTEX
  8
0
  6
CONTINUOUS
 10
6.159120
 20
1.539560
  0
VERTEX
  8
0
  6
CONTINUOUS
 10
6.086080
 20
1.540440
  0
SEQEND
  8
0
  0
SOLID
  8
0
 62
    15
 10
5.640360
 20
1.738000
 11
6.288040
 21
2.124760
 12
5.648280
 22
1.722600
 13
6.295960
 23
2.108920
  0
POLYLINE
  8
0
  6
CONTINUOUS
 66
     1
 40
0.000000
 41
0.000000
  0
VERTEX
  8
0
  6
CONTINUOUS
 10
5.640360
 20
1.738000
  0
VERTEX
  8
0
  6
CONTINUOUS
 10
6.288040
 20
2.124760
  0
VERTEX
  8
0
  6
CONTINUOUS
 10
6.295960
 20
2.108920
  0
VERTEX
  8
0
  6
CONTINUOUS
 10
5.648280
 20
1.722600
  0
VERTEX
  8
0
  6
CONTINUOUS
 10
5.640360
 20
1.738000
  0
SEQEND
  8
0
  0
SOLID
  8
0
 62
    15
 10
5.648280
 20
1.722600
 11
6.295960
 21
2.108920
 12
5.664560
 22
1.709400
 13
6.312240
 23
2.096160
  0
POLYLINE
  8
0
  6
CONTINUOUS
 66
     1
 40
0.000000
 41
0.000000
  0
VERTEX
  8
0
  6
CONTINUOUS
 10
5.648280
 20
1.722600
  0
VERTEX
  8
0
  6
CONTINUOUS
 10
6.295960
 20
2.108920
  0
VERTEX
  8
0
  6
CONTINUOUS
 10
6.312240
 20
2.096160
  0
VERTEX
  8
0
  6
CONTINUOUS
 10
5.664560
 20
1.709400
  0
VERTEX
  8
0
  6
CONTINUOUS
 10
5.648280
 20
1.722600
  0
SEQEND
  8
0
  0
SOLID
  8
0
 62
    15
 10
5.664560
 20
1.709400
 11
6.312240
 21
2.096160
 12
5.708560
 22
1.695760
 13
6.355800
 23
2.082080
  0
POLYLINE
  8
0
  6
CONTINUOUS
 66
     1
 40
0.000000
 41
0.000000
  0
VERTEX
  8
0
  6
CONTINUOUS
 10
5.664560
 20
1.709400
  0
VERTEX
  8
0
  6
CONTINUOUS
 10
6.312240
 20
2.096160
  0
VERTEX
  8
0
  6
CONTINUOUS
 10
6.355800
 20
2.082080
  0
VERTEX
  8
0
  6
CONTINUOUS
 10
5.708560
 20
1.695760
  0
VERTEX
  8
0
  6
CONTINUOUS
 10
5.664560
 20
1.709400
  0
SEQEND
  8
0
  0
SOLID
  8
0
 62
    15
 10
5.708560
 20
1.695760
 11
6.355800
 21
2.082080
 12
5.723080
 22
1.686520
 13
6.370760
 23
2.072840
  0
POLYLINE
  8
0
  6
CONTINUOUS
 66
     1
 40
0.000000
 41
0.000000
  0
VERTEX
  8
0
  6
CONTINUOUS
 10
5.708560
 20
1.695760
  0
VERTEX
  8
0
  6
CONTINUOUS
 10
6.355800
 20
2.082080
  0
VERTEX
  8
0
  6
CONTINUOUS
 10
6.370760
 20
2.072840
  0
VERTEX
  8
0
  6
CONTINUOUS
 10
5.723080
 20
1.686520
  0
VERTEX
  8
0
  6
CONTINUOUS
 10
5.708560
 20
1.695760
  0
SEQEND
  8
0
  0
SOLID
  8
0
 62
    15
 10
5.723080
 20
1.686520
 11
6.370760
 21
2.072840
 12
5.749480
 22
1.661000
 13
6.397160
 23
2.047320
  0
POLYLINE
  8
0
  6
CONTINUOUS
 66
     1
 40
0.000000
 41
0.000000
  0
VERTEX
  8
0
  6
CONTINUOUS
 10
5.723080
 20
1.686520
  0
VERTEX
  8
0
  6
CONTINUOUS
 10
6.370760
 20
2.072840
  0
VERTEX
  8
0
  6
CONTINUOUS
 10
6.397160
 20
2.047320
  0
VERTEX
  8
0
  6
CONTINUOUS
 10
5.749480
 20
1.661000
  0
VERTEX
  8
0
  6
CONTINUOUS
 10
5.723080
 20
1.686520
  0
SEQEND
  8
0
  0
SOLID
  8
0
 62
    15
 10
5.749480
 20
1.661000
 11
6.397160
 21
2.047320
 12
5.761800
 22
1.646040
 13
6.409040
 23
2.032800
  0
POLYLINE
  8
0
  6
CONTINUOUS
 66
     1
 40
0.000000
 41
0.000000
  0
VERTEX
  8
0
  6
CONTINUOUS
 10
5.749480
 20
1.661000
  0
VERTEX
  8
0
  6
CONTINUOUS
 10
6.397160
 20
2.047320
  0
VERTEX
  8
0
  6
CONTINUOUS
 10
6.409040
 20
2.032800
  0
VERTEX
  8
0
  6
CONTINUOUS
 10
5.761800
 20
1.646040
  0
VERTEX
  8
0
  6
CONTINUOUS
 10
5.749480
 20
1.661000
  0
SEQEND
  8
0
  0
SOLID
  8
0
 62
    15
 10
5.761800
 20
1.646040
 11
6.409040
 21
2.032800
 12
5.773240
 22
1.631080
 13
6.420920
 23
2.017840
  0
POLYLINE
  8
0
  6
CONTINUOUS
 66
     1
 40
0.000000
 41
0.000000
  0
VERTEX
  8
0
  6
CONTINUOUS
 10
5.761800
 20
1.646040
  0
VERTEX
  8
0
  6
CONTINUOUS
 10
6.409040
 20
2.032800
  0
VERTEX
  8
0
  6
CONTINUOUS
 10
6.420920
 20
2.017840
  0
VERTEX
  8
0
  6
CONTINUOUS
 10
5.773240
 20
1.631080
  0
VERTEX
  8
0
  6
CONTINUOUS
 10
5.761800
 20
1.646040
  0
SEQEND
  8
0
  0
SOLID
  8
0
 62
    15
 10
5.773240
 20
1.631080
 11
6.420920
 21
2.017840
 12
5.797000
 22
1.604240
 13
6.444240
 23
1.990560
  0
POLYLINE
  8
0
  6
CONTINUOUS
 66
     1
 40
0.000000
 41
0.000000
  0
VERTEX
  8
0
  6
CONTINUOUS
 10
5.773240
 20
1.631080
  0
VERTEX
  8
0
  6
CONTINUOUS
 10
6.420920
 20
2.017840
  0
VERTEX
  8
0
  6
CONTINUOUS
 10
6.444240
 20
1.990560
  0
VERTEX
  8
0
  6
CONTINUOUS
 10
5.797000
 20
1.604240
  0
VERTEX
  8
0
  6
CONTINUOUS
 10
5.773240
 20
1.631080
  0
SEQEND
  8
0
  0
SOLID
  8
0
 62
    15
 10
5.797000
 20
1.604240
 11
6.444240
 21
1.990560
 12
5.813280
 22
1.592360
 13
6.460520
 23
1.979120
  0
POLYLINE
  8
0
  6
CONTINUOUS
 66
     1
 40
0.000000
 41
0.000000
  0
VERTEX
  8
0
  6
CONTINUOUS
 10
5.797000
 20
1.604240
  0
VERTEX
  8
0
  6
CONTINUOUS
 10
6.444240
 20
1.990560
  0
VERTEX
  8
0
  6
CONTINUOUS
 10
6.460520
 20
1.979120
  0
VERTEX
  8
0
  6
CONTINUOUS
 10
5.813280
 20
1.592360
  0
VERTEX
  8
0
  6
CONTINUOUS
 10
5.797000
 20
1.604240
  0
SEQEND
  8
0
  0
SOLID
  8
0
 62
    15
 10
5.813280
 20
1.592360
 11
6.460520
 21
1.979120
 12
5.837920
 22
1.580920
 13
6.485600
 23
1.967240
  0
POLYLINE
  8
0
  6
CONTINUOUS
 66
     1
 40
0.000000
 41
0.000000
  0
VERTEX
  8
0
  6
CONTINUOUS
 10
5.813280
 20
1.592360
  0
VERTEX
  8
0
  6
CONTINUOUS
 10
6.460520
 20
1.979120
  0
VERTEX
  8
0
  6
CONTINUOUS
 10
6.485600
 20
1.967240
  0
VERTEX
  8
0
  6
CONTINUOUS
 10
5.837920
 20
1.580920
  0
VERTEX
  8
0
  6
CONTINUOUS
 10
5.813280
 20
1.592360
  0
SEQEND
  8
0
  0
SOLID
  8
0
 62
    15
 10
5.837920
 20
1.580920
 11
6.485600
 21
1.967240
 12
5.871360
 22
1.569480
 13
6.519040
 23
1.956240
  0
POLYLINE
  8
0
  6
CONTINUOUS
 66
     1
 40
0.000000
 41
0.000000
  0
VERTEX
  8
0
  6
CONTINUOUS
 10
5.837920
 20
1.580920
  0
VERTEX
  8
0
  6
CONTINUOUS
 10
6.485600
 20
1.967240
  0
VERTEX
  8
0
  6
CONTINUOUS
 10
6.519040
 20
1.956240
  0
VERTEX
  8
0
  6
CONTINUOUS
 10
5.871360
 20
1.569480
  0
VERTEX
  8
0
  6
CONTINUOUS
 10
5.837920
 20
1.580920
  0
SEQEND
  8
0
  0
SOLID
  8
0
 62
    15
 10
5.871360
 20
1.569480
 11
6.519040
 21
1.956240
 12
5.913160
 22
1.559360
 13
6.560400
 23
1.945680
  0
POLYLINE
  8
0
  6
CONTINUOUS
 66
     1
 40
0.000000
 41
0.000000
  0
VERTEX
  8
0
  6
CONTINUOUS
 10
5.871360
 20
1.569480
  0
VERTEX
  8
0
  6
CONTINUOUS
 10
6.519040
 20
1.956240
  0
VERTEX
  8
0
  6
CONTINUOUS
 10
6.560400
 20
1.945680
  0
VERTEX
  8
0
  6
CONTINUOUS
 10
5.913160
 20
1.559360
  0
VERTEX
  8
0
  6
CONTINUOUS
 10
5.871360
 20
1.569480
  0
SEQEND
  8
0
  0
SOLID
  8
0
 62
    15
 10
5.913160
 20
1.559360
 11
6.560400
 21
1.945680
 12
5.962880
 22
1.551000
 13
6.610120
 23
1.937320
  0
POLYLINE
  8
0
  6
CONTINUOUS
 66
     1
 40
0.000000
 41
0.000000
  0
VERTEX
  8
0
  6
CONTINUOUS
 10
5.913160
 20
1.559360
  0
VERTEX
  8
0
  6
CONTINUOUS
 10
6.560400
 20
1.945680
  0
VERTEX
  8
0
  6
CONTINUOUS
 10
6.610120
 20
1.937320
  0
VERTEX
  8
0
  6
CONTINUOUS
 10
5.962880
 20
1.551000
  0
VERTEX
  8
0
  6
CONTINUOUS
 10
5.913160
 20
1.559360
  0
SEQEND
  8
0
  0
SOLID
  8
0
 62
    15
 10
5.962880
 20
1.551000
 11
6.610120
 21
1.937320
 12
6.020520
 22
1.544400
 13
6.667760
 23
1.930720
  0
POLYLINE
  8
0
  6
CONTINUOUS
 66
     1
 40
0.000000
 41
0.000000
  0
VERTEX
  8
0
  6
CONTINUOUS
 10
5.962880
 20
1.551000
  0
VERTEX
  8
0
  6
CONTINUOUS
 10
6.610120
 20
1.937320
  0
VERTEX
  8
0
  6
CONTINUOUS
 10
6.667760
 20
1.930720
  0
VERTEX
  8
0
  6
CONTINUOUS
 10
6.020520
 20
1.544400
  0
VERTEX
  8
0
  6
CONTINUOUS
 10
5.962880
 20
1.551000
  0
SEQEND
  8
0
  0
SOLID
  8
0
 62
    15
 10
6.020520
 20
1.544400
 11
6.667760
 21
1.930720
 12
6.086080
 22
1.540440
 13
6.733320
 23
1.926760
  0
POLYLINE
  8
0
  6
CONTINUOUS
 66
     1
 40
0.000000
 41
0.000000
  0
VERTEX
  8
0
  6
CONTINUOUS
 10
6.020520
 20
1.544400
  0
VERTEX
  8
0
  6
CONTINUOUS
 10
6.667760
 20
1.930720
  0
VERTEX
  8
0
  6
CONTINUOUS
 10
6.733320
 20
1.926760
  0
VERTEX
  8
0
  6
CONTINUOUS
 10
6.086080
 20
1.540440
  0
VERTEX
  8
0
  6
CONTINUOUS
 10
6.020520
 20
1.544400
  0
SEQEND
  8
0
  0
SOLID
  8
0
 62
    15
 10
5.638600
 20
1.754280
 11
6.286280
 21
2.141040
 12
5.640360
 22
1.738000
 13
6.288040
 23
2.124760
  0
POLYLINE
  8
0
  6
CONTINUOUS
 66
     1
 40
0.000000
 41
0.000000
  0
VERTEX
  8
0
  6
CONTINUOUS
 10
5.638600
 20
1.754280
  0
VERTEX
  8
0
  6
CONTINUOUS
 10
6.286280
 20
2.141040
  0
VERTEX
  8
0
  6
CONTINUOUS
 10
6.288040
 20
2.124760
  0
VERTEX
  8
0
  6
CONTINUOUS
 10
5.640360
 20
1.738000
  0
VERTEX
  8
0
  6
CONTINUOUS
 10
5.638600
 20
1.754280
  0
SEQEND
  8
0
  0
SOLID
  8
0
 62
    15
 10
6.159120
 20
1.539560
 11
6.806800
 21
1.925880
 12
6.168360
 22
1.471800
 13
6.816040
 23
1.858120
  0
POLYLINE
  8
0
  6
CONTINUOUS
 66
     1
 40
0.000000
 41
0.000000
  0
VERTEX
  8
0
  6
CONTINUOUS
 10
6.159120
 20
1.539560
  0
VERTEX
  8
0
  6
CONTINUOUS
 10
6.806800
 20
1.925880
  0
VERTEX
  8
0
  6
CONTINUOUS
 10
6.816040
 20
1.858120
  0
VERTEX
  8
0
  6
CONTINUOUS
 10
6.168360
 20
1.471800
  0
VERTEX
  8
0
  6
CONTINUOUS
 10
6.159120
 20
1.539560
  0
SEQEND
  8
0
  0
SOLID
  8
0
 62
    15
 10
6.168360
 20
1.471800
 11
6.816040
 21
1.858120
 12
6.209280
 22
1.471800
 13
6.856520
 23
1.858120
  0
POLYLINE
  8
0
  6
CONTINUOUS
 66
     1
 40
0.000000
 41
0.000000
  0
VERTEX
  8
0
  6
CONTINUOUS
 10
6.168360
 20
1.471800
  0
VERTEX
  8
0
  6
CONTINUOUS
 10
6.816040
 20
1.858120
  0
VERTEX
  8
0
  6
CONTINUOUS
 10
6.856520
 20
1.858120
  0
VERTEX
  8
0
  6
CONTINUOUS
 10
6.209280
 20
1.471800
  0
VERTEX
  8
0
  6
CONTINUOUS
 10
6.168360
 20
1.471800
  0
SEQEND
  8
0
  0
SOLID
  8
0
 62
    15
 10
6.250200
 20
1.533840
 11
6.897880
 21
1.920160
 12
6.276600
 22
1.539120
 13
6.923840
 23
1.925440
  0
POLYLINE
  8
0
  6
CONTINUOUS
 66
     1
 40
0.000000
 41
0.000000
  0
VERTEX
  8
0
  6
CONTINUOUS
 10
6.250200
 20
1.533840
  0
VERTEX
  8
0
  6
CONTINUOUS
 10
6.897880
 20
1.920160
  0
VERTEX
  8
0
  6
CONTINUOUS
 10
6.923840
 20
1.925440
  0
VERTEX
  8
0
  6
CONTINUOUS
 10
6.276600
 20
1.539120
  0
VERTEX
  8
0
  6
CONTINUOUS
 10
6.250200
 20
1.533840
  0
SEQEND
  8
0
  0
SOLID
  8
0
 62
    15
 10
6.276600
 20
1.539120
 11
6.923840
 21
1.925440
 12
6.302560
 22
1.533840
 13
6.950240
 23
1.920160
  0
POLYLINE
  8
0
  6
CONTINUOUS
 66
     1
 40
0.000000
 41
0.000000
  0
VERTEX
  8
0
  6
CONTINUOUS
 10
6.276600
 20
1.539120
  0
VERTEX
  8
0
  6
CONTINUOUS
 10
6.923840
 20
1.925440
  0
VERTEX
  8
0
  6
CONTINUOUS
 10
6.950240
 20
1.920160
  0
VERTEX
  8
0
  6
CONTINUOUS
 10
6.302560
 20
1.533840
  0
VERTEX
  8
0
  6
CONTINUOUS
 10
6.276600
 20
1.539120
  0
SEQEND
  8
0
  0
SOLID
  8
0
 62
    15
 10
6.302560
 20
1.533840
 11
6.950240
 21
1.920160
 12
6.324120
 22
1.519320
 13
6.971360
 23
1.906080
  0
POLYLINE
  8
0
  6
CONTINUOUS
 66
     1
 40
0.000000
 41
0.000000
  0
VERTEX
  8
0
  6
CONTINUOUS
 10
6.302560
 20
1.533840
  0
VERTEX
  8
0
  6
CONTINUOUS
 10
6.950240
 20
1.920160
  0
VERTEX
  8
0
  6
CONTINUOUS
 10
6.971360
 20
1.906080
  0
VERTEX
  8
0
  6
CONTINUOUS
 10
6.324120
 20
1.519320
  0
VERTEX
  8
0
  6
CONTINUOUS
 10
6.302560
 20
1.533840
  0
SEQEND
  8
0
  0
SOLID
  8
0
 62
    15
 10
6.324120
 20
1.519320
 11
6.971360
 21
1.906080
 12
6.338640
 22
1.498200
 13
6.985880
 23
1.884520
  0
POLYLINE
  8
0
  6
CONTINUOUS
 66
     1
 40
0.000000
 41
0.000000
  0
VERTEX
  8
0
  6
CONTINUOUS
 10
6.324120
 20
1.519320
  0
VERTEX
  8
0
  6
CONTINUOUS
 10
6.971360
 20
1.906080
  0
VERTEX
  8
0
  6
CONTINUOUS
 10
6.985880
 20
1.884520
  0
VERTEX
  8
0
  6
CONTINUOUS
 10
6.338640
 20
1.498200
  0
VERTEX
  8
0
  6
CONTINUOUS
 10
6.324120
 20
1.519320
  0
SEQEND
  8
0
  0
SOLID
  8
0
 62
    15
 10
6.113360
 20
1.343760
 11
6.761040
 21
1.730080
 12
6.113800
 22
1.085480
 13
6.761480
 23
1.472240
  0
POLYLINE
  8
0
  6
CONTINUOUS
 66
     1
 40
0.000000
 41
0.000000
  0
VERTEX
  8
0
  6
CONTINUOUS
 10
6.113360
 20
1.343760
  0
VERTEX
  8
0
  6
CONTINUOUS
 10
6.761040
 20
1.730080
  0
VERTEX
  8
0
  6
CONTINUOUS
 10
6.761480
 20
1.472240
  0
VERTEX
  8
0
  6
CONTINUOUS
 10
6.113800
 20
1.085480
  0
VERTEX
  8
0
  6
CONTINUOUS
 10
6.113360
 20
1.343760
  0
SEQEND
  8
0
  0
SOLID
  8
0
 62
    15
 10
6.343920
 20
1.471800
 11
6.991160
 21
1.858120
 12
6.343920
 22
1.417680
 13
6.991160
 23
1.804000
  0
POLYLINE
  8
0
  6
CONTINUOUS
 66
     1
 40
0.000000
 41
0.000000
  0
VERTEX
  8
0
  6
CONTINUOUS
 10
6.343920
 20
1.471800
  0
VERTEX
  8
0
  6
CONTINUOUS
 10
6.991160
 20
1.858120
  0
VERTEX
  8
0
  6
CONTINUOUS
 10
6.991160
 20
1.804000
  0
VERTEX
  8
0
  6
CONTINUOUS
 10
6.343920
 20
1.417680
  0
VERTEX
  8
0
  6
CONTINUOUS
 10
6.343920
 20
1.471800
  0
SEQEND
  8
0
  0
SOLID
  8
0
 62
    15
 10
6.343920
 20
1.417680
 11
6.991160
 21
1.804000
 12
6.423120
 22
1.417680
 13
7.070800
 23
1.804000
  0
POLYLINE
  8
0
  6
CONTINUOUS
 66
     1
 40
0.000000
 41
0.000000
  0
VERTEX
  8
0
  6
CONTINUOUS
 10
6.343920
 20
1.417680
  0
VERTEX
  8
0
  6
CONTINUOUS
 10
6.991160
 20
1.804000
  0
VERTEX
  8
0
  6
CONTINUOUS
 10
7.070800
 20
1.804000
  0
VERTEX
  8
0
  6
CONTINUOUS
 10
6.423120
 20
1.417680
  0
VERTEX
  8
0
  6
CONTINUOUS
 10
6.343920
 20
1.417680
  0
SEQEND
  8
0
  0
SOLID
  8
0
 62
    15
 10
6.423120
 20
1.417680
 11
7.070800
 21
1.804000
 12
6.423120
 22
1.343760
 13
7.070800
 23
1.730080
  0
POLYLINE
  8
0
  6
CONTINUOUS
 66
     1
 40
0.000000
 41
0.000000
  0
VERTEX
  8
0
  6
CONTINUOUS
 10
6.423120
 20
1.417680
  0
VERTEX
  8
0
  6
CONTINUOUS
 10
7.070800
 20
1.804000
  0
VERTEX
  8
0
  6
CONTINUOUS
 10
7.070800
 20
1.730080
  0
VERTEX
  8
0
  6
CONTINUOUS
 10
6.423120
 20
1.343760
  0
VERTEX
  8
0
  6
CONTINUOUS
 10
6.423120
 20
1.417680
  0
SEQEND
  8
0
  0
SOLID
  8
0
 62
    15
 10
6.338640
 20
1.498200
 11
6.985880
 21
1.884520
 12
6.343920
 22
1.471800
 13
6.991160
 23
1.858120
  0
POLYLINE
  8
0
  6
CONTINUOUS
 66
     1
 40
0.000000
 41
0.000000
  0
VERTEX
  8
0
  6
CONTINUOUS
 10
6.338640
 20
1.498200
  0
VERTEX
  8
0
  6
CONTINUOUS
 10
6.985880
 20
1.884520
  0
VERTEX
  8
0
  6
CONTINUOUS
 10
6.991160
 20
1.858120
  0
VERTEX
  8
0
  6
CONTINUOUS
 10
6.343920
 20
1.471800
  0
VERTEX
  8
0
  6
CONTINUOUS
 10
6.338640
 20
1.498200
  0
SEQEND
  8
0
  0
SOLID
  8
0
 62
    15
 10
6.113800
 20
1.085480
 11
6.761480
 21
1.472240
 12
6.423120
 22
1.085480
 13
7.070800
 23
1.472240
  0
POLYLINE
  8
0
  6
CONTINUOUS
 66
     1
 40
0.000000
 41
0.000000
  0
VERTEX
  8
0
  6
CONTINUOUS
 10
6.113800
 20
1.085480
  0
VERTEX
  8
0
  6
CONTINUOUS
 10
6.761480
 20
1.472240
  0
VERTEX
  8
0
  6
CONTINUOUS
 10
7.070800
 20
1.472240
  0
VERTEX
  8
0
  6
CONTINUOUS
 10
6.423120
 20
1.085480
  0
VERTEX
  8
0
  6
CONTINUOUS
 10
6.113800
 20
1.085480
  0
SEQEND
  8
0
  0
SOLID
  8
0
 62
    15
 10
6.423120
 20
1.085480
 11
7.070800
 21
1.472240
 12
6.423120
 22
0.899800
 13
7.070800
 23
1.286560
  0
POLYLINE
  8
0
  6
CONTINUOUS
 66
     1
 40
0.000000
 41
0.000000
  0
VERTEX
  8
0
  6
CONTINUOUS
 10
6.423120
 20
1.085480
  0
VERTEX
  8
0
  6
CONTINUOUS
 10
7.070800
 20
1.472240
  0
VERTEX
  8
0
  6
CONTINUOUS
 10
7.070800
 20
1.286560
  0
VERTEX
  8
0
  6
CONTINUOUS
 10
6.423120
 20
0.899800
  0
VERTEX
  8
0
  6
CONTINUOUS
 10
6.423120
 20
1.085480
  0
SEQEND
  8
0
  0
SOLID
  8
0
 62
    15
 10
3.924360
 20
1.766160
 11
4.571600
 21
2.152480
 12
5.638600
 22
1.766160
 13
6.285840
 23
2.152480
  0
POLYLINE
  8
0
  6
CONTINUOUS
 66
     1
 40
0.000000
 41
0.000000
  0
VERTEX
  8
0
  6
CONTINUOUS
 10
3.924360
 20
1.766160
  0
VERTEX
  8
0
  6
CONTINUOUS
 10
4.571600
 20
2.152480
  0
VERTEX
  8
0
  6
CONTINUOUS
 10
6.285840
 20
2.152480
  0
VERTEX
  8
0
  6
CONTINUOUS
 10
5.638600
 20
1.766160
  0
VERTEX
  8
0
  6
CONTINUOUS
 10
3.924360
 20
1.766160
  0
SEQEND
  8
0
  0
SOLID
  8
0
 62
    15
 10
5.638600
 20
1.766160
 11
6.285840
 21
2.152480
 12
5.638600
 22
1.754280
 13
6.285840
 23
2.141040
  0
POLYLINE
  8
0
  6
CONTINUOUS
 66
     1
 40
0.000000
 41
0.000000
  0
VERTEX
  8
0
  6
CONTINUOUS
 10
5.638600
 20
1.766160
  0
VERTEX
  8
0
  6
CONTINUOUS
 10
6.285840
 20
2.152480
  0
VERTEX
  8
0
  6
CONTINUOUS
 10
6.285840
 20
2.141040
  0
VERTEX
  8
0
  6
CONTINUOUS
 10
5.638600
 20
1.754280
  0
VERTEX
  8
0
  6
CONTINUOUS
 10
5.638600
 20
1.766160
  0
SEQEND
  8
0
  0
SOLID
  8
0
 62
    15
 10
5.638600
 20
1.754280
 11
6.285840
 21
2.141040
 12
5.638600
 22
1.754280
 13
6.286280
 23
2.141040
  0
POLYLINE
  8
0
  6
CONTINUOUS
 66
     1
 40
0.000000
 41
0.000000
  0
VERTEX
  8
0
  6
CONTINUOUS
 10
5.638600
 20
1.754280
  0
VERTEX
  8
0
  6
CONTINUOUS
 10
6.285840
 20
2.141040
  0
VERTEX
  8
0
  6
CONTINUOUS
 10
6.286280
 20
2.141040
  0
VERTEX
  8
0
  6
CONTINUOUS
 10
5.638600
 20
1.754280
  0
SEQEND
  8
0
  0
POLYLINE
  8
0
  6
CONTINUOUS
 66
     1
 40
0.000000
 41
0.000000
  0
VERTEX
  8
0
  6
CONTINUOUS
 10
5.638600
 20
1.754280
  0
VERTEX
  8
0
  6
CONTINUOUS
 10
5.640360
 20
1.738000
  0
VERTEX
  8
0
  6
CONTINUOUS
 10
5.648280
 20
1.722600
  0
VERTEX
  8
0
  6
CONTINUOUS
 10
5.664560
 20
1.709400
  0
VERTEX
  8
0
  6
CONTINUOUS
 10
5.708560
 20
1.695760
  0
VERTEX
  8
0
  6
CONTINUOUS
 10
5.723080
 20
1.686520
  0
VERTEX
  8
0
  6
CONTINUOUS
 10
5.749480
 20
1.661000
  0
VERTEX
  8
0
  6
CONTINUOUS
 10
5.761800
 20
1.646040
  0
VERTEX
  8
0
  6
CONTINUOUS
 10
5.773240
 20
1.631080
  0
VERTEX
  8
0
  6
CONTINUOUS
 10
5.797000
 20
1.604240
  0
VERTEX
  8
0
  6
CONTINUOUS
 10
5.813280
 20
1.592360
  0
VERTEX
  8
0
  6
CONTINUOUS
 10
5.837920
 20
1.580920
  0
VERTEX
  8
0
  6
CONTINUOUS
 10
5.871360
 20
1.569480
  0
VERTEX
  8
0
  6
CONTINUOUS
 10
5.913160
 20
1.559360
  0
VERTEX
  8
0
  6
CONTINUOUS
 10
5.962880
 20
1.551000
  0
VERTEX
  8
0
  6
CONTINUOUS
 10
6.020520
 20
1.544400
  0
VERTEX
  8
0
  6
CONTINUOUS
 10
6.086080
 20
1.540440
  0
VERTEX
  8
0
  6
CONTINUOUS
 10
6.159120
 20
1.539560
  0
VERTEX
  8
0
  6
CONTINUOUS
 10
6.168360
 20
1.471800
  0
VERTEX
  8
0
  6
CONTINUOUS
 10
6.209280
 20
1.471800
  0
VERTEX
  8
0
  6
CONTINUOUS
 10
6.214560
 20
1.498200
  0
VERTEX
  8
0
  6
CONTINUOUS
 10
6.228640
 20
1.519320
  0
VERTEX
  8
0
  6
CONTINUOUS
 10
6.250200
 20
1.533840
  0
VERTEX
  8
0
  6
CONTINUOUS
 10
6.276600
 20
1.539120
  0
VERTEX
  8
0
  6
CONTINUOUS
 10
6.302560
 20
1.533840
  0
VERTEX
  8
0
  6
CONTINUOUS
 10
6.324120
 20
1.519320
  0
VERTEX
  8
0
  6
CONTINUOUS
 10
6.338640
 20
1.498200
  0
VERTEX
  8
0
  6
CONTINUOUS
 10
6.343920
 20
1.471800
  0
VERTEX
  8
0
  6
CONTINUOUS
 10
6.343920
 20
1.417680
  0
VERTEX
  8
0
  6
CONTINUOUS
 10
6.423120
 20
1.417680
  0
VERTEX
  8
0
  6
CONTINUOUS
 10
6.423120
 20
1.343760
  0
VERTEX
  8
0
  6
CONTINUOUS
 10
6.113360
 20
1.343760
  0
VERTEX
  8
0
  6
CONTINUOUS
 10
6.113800
 20
1.085480
  0
VERTEX
  8
0
  6
CONTINUOUS
 10
6.423120
 20
1.085480
  0
VERTEX
  8
0
  6
CONTINUOUS
 10
6.423120
 20
0.899800
  0
VERTEX
  8
0
  6
CONTINUOUS
 10
3.924360
 20
0.899800
  0
VERTEX
  8
0
  6
CONTINUOUS
 10
3.924360
 20
1.766160
  0
VERTEX
  8
0
  6
CONTINUOUS
 10
5.638600
 20
1.766160
  0
VERTEX
  8
0
  6
CONTINUOUS
 10
5.638600
 20
1.754280
  0
SEQEND
  8
0
  0
TEXT
  8
0
 10
4.989600
 20
0.636240
 40
0.138154
  1
BA  756A & B
 41
1.000000
  7
SN0
 71
     0
 72
     5
 11
6.003397
 21
0.636240
  0
TEXT
  8
0
 10
5.046360
 20
0.444400
 40
0.138154
  1
7/8" x 2-1/2"
 41
1.000000
  7
SN0
 71
     0
 72
     5
 11
5.946883
 21
0.444400
  0
POLYLINE
  8
0
  6
CONTINUOUS
 66
     1
 40
0.014080
 41
0.014080
  0
VERTEX
  8
0
  6
CONTINUOUS
 10
5.762680
 20
3.621640
  0
VERTEX
  8
0
  6
CONTINUOUS
 10
5.762680
 20
3.633520
  0
VERTEX
  8
0
  6
CONTINUOUS
 10
4.048440
 20
3.633520
  0
VERTEX
  8
0
  6
CONTINUOUS
 10
4.048440
 20
2.767600
  0
VERTEX
  8
0
  6
CONTINUOUS
 10
6.547640
 20
2.767600
  0
VERTEX
  8
0
  6
CONTINUOUS
 10
6.547640
 20
2.952840
  0
VERTEX
  8
0
  6
CONTINUOUS
 10
6.238320
 20
2.952840
  0
VERTEX
  8
0
  6
CONTINUOUS
 10
6.237880
 20
3.211120
  0
VERTEX
  8
0
  6
CONTINUOUS
 10
6.547640
 20
3.211120
  0
VERTEX
  8
0
  6
CONTINUOUS
 10
6.547640
 20
3.285040
  0
VERTEX
  8
0
  6
CONTINUOUS
 10
6.468000
 20
3.285040
  0
VERTEX
  8
0
  6
CONTINUOUS
 10
6.467560
 20
3.346200
  0
VERTEX
  8
0
  6
CONTINUOUS
 10
6.462720
 20
3.365560
  0
VERTEX
  8
0
  6
CONTINUOUS
 10
6.456560
 20
3.377000
  0
VERTEX
  8
0
  6
CONTINUOUS
 10
6.438520
 20
3.395040
  0
VERTEX
  8
0
  6
CONTINUOUS
 10
6.420920
 20
3.403400
  0
VERTEX
  8
0
  6
CONTINUOUS
 10
6.400680
 20
3.406480
  0
VERTEX
  8
0
  6
CONTINUOUS
 10
6.387040
 20
3.405160
  0
VERTEX
  8
0
  6
CONTINUOUS
 10
6.368560
 20
3.398560
  0
VERTEX
  8
0
  6
CONTINUOUS
 10
6.353160
 20
3.386680
  0
VERTEX
  8
0
  6
CONTINUOUS
 10
6.344800
 20
3.377000
  0
VERTEX
  8
0
  6
CONTINUOUS
 10
6.336440
 20
3.359400
  0
VERTEX
  8
0
  6
CONTINUOUS
 10
6.333360
 20
3.339160
  0
VERTEX
  8
0
  6
CONTINUOUS
 10
6.292880
 20
3.339160
  0
VERTEX
  8
0
  6
CONTINUOUS
 10
6.283640
 20
3.406920
  0
VERTEX
  8
0
  6
CONTINUOUS
 10
6.210600
 20
3.407800
  0
VERTEX
  8
0
  6
CONTINUOUS
 10
6.145040
 20
3.411760
  0
VERTEX
  8
0
  6
CONTINUOUS
 10
6.061000
 20
3.422320
  0
VERTEX
  8
0
  6
CONTINUOUS
 10
6.015680
 20
3.432000
  0
VERTEX
  8
0
  6
CONTINUOUS
 10
5.977840
 20
3.442560
  0
VERTEX
  8
0
  6
CONTINUOUS
 10
5.937360
 20
3.459720
  0
VERTEX
  8
0
  6
CONTINUOUS
 10
5.921080
 20
3.471600
  0
VERTEX
  8
0
  6
CONTINUOUS
 10
5.861240
 20
3.542000
  0
VERTEX
  8
0
  6
CONTINUOUS
 10
5.840560
 20
3.558720
  0
VERTEX
  8
0
  6
CONTINUOUS
 10
5.825160
 20
3.565760
  0
VERTEX
  8
0
  6
CONTINUOUS
 10
5.794800
 20
3.574120
  0
VERTEX
  8
0
  6
CONTINUOUS
 10
5.779840
 20
3.582920
  0
VERTEX
  8
0
  6
CONTINUOUS
 10
5.772800
 20
3.589960
  0
VERTEX
  8
0
  6
CONTINUOUS
 10
5.764880
 20
3.605360
  0
VERTEX
  8
0
  6
CONTINUOUS
 10
5.762680
 20
3.621640
  0
SEQEND
  8
0
  0
ENDSEC
  0
EOF
