  0
SECTION
  2
HEADER
  9
$ACADVER
  1
AC1006
  9
$EXTMIN
 10
1.261040
 20
1.896840
  9
$EXTMAX
 10
7.238880
 20
9.102720
  9
$LTSCALE
 40
0.044000
  9
$PDMODE
 70
    35
  9
$PDSIZE
 40
0.035200
  0
ENDSEC
  0
SECTION
  2
TABLES
  0
TABLE
  2
LTYPE
 70
     9
  0
LTYPE
  2
CONTINUOUS
 70
    64
  3
Solid line
 72
    65
 73
     0
 40
0.000000
  0
LTYPE
  2
DASHED
 70
    64
  3
__ __ __ __ __ __ __ __ __ __ __ __ __ __ __
 72
    65
 73
     2
 40
0.000330
 49
0.000220
 49
-0.000110
  0
LTYPE
  2
HIDDEN
 70
    64
  3
 _ _ _ _ _ _ _ _ _ _ _ _ _ _ _ _ _ _ _ _ _ _
 72
    65
 73
     2
 40
0.000165
 49
0.000110
 49
-0.000055
  0
LTYPE
  2
CENTER
 70
    64
  3
____ _ ____ _ ____ _ ____ _ ____ _ ____ _ ____
 72
    65
 73
     4
 40
0.000880
 49
0.000550
 49
-0.000110
 49
0.000110
 49
-0.000110
  0
LTYPE
  2
PHANTOM
 70
    64
  3
_____ _ _ _____ _ _ _____ _ _ _____ _ _ ____
 72
    65
 73
     6
 40
0.001100
 49
0.000550
 49
-0.000110
 49
0.000110
 49
-0.000110
 49
0.000110
 49
-0.000110
  0
LTYPE
  2
DOT
 70
    64
  3
...............................................
 72
    65
 73
     2
 40
0.000110
 49
0.000000
 49
-0.000110
  0
LTYPE
  2
DASHDOT
 70
    64
  3
__ . __ . __ . __ . __ . __ . __ . __ . __ . __
 72
    65
 73
     4
 40
0.000440
 49
0.000220
 49
-0.000110
 49
0.000000
 49
-0.000110
  0
LTYPE
  2
BORDER
 70
    64
  3
__ __ . __ __ . __ __ . __ __ . __ __ . __ __
 72
    65
 73
     6
 40
0.000770
 49
0.000220
 49
-0.000110
 49
0.000220
 49
-0.000110
 49
0.000000
 49
-0.000110
  0
LTYPE
  2
DIVIDE
 70
    64
  3
__ . . __ . . __ . . __ . . __ . . __ . . __
 72
    65
 73
     6
 40
0.000550
 49
0.000220
 49
-0.000110
 49
0.000000
 49
-0.000110
 49
0.000000
 49
-0.000110
  0
LTYPE
  2
DOTDOT
 70
    64
  3
 . .  . .  . .  . .  . .  . . 
 72
    65
 73
     5
 40
0.000242
 49
-0.000110
 49
0.000000
 49
-0.000110
 49
0.000000
 49
-0.000110
  0
ENDTAB
  0
TABLE
  2
STYLE
 70
     2
  0
STYLE
 70
     0
  2
SN0
 40
0.000000
 41
0.000440
 50
0.000000
 71
     0
 42
0.000000
  3
ROMAND
  0
STYLE
 70
    68
  2
SV0
 40
0.000000
 41
0.000440
 50
0.000000
 71
     0
 42
0.000000
  3
ROMAND
  0
ENDTAB
  0
TABLE
  2
LAYER
 70
     3
  0
LAYER
  2
FOREGROUND
 70
    64
 62
     7
  6
CONTINUOUS
  0
LAYER
  2
BACKGROUND
 70
    65
 62
    -7
  6
CONTINUOUS
  0
LAYER
  2
0
 70
    64
 62
     7
  6
CONTINUOUS
  0
ENDTAB
  0
ENDSEC
  0
SECTION
  2
ENTITIES
  0
POLYLINE
  8
FOREGROUND
  6
CONTINUOUS
 66
     1
 40
0.000000
 41
0.000000
  0
VERTEX
  8
FOREGROUND
  6
CONTINUOUS
 10
0.000000
 20
10.999560
  0
VERTEX
  8
FOREGROUND
  6
CONTINUOUS
 10
8.499920
 20
10.999560
  0
VERTEX
  8
FOREGROUND
  6
CONTINUOUS
 10
8.499920
 20
-0.000440
  0
VERTEX
  8
FOREGROUND
  6
CONTINUOUS
 10
0.000000
 20
-0.000440
  0
VERTEX
  8
FOREGROUND
  6
CONTINUOUS
 10
0.000000
 20
10.999560
  0
SEQEND
  8
0
  0
POLYLINE
  8
FOREGROUND
  6
CONTINUOUS
 66
     1
 40
0.000000
 41
0.000000
  0
VERTEX
  8
FOREGROUND
  6
CONTINUOUS
 10
0.000000
 20
10.999560
  0
VERTEX
  8
FOREGROUND
  6
CONTINUOUS
 10
8.499920
 20
10.999560
  0
VERTEX
  8
FOREGROUND
  6
CONTINUOUS
 10
8.499920
 20
-0.000440
  0
VERTEX
  8
FOREGROUND
  6
CONTINUOUS
 10
0.000000
 20
-0.000440
  0
VERTEX
  8
FOREGROUND
  6
CONTINUOUS
 10
0.000000
 20
10.999560
  0
SEQEND
  8
0
  0
TEXT
  8
0
 10
1.261040
 20
2.131800
 40
0.138058
  1
BA  754 1/2" x 2-1/16"
 41
1.000000
  7
SN0
 71
     0
 72
     5
 11
2.888488
 21
2.131800
  0
TEXT
  8
0
 10
1.261040
 20
1.939960
 40
0.138058
  1
BA  755A & B 2-1/16" x 3-13/16"
 41
1.000000
  7
SN0
 71
     0
 72
     5
 11
3.643664
 21
1.939960
  0
SOLID
  8
0
 62
    15
 10
2.656720
 20
3.857040
 11
3.288120
 21
3.487880
 12
2.654960
 22
3.855720
 13
3.286360
 23
3.486560
  0
POLYLINE
  8
0
  6
CONTINUOUS
 66
     1
 40
0.000000
 41
0.000000
  0
VERTEX
  8
0
  6
CONTINUOUS
 10
2.656720
 20
3.857040
  0
VERTEX
  8
0
  6
CONTINUOUS
 10
3.288120
 20
3.487880
  0
VERTEX
  8
0
  6
CONTINUOUS
 10
3.286360
 20
3.486560
  0
VERTEX
  8
0
  6
CONTINUOUS
 10
2.654960
 20
3.855720
  0
VERTEX
  8
0
  6
CONTINUOUS
 10
2.656720
 20
3.857040
  0
SEQEND
  8
0
  0
SOLID
  8
0
 62
    15
 10
5.265040
 20
3.859240
 11
5.896440
 21
3.490080
 12
5.265040
 22
3.856160
 13
5.896440
 23
3.487000
  0
POLYLINE
  8
0
  6
CONTINUOUS
 66
     1
 40
0.000000
 41
0.000000
  0
VERTEX
  8
0
  6
CONTINUOUS
 10
5.265040
 20
3.859240
  0
VERTEX
  8
0
  6
CONTINUOUS
 10
5.896440
 20
3.490080
  0
VERTEX
  8
0
  6
CONTINUOUS
 10
5.896440
 20
3.487000
  0
VERTEX
  8
0
  6
CONTINUOUS
 10
5.265040
 20
3.856160
  0
VERTEX
  8
0
  6
CONTINUOUS
 10
5.265040
 20
3.859240
  0
SEQEND
  8
0
  0
SOLID
  8
0
 62
    15
 10
5.265040
 20
3.856160
 11
5.896440
 21
3.487000
 12
4.826360
 22
3.856160
 13
5.457760
 23
3.487000
  0
POLYLINE
  8
0
  6
CONTINUOUS
 66
     1
 40
0.000000
 41
0.000000
  0
VERTEX
  8
0
  6
CONTINUOUS
 10
5.265040
 20
3.856160
  0
VERTEX
  8
0
  6
CONTINUOUS
 10
5.896440
 20
3.487000
  0
VERTEX
  8
0
  6
CONTINUOUS
 10
5.457760
 20
3.487000
  0
VERTEX
  8
0
  6
CONTINUOUS
 10
4.826360
 20
3.856160
  0
VERTEX
  8
0
  6
CONTINUOUS
 10
5.265040
 20
3.856160
  0
SEQEND
  8
0
  0
SOLID
  8
0
 62
    15
 10
4.511760
 20
4.341920
 11
5.143600
 21
3.972760
 12
4.393840
 22
4.391200
 13
5.025240
 23
4.022040
  0
POLYLINE
  8
0
  6
CONTINUOUS
 66
     1
 40
0.000000
 41
0.000000
  0
VERTEX
  8
0
  6
CONTINUOUS
 10
4.511760
 20
4.341920
  0
VERTEX
  8
0
  6
CONTINUOUS
 10
5.143600
 20
3.972760
  0
VERTEX
  8
0
  6
CONTINUOUS
 10
5.025240
 20
4.022040
  0
VERTEX
  8
0
  6
CONTINUOUS
 10
4.393840
 20
4.391200
  0
VERTEX
  8
0
  6
CONTINUOUS
 10
4.511760
 20
4.341920
  0
SEQEND
  8
0
  0
SOLID
  8
0
 62
    15
 10
4.393840
 20
4.391200
 11
5.025240
 21
4.022040
 12
4.260520
 22
4.424200
 13
4.891920
 23
4.055040
  0
POLYLINE
  8
0
  6
CONTINUOUS
 66
     1
 40
0.000000
 41
0.000000
  0
VERTEX
  8
0
  6
CONTINUOUS
 10
4.393840
 20
4.391200
  0
VERTEX
  8
0
  6
CONTINUOUS
 10
5.025240
 20
4.022040
  0
VERTEX
  8
0
  6
CONTINUOUS
 10
4.891920
 20
4.055040
  0
VERTEX
  8
0
  6
CONTINUOUS
 10
4.260520
 20
4.424200
  0
VERTEX
  8
0
  6
CONTINUOUS
 10
4.393840
 20
4.391200
  0
SEQEND
  8
0
  0
SOLID
  8
0
 62
    15
 10
4.260520
 20
4.424200
 11
4.891920
 21
4.055040
 12
4.114440
 22
4.439600
 13
4.745840
 23
4.070440
  0
POLYLINE
  8
0
  6
CONTINUOUS
 66
     1
 40
0.000000
 41
0.000000
  0
VERTEX
  8
0
  6
CONTINUOUS
 10
4.260520
 20
4.424200
  0
VERTEX
  8
0
  6
CONTINUOUS
 10
4.891920
 20
4.055040
  0
VERTEX
  8
0
  6
CONTINUOUS
 10
4.745840
 20
4.070440
  0
VERTEX
  8
0
  6
CONTINUOUS
 10
4.114440
 20
4.439600
  0
VERTEX
  8
0
  6
CONTINUOUS
 10
4.260520
 20
4.424200
  0
SEQEND
  8
0
  0
SOLID
  8
0
 62
    15
 10
3.458400
 20
4.788520
 11
4.090240
 21
4.419360
 12
3.458840
 22
4.788080
 13
4.090240
 23
4.418920
  0
POLYLINE
  8
0
  6
CONTINUOUS
 66
     1
 40
0.000000
 41
0.000000
  0
VERTEX
  8
0
  6
CONTINUOUS
 10
3.458400
 20
4.788520
  0
VERTEX
  8
0
  6
CONTINUOUS
 10
4.090240
 20
4.419360
  0
VERTEX
  8
0
  6
CONTINUOUS
 10
4.090240
 20
4.418920
  0
VERTEX
  8
0
  6
CONTINUOUS
 10
3.458840
 20
4.788080
  0
VERTEX
  8
0
  6
CONTINUOUS
 10
3.458400
 20
4.788520
  0
SEQEND
  8
0
  0
SOLID
  8
0
 62
    15
 10
3.956480
 20
4.436960
 11
4.587880
 21
4.067800
 12
3.788400
 22
4.415400
 13
4.419800
 23
4.046240
  0
POLYLINE
  8
0
  6
CONTINUOUS
 66
     1
 40
0.000000
 41
0.000000
  0
VERTEX
  8
0
  6
CONTINUOUS
 10
3.956480
 20
4.436960
  0
VERTEX
  8
0
  6
CONTINUOUS
 10
4.587880
 20
4.067800
  0
VERTEX
  8
0
  6
CONTINUOUS
 10
4.419800
 20
4.046240
  0
VERTEX
  8
0
  6
CONTINUOUS
 10
3.788400
 20
4.415400
  0
VERTEX
  8
0
  6
CONTINUOUS
 10
3.956480
 20
4.436960
  0
SEQEND
  8
0
  0
SOLID
  8
0
 62
    15
 10
3.788400
 20
4.415400
 11
4.419800
 21
4.046240
 12
3.611520
 22
4.374480
 13
4.243360
 23
4.005320
  0
POLYLINE
  8
0
  6
CONTINUOUS
 66
     1
 40
0.000000
 41
0.000000
  0
VERTEX
  8
0
  6
CONTINUOUS
 10
3.788400
 20
4.415400
  0
VERTEX
  8
0
  6
CONTINUOUS
 10
4.419800
 20
4.046240
  0
VERTEX
  8
0
  6
CONTINUOUS
 10
4.243360
 20
4.005320
  0
VERTEX
  8
0
  6
CONTINUOUS
 10
3.611520
 20
4.374480
  0
VERTEX
  8
0
  6
CONTINUOUS
 10
3.788400
 20
4.415400
  0
SEQEND
  8
0
  0
SOLID
  8
0
 62
    15
 10
3.611520
 20
4.374480
 11
4.243360
 21
4.005320
 12
3.428480
 22
4.313760
 13
4.059880
 23
3.944600
  0
POLYLINE
  8
0
  6
CONTINUOUS
 66
     1
 40
0.000000
 41
0.000000
  0
VERTEX
  8
0
  6
CONTINUOUS
 10
3.611520
 20
4.374480
  0
VERTEX
  8
0
  6
CONTINUOUS
 10
4.243360
 20
4.005320
  0
VERTEX
  8
0
  6
CONTINUOUS
 10
4.059880
 20
3.944600
  0
VERTEX
  8
0
  6
CONTINUOUS
 10
3.428480
 20
4.313760
  0
VERTEX
  8
0
  6
CONTINUOUS
 10
3.611520
 20
4.374480
  0
SEQEND
  8
0
  0
SOLID
  8
0
 62
    15
 10
3.428480
 20
4.313760
 11
4.059880
 21
3.944600
 12
3.239280
 22
4.232360
 13
3.871120
 23
3.863200
  0
POLYLINE
  8
0
  6
CONTINUOUS
 66
     1
 40
0.000000
 41
0.000000
  0
VERTEX
  8
0
  6
CONTINUOUS
 10
3.428480
 20
4.313760
  0
VERTEX
  8
0
  6
CONTINUOUS
 10
4.059880
 20
3.944600
  0
VERTEX
  8
0
  6
CONTINUOUS
 10
3.871120
 20
3.863200
  0
VERTEX
  8
0
  6
CONTINUOUS
 10
3.239280
 20
4.232360
  0
VERTEX
  8
0
  6
CONTINUOUS
 10
3.428480
 20
4.313760
  0
SEQEND
  8
0
  0
SOLID
  8
0
 62
    15
 10
3.239280
 20
4.232360
 11
3.871120
 21
3.863200
 12
3.047000
 22
4.129400
 13
3.678400
 23
3.760240
  0
POLYLINE
  8
0
  6
CONTINUOUS
 66
     1
 40
0.000000
 41
0.000000
  0
VERTEX
  8
0
  6
CONTINUOUS
 10
3.239280
 20
4.232360
  0
VERTEX
  8
0
  6
CONTINUOUS
 10
3.871120
 20
3.863200
  0
VERTEX
  8
0
  6
CONTINUOUS
 10
3.678400
 20
3.760240
  0
VERTEX
  8
0
  6
CONTINUOUS
 10
3.047000
 20
4.129400
  0
VERTEX
  8
0
  6
CONTINUOUS
 10
3.239280
 20
4.232360
  0
SEQEND
  8
0
  0
SOLID
  8
0
 62
    15
 10
3.047000
 20
4.129400
 11
3.678400
 21
3.760240
 12
2.852080
 22
4.004440
 13
3.483480
 23
3.635280
  0
POLYLINE
  8
0
  6
CONTINUOUS
 66
     1
 40
0.000000
 41
0.000000
  0
VERTEX
  8
0
  6
CONTINUOUS
 10
3.047000
 20
4.129400
  0
VERTEX
  8
0
  6
CONTINUOUS
 10
3.678400
 20
3.760240
  0
VERTEX
  8
0
  6
CONTINUOUS
 10
3.483480
 20
3.635280
  0
VERTEX
  8
0
  6
CONTINUOUS
 10
2.852080
 20
4.004440
  0
VERTEX
  8
0
  6
CONTINUOUS
 10
3.047000
 20
4.129400
  0
SEQEND
  8
0
  0
SOLID
  8
0
 62
    15
 10
2.852080
 20
4.004440
 11
3.483480
 21
3.635280
 12
2.656720
 22
3.857040
 13
3.288120
 23
3.487880
  0
POLYLINE
  8
0
  6
CONTINUOUS
 66
     1
 40
0.000000
 41
0.000000
  0
VERTEX
  8
0
  6
CONTINUOUS
 10
2.852080
 20
4.004440
  0
VERTEX
  8
0
  6
CONTINUOUS
 10
3.483480
 20
3.635280
  0
VERTEX
  8
0
  6
CONTINUOUS
 10
3.288120
 20
3.487880
  0
VERTEX
  8
0
  6
CONTINUOUS
 10
2.656720
 20
3.857040
  0
VERTEX
  8
0
  6
CONTINUOUS
 10
2.852080
 20
4.004440
  0
SEQEND
  8
0
  0
SOLID
  8
0
 62
    15
 10
5.265040
 20
4.788080
 11
5.896440
 21
4.418920
 12
5.265040
 22
3.859240
 13
5.896440
 23
3.490080
  0
POLYLINE
  8
0
  6
CONTINUOUS
 66
     1
 40
0.000000
 41
0.000000
  0
VERTEX
  8
0
  6
CONTINUOUS
 10
5.265040
 20
4.788080
  0
VERTEX
  8
0
  6
CONTINUOUS
 10
5.896440
 20
4.418920
  0
VERTEX
  8
0
  6
CONTINUOUS
 10
5.896440
 20
3.490080
  0
VERTEX
  8
0
  6
CONTINUOUS
 10
5.265040
 20
3.859240
  0
VERTEX
  8
0
  6
CONTINUOUS
 10
5.265040
 20
4.788080
  0
SEQEND
  8
0
  0
SOLID
  8
0
 62
    15
 10
2.654960
 20
3.855720
 11
3.286360
 21
3.486560
 12
2.638680
 22
3.842520
 13
3.270080
 23
3.473360
  0
POLYLINE
  8
0
  6
CONTINUOUS
 66
     1
 40
0.000000
 41
0.000000
  0
VERTEX
  8
0
  6
CONTINUOUS
 10
2.654960
 20
3.855720
  0
VERTEX
  8
0
  6
CONTINUOUS
 10
3.286360
 20
3.486560
  0
VERTEX
  8
0
  6
CONTINUOUS
 10
3.270080
 20
3.473360
  0
VERTEX
  8
0
  6
CONTINUOUS
 10
2.638680
 20
3.842520
  0
VERTEX
  8
0
  6
CONTINUOUS
 10
2.654960
 20
3.855720
  0
SEQEND
  8
0
  0
SOLID
  8
0
 62
    15
 10
2.638680
 20
3.842520
 11
3.270080
 21
3.473360
 12
2.515920
 22
3.730320
 13
3.147320
 23
3.360720
  0
POLYLINE
  8
0
  6
CONTINUOUS
 66
     1
 40
0.000000
 41
0.000000
  0
VERTEX
  8
0
  6
CONTINUOUS
 10
2.638680
 20
3.842520
  0
VERTEX
  8
0
  6
CONTINUOUS
 10
3.270080
 20
3.473360
  0
VERTEX
  8
0
  6
CONTINUOUS
 10
3.147320
 20
3.360720
  0
VERTEX
  8
0
  6
CONTINUOUS
 10
2.515920
 20
3.730320
  0
VERTEX
  8
0
  6
CONTINUOUS
 10
2.638680
 20
3.842520
  0
SEQEND
  8
0
  0
SOLID
  8
0
 62
    15
 10
2.515920
 20
3.730320
 11
3.147320
 21
3.360720
 12
2.405480
 22
3.613720
 13
3.036880
 23
3.244560
  0
POLYLINE
  8
0
  6
CONTINUOUS
 66
     1
 40
0.000000
 41
0.000000
  0
VERTEX
  8
0
  6
CONTINUOUS
 10
2.515920
 20
3.730320
  0
VERTEX
  8
0
  6
CONTINUOUS
 10
3.147320
 20
3.360720
  0
VERTEX
  8
0
  6
CONTINUOUS
 10
3.036880
 20
3.244560
  0
VERTEX
  8
0
  6
CONTINUOUS
 10
2.405480
 20
3.613720
  0
VERTEX
  8
0
  6
CONTINUOUS
 10
2.515920
 20
3.730320
  0
SEQEND
  8
0
  0
SOLID
  8
0
 62
    15
 10
2.405480
 20
3.613720
 11
3.036880
 21
3.244560
 12
2.308680
 22
3.491840
 13
2.940080
 23
3.122680
  0
POLYLINE
  8
0
  6
CONTINUOUS
 66
     1
 40
0.000000
 41
0.000000
  0
VERTEX
  8
0
  6
CONTINUOUS
 10
2.405480
 20
3.613720
  0
VERTEX
  8
0
  6
CONTINUOUS
 10
3.036880
 20
3.244560
  0
VERTEX
  8
0
  6
CONTINUOUS
 10
2.940080
 20
3.122680
  0
VERTEX
  8
0
  6
CONTINUOUS
 10
2.308680
 20
3.491840
  0
VERTEX
  8
0
  6
CONTINUOUS
 10
2.405480
 20
3.613720
  0
SEQEND
  8
0
  0
SOLID
  8
0
 62
    15
 10
2.308680
 20
3.491840
 11
2.940080
 21
3.122680
 12
2.225960
 22
3.363360
 13
2.857360
 23
2.993760
  0
POLYLINE
  8
0
  6
CONTINUOUS
 66
     1
 40
0.000000
 41
0.000000
  0
VERTEX
  8
0
  6
CONTINUOUS
 10
2.308680
 20
3.491840
  0
VERTEX
  8
0
  6
CONTINUOUS
 10
2.940080
 20
3.122680
  0
VERTEX
  8
0
  6
CONTINUOUS
 10
2.857360
 20
2.993760
  0
VERTEX
  8
0
  6
CONTINUOUS
 10
2.225960
 20
3.363360
  0
VERTEX
  8
0
  6
CONTINUOUS
 10
2.308680
 20
3.491840
  0
SEQEND
  8
0
  0
SOLID
  8
0
 62
    15
 10
2.225960
 20
3.363360
 11
2.857360
 21
2.993760
 12
2.158200
 22
3.226080
 13
2.790040
 23
2.856920
  0
POLYLINE
  8
0
  6
CONTINUOUS
 66
     1
 40
0.000000
 41
0.000000
  0
VERTEX
  8
0
  6
CONTINUOUS
 10
2.225960
 20
3.363360
  0
VERTEX
  8
0
  6
CONTINUOUS
 10
2.857360
 20
2.993760
  0
VERTEX
  8
0
  6
CONTINUOUS
 10
2.790040
 20
2.856920
  0
VERTEX
  8
0
  6
CONTINUOUS
 10
2.158200
 20
3.226080
  0
VERTEX
  8
0
  6
CONTINUOUS
 10
2.225960
 20
3.363360
  0
SEQEND
  8
0
  0
SOLID
  8
0
 62
    15
 10
2.158200
 20
3.226080
 11
2.790040
 21
2.856920
 12
2.106720
 22
3.079560
 13
2.738120
 23
2.709960
  0
POLYLINE
  8
0
  6
CONTINUOUS
 66
     1
 40
0.000000
 41
0.000000
  0
VERTEX
  8
0
  6
CONTINUOUS
 10
2.158200
 20
3.226080
  0
VERTEX
  8
0
  6
CONTINUOUS
 10
2.790040
 20
2.856920
  0
VERTEX
  8
0
  6
CONTINUOUS
 10
2.738120
 20
2.709960
  0
VERTEX
  8
0
  6
CONTINUOUS
 10
2.106720
 20
3.079560
  0
VERTEX
  8
0
  6
CONTINUOUS
 10
2.158200
 20
3.226080
  0
SEQEND
  8
0
  0
SOLID
  8
0
 62
    15
 10
2.106720
 20
3.079560
 11
2.738120
 21
2.709960
 12
2.071520
 22
2.921600
 13
2.702920
 23
2.552000
  0
POLYLINE
  8
0
  6
CONTINUOUS
 66
     1
 40
0.000000
 41
0.000000
  0
VERTEX
  8
0
  6
CONTINUOUS
 10
2.106720
 20
3.079560
  0
VERTEX
  8
0
  6
CONTINUOUS
 10
2.738120
 20
2.709960
  0
VERTEX
  8
0
  6
CONTINUOUS
 10
2.702920
 20
2.552000
  0
VERTEX
  8
0
  6
CONTINUOUS
 10
2.071520
 20
2.921600
  0
VERTEX
  8
0
  6
CONTINUOUS
 10
2.106720
 20
3.079560
  0
SEQEND
  8
0
  0
SOLID
  8
0
 62
    15
 10
2.071520
 20
2.921600
 11
2.702920
 21
2.552000
 12
2.053920
 22
2.750880
 13
2.685320
 23
2.381720
  0
POLYLINE
  8
0
  6
CONTINUOUS
 66
     1
 40
0.000000
 41
0.000000
  0
VERTEX
  8
0
  6
CONTINUOUS
 10
2.071520
 20
2.921600
  0
VERTEX
  8
0
  6
CONTINUOUS
 10
2.702920
 20
2.552000
  0
VERTEX
  8
0
  6
CONTINUOUS
 10
2.685320
 20
2.381720
  0
VERTEX
  8
0
  6
CONTINUOUS
 10
2.053920
 20
2.750880
  0
VERTEX
  8
0
  6
CONTINUOUS
 10
2.071520
 20
2.921600
  0
SEQEND
  8
0
  0
SOLID
  8
0
 62
    15
 10
2.053920
 20
2.750880
 11
2.685320
 21
2.381720
 12
2.048640
 22
2.750440
 13
2.680480
 23
2.381280
  0
POLYLINE
  8
0
  6
CONTINUOUS
 66
     1
 40
0.000000
 41
0.000000
  0
VERTEX
  8
0
  6
CONTINUOUS
 10
2.053920
 20
2.750880
  0
VERTEX
  8
0
  6
CONTINUOUS
 10
2.685320
 20
2.381720
  0
VERTEX
  8
0
  6
CONTINUOUS
 10
2.680480
 20
2.381280
  0
VERTEX
  8
0
  6
CONTINUOUS
 10
2.048640
 20
2.750440
  0
VERTEX
  8
0
  6
CONTINUOUS
 10
2.053920
 20
2.750880
  0
SEQEND
  8
0
  0
SOLID
  8
0
 62
    15
 10
2.048640
 20
2.750440
 11
2.680480
 21
2.381280
 12
1.415040
 22
2.750880
 13
2.046440
 23
2.381720
  0
POLYLINE
  8
0
  6
CONTINUOUS
 66
     1
 40
0.000000
 41
0.000000
  0
VERTEX
  8
0
  6
CONTINUOUS
 10
2.048640
 20
2.750440
  0
VERTEX
  8
0
  6
CONTINUOUS
 10
2.680480
 20
2.381280
  0
VERTEX
  8
0
  6
CONTINUOUS
 10
2.046440
 20
2.381720
  0
VERTEX
  8
0
  6
CONTINUOUS
 10
1.415040
 20
2.750880
  0
VERTEX
  8
0
  6
CONTINUOUS
 10
2.048640
 20
2.750440
  0
SEQEND
  8
0
  0
SOLID
  8
0
 62
    15
 10
1.416800
 20
3.926560
 11
2.048640
 21
3.557400
 12
1.417240
 22
3.921280
 13
2.048640
 23
3.552120
  0
POLYLINE
  8
0
  6
CONTINUOUS
 66
     1
 40
0.000000
 41
0.000000
  0
VERTEX
  8
0
  6
CONTINUOUS
 10
1.416800
 20
3.926560
  0
VERTEX
  8
0
  6
CONTINUOUS
 10
2.048640
 20
3.557400
  0
VERTEX
  8
0
  6
CONTINUOUS
 10
2.048640
 20
3.552120
  0
VERTEX
  8
0
  6
CONTINUOUS
 10
1.417240
 20
3.921280
  0
VERTEX
  8
0
  6
CONTINUOUS
 10
1.416800
 20
3.926560
  0
SEQEND
  8
0
  0
SOLID
  8
0
 62
    15
 10
4.114440
 20
4.439600
 11
4.745840
 21
4.070440
 12
3.956480
 22
4.436960
 13
4.587880
 23
4.067800
  0
POLYLINE
  8
0
  6
CONTINUOUS
 66
     1
 40
0.000000
 41
0.000000
  0
VERTEX
  8
0
  6
CONTINUOUS
 10
4.114440
 20
4.439600
  0
VERTEX
  8
0
  6
CONTINUOUS
 10
4.745840
 20
4.070440
  0
VERTEX
  8
0
  6
CONTINUOUS
 10
4.587880
 20
4.067800
  0
VERTEX
  8
0
  6
CONTINUOUS
 10
3.956480
 20
4.436960
  0
VERTEX
  8
0
  6
CONTINUOUS
 10
4.114440
 20
4.439600
  0
SEQEND
  8
0
  0
POLYLINE
  8
0
  6
CONTINUOUS
 66
     1
 40
0.000000
 41
0.000000
  0
VERTEX
  8
0
  6
CONTINUOUS
 10
3.458840
 20
4.788080
  0
VERTEX
  8
0
  6
CONTINUOUS
 10
5.265040
 20
4.788080
  0
VERTEX
  8
0
  6
CONTINUOUS
 10
5.265040
 20
3.859240
  0
VERTEX
  8
0
  6
CONTINUOUS
 10
5.265040
 20
3.856160
  0
VERTEX
  8
0
  6
CONTINUOUS
 10
4.826360
 20
3.856160
  0
VERTEX
  8
0
  6
CONTINUOUS
 10
4.826360
 20
3.864080
  0
VERTEX
  8
0
  6
CONTINUOUS
 10
4.826800
 20
3.864520
  0
VERTEX
  8
0
  6
CONTINUOUS
 10
4.806120
 20
3.988160
  0
VERTEX
  8
0
  6
CONTINUOUS
 10
4.762560
 20
4.098600
  0
VERTEX
  8
0
  6
CONTINUOUS
 10
4.697880
 20
4.194960
  0
VERTEX
  8
0
  6
CONTINUOUS
 10
4.613840
 20
4.275920
  0
VERTEX
  8
0
  6
CONTINUOUS
 10
4.511760
 20
4.341920
  0
VERTEX
  8
0
  6
CONTINUOUS
 10
4.393840
 20
4.391200
  0
VERTEX
  8
0
  6
CONTINUOUS
 10
4.260520
 20
4.424200
  0
VERTEX
  8
0
  6
CONTINUOUS
 10
4.114440
 20
4.439600
  0
VERTEX
  8
0
  6
CONTINUOUS
 10
3.956480
 20
4.436960
  0
VERTEX
  8
0
  6
CONTINUOUS
 10
3.788400
 20
4.415400
  0
VERTEX
  8
0
  6
CONTINUOUS
 10
3.611520
 20
4.374480
  0
VERTEX
  8
0
  6
CONTINUOUS
 10
3.428480
 20
4.313760
  0
VERTEX
  8
0
  6
CONTINUOUS
 10
3.239280
 20
4.232360
  0
VERTEX
  8
0
  6
CONTINUOUS
 10
3.047000
 20
4.129400
  0
VERTEX
  8
0
  6
CONTINUOUS
 10
2.852080
 20
4.004440
  0
VERTEX
  8
0
  6
CONTINUOUS
 10
2.656720
 20
3.857040
  0
VERTEX
  8
0
  6
CONTINUOUS
 10
2.654960
 20
3.855720
  0
VERTEX
  8
0
  6
CONTINUOUS
 10
2.638680
 20
3.842520
  0
VERTEX
  8
0
  6
CONTINUOUS
 10
2.515920
 20
3.730320
  0
VERTEX
  8
0
  6
CONTINUOUS
 10
2.405480
 20
3.613720
  0
VERTEX
  8
0
  6
CONTINUOUS
 10
2.308680
 20
3.491840
  0
VERTEX
  8
0
  6
CONTINUOUS
 10
2.225960
 20
3.363360
  0
VERTEX
  8
0
  6
CONTINUOUS
 10
2.158200
 20
3.226080
  0
VERTEX
  8
0
  6
CONTINUOUS
 10
2.106720
 20
3.079560
  0
VERTEX
  8
0
  6
CONTINUOUS
 10
2.071520
 20
2.921600
  0
VERTEX
  8
0
  6
CONTINUOUS
 10
2.053920
 20
2.750880
  0
VERTEX
  8
0
  6
CONTINUOUS
 10
2.048640
 20
2.750440
  0
VERTEX
  8
0
  6
CONTINUOUS
 10
1.415040
 20
2.750880
  0
VERTEX
  8
0
  6
CONTINUOUS
 10
1.416360
 20
3.699520
  0
VERTEX
  8
0
  6
CONTINUOUS
 10
1.416800
 20
3.785760
  0
VERTEX
  8
0
  6
CONTINUOUS
 10
1.416800
 20
3.854840
  0
VERTEX
  8
0
  6
CONTINUOUS
 10
1.416800
 20
3.926560
  0
VERTEX
  8
0
  6
CONTINUOUS
 10
1.417240
 20
3.921280
  0
VERTEX
  8
0
  6
CONTINUOUS
 10
3.458400
 20
4.788520
  0
VERTEX
  8
0
  6
CONTINUOUS
 10
3.458840
 20
4.788080
  0
SEQEND
  8
0
  0
SOLID
  8
0
 62
    15
 10
5.993680
 20
4.645520
 11
6.638280
 21
4.267120
 12
5.948800
 22
4.577760
 13
6.593400
 23
4.199360
  0
POLYLINE
  8
0
  6
CONTINUOUS
 66
     1
 40
0.000000
 41
0.000000
  0
VERTEX
  8
0
  6
CONTINUOUS
 10
5.993680
 20
4.645520
  0
VERTEX
  8
0
  6
CONTINUOUS
 10
6.638280
 20
4.267120
  0
VERTEX
  8
0
  6
CONTINUOUS
 10
6.593400
 20
4.199360
  0
VERTEX
  8
0
  6
CONTINUOUS
 10
5.948800
 20
4.577760
  0
VERTEX
  8
0
  6
CONTINUOUS
 10
5.993680
 20
4.645520
  0
SEQEND
  8
0
  0
SOLID
  8
0
 62
    15
 10
6.593840
 20
5.479760
 11
7.238440
 21
5.101800
 12
6.522560
 22
5.478440
 13
7.167160
 23
5.100040
  0
POLYLINE
  8
0
  6
CONTINUOUS
 66
     1
 40
0.000000
 41
0.000000
  0
VERTEX
  8
0
  6
CONTINUOUS
 10
6.593840
 20
5.479760
  0
VERTEX
  8
0
  6
CONTINUOUS
 10
7.238440
 20
5.101800
  0
VERTEX
  8
0
  6
CONTINUOUS
 10
7.167160
 20
5.100040
  0
VERTEX
  8
0
  6
CONTINUOUS
 10
6.522560
 20
5.478440
  0
VERTEX
  8
0
  6
CONTINUOUS
 10
6.593840
 20
5.479760
  0
SEQEND
  8
0
  0
SOLID
  8
0
 62
    15
 10
6.522560
 20
5.478440
 11
7.167160
 21
5.100040
 12
6.458320
 22
5.472280
 13
7.102920
 23
5.093880
  0
POLYLINE
  8
0
  6
CONTINUOUS
 66
     1
 40
0.000000
 41
0.000000
  0
VERTEX
  8
0
  6
CONTINUOUS
 10
6.522560
 20
5.478440
  0
VERTEX
  8
0
  6
CONTINUOUS
 10
7.167160
 20
5.100040
  0
VERTEX
  8
0
  6
CONTINUOUS
 10
7.102920
 20
5.093880
  0
VERTEX
  8
0
  6
CONTINUOUS
 10
6.458320
 20
5.472280
  0
VERTEX
  8
0
  6
CONTINUOUS
 10
6.522560
 20
5.478440
  0
SEQEND
  8
0
  0
SOLID
  8
0
 62
    15
 10
6.458320
 20
5.472280
 11
7.102920
 21
5.093880
 12
6.400680
 22
5.461280
 13
7.045280
 23
5.083320
  0
POLYLINE
  8
0
  6
CONTINUOUS
 66
     1
 40
0.000000
 41
0.000000
  0
VERTEX
  8
0
  6
CONTINUOUS
 10
6.458320
 20
5.472280
  0
VERTEX
  8
0
  6
CONTINUOUS
 10
7.102920
 20
5.093880
  0
VERTEX
  8
0
  6
CONTINUOUS
 10
7.045280
 20
5.083320
  0
VERTEX
  8
0
  6
CONTINUOUS
 10
6.400680
 20
5.461280
  0
VERTEX
  8
0
  6
CONTINUOUS
 10
6.458320
 20
5.472280
  0
SEQEND
  8
0
  0
SOLID
  8
0
 62
    15
 10
6.400680
 20
5.461280
 11
7.045280
 21
5.083320
 12
6.348760
 22
5.445880
 13
6.993800
 23
5.067920
  0
POLYLINE
  8
0
  6
CONTINUOUS
 66
     1
 40
0.000000
 41
0.000000
  0
VERTEX
  8
0
  6
CONTINUOUS
 10
6.400680
 20
5.461280
  0
VERTEX
  8
0
  6
CONTINUOUS
 10
7.045280
 20
5.083320
  0
VERTEX
  8
0
  6
CONTINUOUS
 10
6.993800
 20
5.067920
  0
VERTEX
  8
0
  6
CONTINUOUS
 10
6.348760
 20
5.445880
  0
VERTEX
  8
0
  6
CONTINUOUS
 10
6.400680
 20
5.461280
  0
SEQEND
  8
0
  0
SOLID
  8
0
 62
    15
 10
6.348760
 20
5.445880
 11
6.993800
 21
5.067920
 12
6.303000
 22
5.426080
 13
6.947600
 23
5.047680
  0
POLYLINE
  8
0
  6
CONTINUOUS
 66
     1
 40
0.000000
 41
0.000000
  0
VERTEX
  8
0
  6
CONTINUOUS
 10
6.348760
 20
5.445880
  0
VERTEX
  8
0
  6
CONTINUOUS
 10
6.993800
 20
5.067920
  0
VERTEX
  8
0
  6
CONTINUOUS
 10
6.947600
 20
5.047680
  0
VERTEX
  8
0
  6
CONTINUOUS
 10
6.303000
 20
5.426080
  0
VERTEX
  8
0
  6
CONTINUOUS
 10
6.348760
 20
5.445880
  0
SEQEND
  8
0
  0
SOLID
  8
0
 62
    15
 10
6.303000
 20
5.426080
 11
6.947600
 21
5.047680
 12
6.262520
 22
5.401880
 13
6.907120
 23
5.023480
  0
POLYLINE
  8
0
  6
CONTINUOUS
 66
     1
 40
0.000000
 41
0.000000
  0
VERTEX
  8
0
  6
CONTINUOUS
 10
6.303000
 20
5.426080
  0
VERTEX
  8
0
  6
CONTINUOUS
 10
6.947600
 20
5.047680
  0
VERTEX
  8
0
  6
CONTINUOUS
 10
6.907120
 20
5.023480
  0
VERTEX
  8
0
  6
CONTINUOUS
 10
6.262520
 20
5.401880
  0
VERTEX
  8
0
  6
CONTINUOUS
 10
6.303000
 20
5.426080
  0
SEQEND
  8
0
  0
SOLID
  8
0
 62
    15
 10
6.262520
 20
5.401880
 11
6.907120
 21
5.023480
 12
6.196080
 22
5.340720
 13
6.841120
 23
4.962320
  0
POLYLINE
  8
0
  6
CONTINUOUS
 66
     1
 40
0.000000
 41
0.000000
  0
VERTEX
  8
0
  6
CONTINUOUS
 10
6.262520
 20
5.401880
  0
VERTEX
  8
0
  6
CONTINUOUS
 10
6.907120
 20
5.023480
  0
VERTEX
  8
0
  6
CONTINUOUS
 10
6.841120
 20
4.962320
  0
VERTEX
  8
0
  6
CONTINUOUS
 10
6.196080
 20
5.340720
  0
VERTEX
  8
0
  6
CONTINUOUS
 10
6.262520
 20
5.401880
  0
SEQEND
  8
0
  0
SOLID
  8
0
 62
    15
 10
6.196080
 20
5.340720
 11
6.841120
 21
4.962320
 12
6.146800
 22
5.263720
 13
6.791840
 23
4.885320
  0
POLYLINE
  8
0
  6
CONTINUOUS
 66
     1
 40
0.000000
 41
0.000000
  0
VERTEX
  8
0
  6
CONTINUOUS
 10
6.196080
 20
5.340720
  0
VERTEX
  8
0
  6
CONTINUOUS
 10
6.841120
 20
4.962320
  0
VERTEX
  8
0
  6
CONTINUOUS
 10
6.791840
 20
4.885320
  0
VERTEX
  8
0
  6
CONTINUOUS
 10
6.146800
 20
5.263720
  0
VERTEX
  8
0
  6
CONTINUOUS
 10
6.196080
 20
5.340720
  0
SEQEND
  8
0
  0
SOLID
  8
0
 62
    15
 10
6.146800
 20
5.263720
 11
6.791840
 21
4.885320
 12
6.112040
 22
5.171320
 13
6.756640
 23
4.793360
  0
POLYLINE
  8
0
  6
CONTINUOUS
 66
     1
 40
0.000000
 41
0.000000
  0
VERTEX
  8
0
  6
CONTINUOUS
 10
6.146800
 20
5.263720
  0
VERTEX
  8
0
  6
CONTINUOUS
 10
6.791840
 20
4.885320
  0
VERTEX
  8
0
  6
CONTINUOUS
 10
6.756640
 20
4.793360
  0
VERTEX
  8
0
  6
CONTINUOUS
 10
6.112040
 20
5.171320
  0
VERTEX
  8
0
  6
CONTINUOUS
 10
6.146800
 20
5.263720
  0
SEQEND
  8
0
  0
SOLID
  8
0
 62
     7
 10
6.112040
 20
5.171320
 11
6.756640
 21
4.793360
 12
6.087840
 22
5.065280
 13
6.732440
 23
4.686880
  0
POLYLINE
  8
0
  6
CONTINUOUS
 66
     1
 40
0.000000
 41
0.000000
  0
VERTEX
  8
0
  6
CONTINUOUS
 10
6.112040
 20
5.171320
  0
VERTEX
  8
0
  6
CONTINUOUS
 10
6.756640
 20
4.793360
  0
VERTEX
  8
0
  6
CONTINUOUS
 10
6.732440
 20
4.686880
  0
VERTEX
  8
0
  6
CONTINUOUS
 10
6.087840
 20
5.065280
  0
VERTEX
  8
0
  6
CONTINUOUS
 10
6.112040
 20
5.171320
  0
SEQEND
  8
0
  0
SOLID
  8
0
 62
     7
 10
6.087840
 20
5.065280
 11
6.732440
 21
4.686880
 12
6.072000
 22
4.945600
 13
6.716600
 23
4.567200
  0
POLYLINE
  8
0
  6
CONTINUOUS
 66
     1
 40
0.000000
 41
0.000000
  0
VERTEX
  8
0
  6
CONTINUOUS
 10
6.087840
 20
5.065280
  0
VERTEX
  8
0
  6
CONTINUOUS
 10
6.732440
 20
4.686880
  0
VERTEX
  8
0
  6
CONTINUOUS
 10
6.716600
 20
4.567200
  0
VERTEX
  8
0
  6
CONTINUOUS
 10
6.072000
 20
4.945600
  0
VERTEX
  8
0
  6
CONTINUOUS
 10
6.087840
 20
5.065280
  0
SEQEND
  8
0
  0
SOLID
  8
0
 62
     7
 10
6.072000
 20
4.945600
 11
6.716600
 21
4.567200
 12
6.055280
 22
4.828560
 13
6.699880
 23
4.450160
  0
POLYLINE
  8
0
  6
CONTINUOUS
 66
     1
 40
0.000000
 41
0.000000
  0
VERTEX
  8
0
  6
CONTINUOUS
 10
6.072000
 20
4.945600
  0
VERTEX
  8
0
  6
CONTINUOUS
 10
6.716600
 20
4.567200
  0
VERTEX
  8
0
  6
CONTINUOUS
 10
6.699880
 20
4.450160
  0
VERTEX
  8
0
  6
CONTINUOUS
 10
6.055280
 20
4.828560
  0
VERTEX
  8
0
  6
CONTINUOUS
 10
6.072000
 20
4.945600
  0
SEQEND
  8
0
  0
SOLID
  8
0
 62
    15
 10
6.055280
 20
4.828560
 11
6.699880
 21
4.450160
 12
6.028880
 22
4.728680
 13
6.673480
 23
4.350720
  0
POLYLINE
  8
0
  6
CONTINUOUS
 66
     1
 40
0.000000
 41
0.000000
  0
VERTEX
  8
0
  6
CONTINUOUS
 10
6.055280
 20
4.828560
  0
VERTEX
  8
0
  6
CONTINUOUS
 10
6.699880
 20
4.450160
  0
VERTEX
  8
0
  6
CONTINUOUS
 10
6.673480
 20
4.350720
  0
VERTEX
  8
0
  6
CONTINUOUS
 10
6.028880
 20
4.728680
  0
VERTEX
  8
0
  6
CONTINUOUS
 10
6.055280
 20
4.828560
  0
SEQEND
  8
0
  0
SOLID
  8
0
 62
    15
 10
6.028880
 20
4.728680
 11
6.673480
 21
4.350720
 12
5.993680
 22
4.645520
 13
6.638280
 23
4.267120
  0
POLYLINE
  8
0
  6
CONTINUOUS
 66
     1
 40
0.000000
 41
0.000000
  0
VERTEX
  8
0
  6
CONTINUOUS
 10
6.028880
 20
4.728680
  0
VERTEX
  8
0
  6
CONTINUOUS
 10
6.673480
 20
4.350720
  0
VERTEX
  8
0
  6
CONTINUOUS
 10
6.638280
 20
4.267120
  0
VERTEX
  8
0
  6
CONTINUOUS
 10
5.993680
 20
4.645520
  0
VERTEX
  8
0
  6
CONTINUOUS
 10
6.028880
 20
4.728680
  0
SEQEND
  8
0
  0
SOLID
  8
0
 62
    15
 10
6.593400
 20
5.760040
 11
7.238000
 21
5.382080
 12
6.593840
 22
5.479760
 13
7.238440
 23
5.101800
  0
POLYLINE
  8
0
  6
CONTINUOUS
 66
     1
 40
0.000000
 41
0.000000
  0
VERTEX
  8
0
  6
CONTINUOUS
 10
6.593400
 20
5.760040
  0
VERTEX
  8
0
  6
CONTINUOUS
 10
7.238000
 20
5.382080
  0
VERTEX
  8
0
  6
CONTINUOUS
 10
7.238440
 20
5.101800
  0
VERTEX
  8
0
  6
CONTINUOUS
 10
6.593840
 20
5.479760
  0
VERTEX
  8
0
  6
CONTINUOUS
 10
6.593400
 20
5.760040
  0
SEQEND
  8
0
  0
SOLID
  8
0
 62
    15
 10
5.948800
 20
4.577760
 11
6.593400
 21
4.199360
 12
5.894680
 22
4.524520
 13
6.539280
 23
4.146120
  0
POLYLINE
  8
0
  6
CONTINUOUS
 66
     1
 40
0.000000
 41
0.000000
  0
VERTEX
  8
0
  6
CONTINUOUS
 10
5.948800
 20
4.577760
  0
VERTEX
  8
0
  6
CONTINUOUS
 10
6.593400
 20
4.199360
  0
VERTEX
  8
0
  6
CONTINUOUS
 10
6.539280
 20
4.146120
  0
VERTEX
  8
0
  6
CONTINUOUS
 10
5.894680
 20
4.524520
  0
VERTEX
  8
0
  6
CONTINUOUS
 10
5.948800
 20
4.577760
  0
SEQEND
  8
0
  0
SOLID
  8
0
 62
    15
 10
5.894680
 20
4.524520
 11
6.539280
 21
4.146120
 12
5.830000
 22
4.484920
 13
6.475040
 23
4.106960
  0
POLYLINE
  8
0
  6
CONTINUOUS
 66
     1
 40
0.000000
 41
0.000000
  0
VERTEX
  8
0
  6
CONTINUOUS
 10
5.894680
 20
4.524520
  0
VERTEX
  8
0
  6
CONTINUOUS
 10
6.539280
 20
4.146120
  0
VERTEX
  8
0
  6
CONTINUOUS
 10
6.475040
 20
4.106960
  0
VERTEX
  8
0
  6
CONTINUOUS
 10
5.830000
 20
4.484920
  0
VERTEX
  8
0
  6
CONTINUOUS
 10
5.894680
 20
4.524520
  0
SEQEND
  8
0
  0
SOLID
  8
0
 62
    15
 10
5.830000
 20
4.484920
 11
6.475040
 21
4.106960
 12
5.755640
 22
4.458520
 13
6.400240
 23
4.080560
  0
POLYLINE
  8
0
  6
CONTINUOUS
 66
     1
 40
0.000000
 41
0.000000
  0
VERTEX
  8
0
  6
CONTINUOUS
 10
5.830000
 20
4.484920
  0
VERTEX
  8
0
  6
CONTINUOUS
 10
6.475040
 20
4.106960
  0
VERTEX
  8
0
  6
CONTINUOUS
 10
6.400240
 20
4.080560
  0
VERTEX
  8
0
  6
CONTINUOUS
 10
5.755640
 20
4.458520
  0
VERTEX
  8
0
  6
CONTINUOUS
 10
5.830000
 20
4.484920
  0
SEQEND
  8
0
  0
SOLID
  8
0
 62
    15
 10
5.755640
 20
4.458520
 11
6.400240
 21
4.080560
 12
5.671160
 22
4.444440
 13
6.315760
 23
4.066040
  0
POLYLINE
  8
0
  6
CONTINUOUS
 66
     1
 40
0.000000
 41
0.000000
  0
VERTEX
  8
0
  6
CONTINUOUS
 10
5.755640
 20
4.458520
  0
VERTEX
  8
0
  6
CONTINUOUS
 10
6.400240
 20
4.080560
  0
VERTEX
  8
0
  6
CONTINUOUS
 10
6.315760
 20
4.066040
  0
VERTEX
  8
0
  6
CONTINUOUS
 10
5.671160
 20
4.444440
  0
VERTEX
  8
0
  6
CONTINUOUS
 10
5.755640
 20
4.458520
  0
SEQEND
  8
0
  0
SOLID
  8
0
 62
     7
 10
5.671160
 20
4.444440
 11
6.315760
 21
4.066040
 12
5.667640
 22
4.372280
 13
6.312240
 23
3.993880
  0
POLYLINE
  8
0
  6
CONTINUOUS
 66
     1
 40
0.000000
 41
0.000000
  0
VERTEX
  8
0
  6
CONTINUOUS
 10
5.671160
 20
4.444440
  0
VERTEX
  8
0
  6
CONTINUOUS
 10
6.315760
 20
4.066040
  0
VERTEX
  8
0
  6
CONTINUOUS
 10
6.312240
 20
3.993880
  0
VERTEX
  8
0
  6
CONTINUOUS
 10
5.667640
 20
4.372280
  0
VERTEX
  8
0
  6
CONTINUOUS
 10
5.671160
 20
4.444440
  0
SEQEND
  8
0
  0
SOLID
  8
0
 62
    15
 10
5.667640
 20
4.372280
 11
6.312240
 21
3.993880
 12
5.632000
 22
4.364360
 13
6.276600
 23
3.986400
  0
POLYLINE
  8
0
  6
CONTINUOUS
 66
     1
 40
0.000000
 41
0.000000
  0
VERTEX
  8
0
  6
CONTINUOUS
 10
5.667640
 20
4.372280
  0
VERTEX
  8
0
  6
CONTINUOUS
 10
6.312240
 20
3.993880
  0
VERTEX
  8
0
  6
CONTINUOUS
 10
6.276600
 20
3.986400
  0
VERTEX
  8
0
  6
CONTINUOUS
 10
5.632000
 20
4.364360
  0
VERTEX
  8
0
  6
CONTINUOUS
 10
5.667640
 20
4.372280
  0
SEQEND
  8
0
  0
SOLID
  8
0
 62
    15
 10
5.632000
 20
4.364360
 11
6.276600
 21
3.986400
 12
5.599000
 22
4.350280
 13
6.243600
 23
3.971880
  0
POLYLINE
  8
0
  6
CONTINUOUS
 66
     1
 40
0.000000
 41
0.000000
  0
VERTEX
  8
0
  6
CONTINUOUS
 10
5.632000
 20
4.364360
  0
VERTEX
  8
0
  6
CONTINUOUS
 10
6.276600
 20
3.986400
  0
VERTEX
  8
0
  6
CONTINUOUS
 10
6.243600
 20
3.971880
  0
VERTEX
  8
0
  6
CONTINUOUS
 10
5.599000
 20
4.350280
  0
VERTEX
  8
0
  6
CONTINUOUS
 10
5.632000
 20
4.364360
  0
SEQEND
  8
0
  0
SOLID
  8
0
 62
    15
 10
5.599000
 20
4.350280
 11
6.243600
 21
3.971880
 12
5.569080
 22
4.329160
 13
6.213680
 23
3.950760
  0
POLYLINE
  8
0
  6
CONTINUOUS
 66
     1
 40
0.000000
 41
0.000000
  0
VERTEX
  8
0
  6
CONTINUOUS
 10
5.599000
 20
4.350280
  0
VERTEX
  8
0
  6
CONTINUOUS
 10
6.243600
 20
3.971880
  0
VERTEX
  8
0
  6
CONTINUOUS
 10
6.213680
 20
3.950760
  0
VERTEX
  8
0
  6
CONTINUOUS
 10
5.569080
 20
4.329160
  0
VERTEX
  8
0
  6
CONTINUOUS
 10
5.599000
 20
4.350280
  0
SEQEND
  8
0
  0
SOLID
  8
0
 62
    15
 10
5.569080
 20
4.329160
 11
6.213680
 21
3.950760
 12
5.544000
 22
4.302320
 13
6.188600
 23
3.923920
  0
POLYLINE
  8
0
  6
CONTINUOUS
 66
     1
 40
0.000000
 41
0.000000
  0
VERTEX
  8
0
  6
CONTINUOUS
 10
5.569080
 20
4.329160
  0
VERTEX
  8
0
  6
CONTINUOUS
 10
6.213680
 20
3.950760
  0
VERTEX
  8
0
  6
CONTINUOUS
 10
6.188600
 20
3.923920
  0
VERTEX
  8
0
  6
CONTINUOUS
 10
5.544000
 20
4.302320
  0
VERTEX
  8
0
  6
CONTINUOUS
 10
5.569080
 20
4.329160
  0
SEQEND
  8
0
  0
SOLID
  8
0
 62
    15
 10
5.544000
 20
4.302320
 11
6.188600
 21
3.923920
 12
5.523760
 22
4.269760
 13
6.168800
 23
3.891360
  0
POLYLINE
  8
0
  6
CONTINUOUS
 66
     1
 40
0.000000
 41
0.000000
  0
VERTEX
  8
0
  6
CONTINUOUS
 10
5.544000
 20
4.302320
  0
VERTEX
  8
0
  6
CONTINUOUS
 10
6.188600
 20
3.923920
  0
VERTEX
  8
0
  6
CONTINUOUS
 10
6.168800
 20
3.891360
  0
VERTEX
  8
0
  6
CONTINUOUS
 10
5.523760
 20
4.269760
  0
VERTEX
  8
0
  6
CONTINUOUS
 10
5.544000
 20
4.302320
  0
SEQEND
  8
0
  0
SOLID
  8
0
 62
    15
 10
5.523760
 20
4.269760
 11
6.168800
 21
3.891360
 12
5.510120
 22
4.231920
 13
6.154720
 23
3.853960
  0
POLYLINE
  8
0
  6
CONTINUOUS
 66
     1
 40
0.000000
 41
0.000000
  0
VERTEX
  8
0
  6
CONTINUOUS
 10
5.523760
 20
4.269760
  0
VERTEX
  8
0
  6
CONTINUOUS
 10
6.168800
 20
3.891360
  0
VERTEX
  8
0
  6
CONTINUOUS
 10
6.154720
 20
3.853960
  0
VERTEX
  8
0
  6
CONTINUOUS
 10
5.510120
 20
4.231920
  0
VERTEX
  8
0
  6
CONTINUOUS
 10
5.523760
 20
4.269760
  0
SEQEND
  8
0
  0
SOLID
  8
0
 62
     7
 10
5.510120
 20
4.231920
 11
6.154720
 21
3.853960
 12
5.503080
 22
4.189680
 13
6.148120
 23
3.811280
  0
POLYLINE
  8
0
  6
CONTINUOUS
 66
     1
 40
0.000000
 41
0.000000
  0
VERTEX
  8
0
  6
CONTINUOUS
 10
5.510120
 20
4.231920
  0
VERTEX
  8
0
  6
CONTINUOUS
 10
6.154720
 20
3.853960
  0
VERTEX
  8
0
  6
CONTINUOUS
 10
6.148120
 20
3.811280
  0
VERTEX
  8
0
  6
CONTINUOUS
 10
5.503080
 20
4.189680
  0
VERTEX
  8
0
  6
CONTINUOUS
 10
5.510120
 20
4.231920
  0
SEQEND
  8
0
  0
SOLID
  8
0
 62
     7
 10
5.503080
 20
4.189680
 11
6.148120
 21
3.811280
 12
5.504400
 22
4.143040
 13
6.149000
 23
3.764640
  0
POLYLINE
  8
0
  6
CONTINUOUS
 66
     1
 40
0.000000
 41
0.000000
  0
VERTEX
  8
0
  6
CONTINUOUS
 10
5.503080
 20
4.189680
  0
VERTEX
  8
0
  6
CONTINUOUS
 10
6.148120
 20
3.811280
  0
VERTEX
  8
0
  6
CONTINUOUS
 10
6.149000
 20
3.764640
  0
VERTEX
  8
0
  6
CONTINUOUS
 10
5.504400
 20
4.143040
  0
VERTEX
  8
0
  6
CONTINUOUS
 10
5.503080
 20
4.189680
  0
SEQEND
  8
0
  0
SOLID
  8
0
 62
    15
 10
5.504400
 20
4.143040
 11
6.149000
 21
3.764640
 12
5.264600
 22
4.143480
 13
5.909200
 23
3.765520
  0
POLYLINE
  8
0
  6
CONTINUOUS
 66
     1
 40
0.000000
 41
0.000000
  0
VERTEX
  8
0
  6
CONTINUOUS
 10
5.504400
 20
4.143040
  0
VERTEX
  8
0
  6
CONTINUOUS
 10
6.149000
 20
3.764640
  0
VERTEX
  8
0
  6
CONTINUOUS
 10
5.909200
 20
3.765520
  0
VERTEX
  8
0
  6
CONTINUOUS
 10
5.264600
 20
4.143480
  0
VERTEX
  8
0
  6
CONTINUOUS
 10
5.504400
 20
4.143040
  0
SEQEND
  8
0
  0
POLYLINE
  8
0
  6
CONTINUOUS
 66
     1
 40
0.000000
 41
0.000000
  0
VERTEX
  8
0
  6
CONTINUOUS
 10
5.697560
 20
5.151520
  0
VERTEX
  8
0
  6
CONTINUOUS
 10
6.129640
 20
5.738480
  0
VERTEX
  8
0
  6
CONTINUOUS
 10
6.593400
 20
5.760040
  0
VERTEX
  8
0
  6
CONTINUOUS
 10
6.593840
 20
5.479760
  0
VERTEX
  8
0
  6
CONTINUOUS
 10
6.522560
 20
5.478440
  0
VERTEX
  8
0
  6
CONTINUOUS
 10
6.458320
 20
5.472280
  0
VERTEX
  8
0
  6
CONTINUOUS
 10
6.400680
 20
5.461280
  0
VERTEX
  8
0
  6
CONTINUOUS
 10
6.348760
 20
5.445880
  0
VERTEX
  8
0
  6
CONTINUOUS
 10
6.303000
 20
5.426080
  0
VERTEX
  8
0
  6
CONTINUOUS
 10
6.262520
 20
5.401880
  0
VERTEX
  8
0
  6
CONTINUOUS
 10
6.196080
 20
5.340720
  0
VERTEX
  8
0
  6
CONTINUOUS
 10
6.146800
 20
5.263720
  0
VERTEX
  8
0
  6
CONTINUOUS
 10
6.112040
 20
5.171320
  0
VERTEX
  8
0
  6
CONTINUOUS
 10
6.087840
 20
5.065280
  0
VERTEX
  8
0
  6
CONTINUOUS
 10
6.072000
 20
4.945600
  0
VERTEX
  8
0
  6
CONTINUOUS
 10
6.055280
 20
4.828560
  0
VERTEX
  8
0
  6
CONTINUOUS
 10
6.028880
 20
4.728680
  0
VERTEX
  8
0
  6
CONTINUOUS
 10
5.993680
 20
4.645520
  0
VERTEX
  8
0
  6
CONTINUOUS
 10
5.948800
 20
4.577760
  0
VERTEX
  8
0
  6
CONTINUOUS
 10
5.894680
 20
4.524520
  0
VERTEX
  8
0
  6
CONTINUOUS
 10
5.830000
 20
4.484920
  0
VERTEX
  8
0
  6
CONTINUOUS
 10
5.755640
 20
4.458520
  0
VERTEX
  8
0
  6
CONTINUOUS
 10
5.671160
 20
4.444440
  0
VERTEX
  8
0
  6
CONTINUOUS
 10
5.667640
 20
4.372280
  0
VERTEX
  8
0
  6
CONTINUOUS
 10
5.632000
 20
4.364360
  0
VERTEX
  8
0
  6
CONTINUOUS
 10
5.599000
 20
4.350280
  0
VERTEX
  8
0
  6
CONTINUOUS
 10
5.569080
 20
4.329160
  0
VERTEX
  8
0
  6
CONTINUOUS
 10
5.544000
 20
4.302320
  0
VERTEX
  8
0
  6
CONTINUOUS
 10
5.523760
 20
4.269760
  0
VERTEX
  8
0
  6
CONTINUOUS
 10
5.510120
 20
4.231920
  0
VERTEX
  8
0
  6
CONTINUOUS
 10
5.503080
 20
4.189680
  0
VERTEX
  8
0
  6
CONTINUOUS
 10
5.504400
 20
4.143040
  0
VERTEX
  8
0
  6
CONTINUOUS
 10
5.264600
 20
4.143480
  0
VERTEX
  8
0
  6
CONTINUOUS
 10
5.265040
 20
4.564120
  0
VERTEX
  8
0
  6
CONTINUOUS
 10
5.697560
 20
5.151520
  0
SEQEND
  8
0
  0
TEXT
  8
0
 10
1.579600
 20
2.900040
 40
0.138058
  1
755
 41
1.000000
  7
SN0
 71
     0
 72
     5
 11
1.856666
 21
2.900040
  0
TEXT
  8
0
 10
5.474480
 20
4.564560
 40
0.138058
  1
754
 41
1.000000
  7
SN0
 71
     0
 72
     5
 11
5.751546
 21
4.564560
  0
LINE
  8
0
  6
DOT
 10
1.416800
 20
3.853520
 11
2.636040
 21
3.853520
  0
POLYLINE
  8
0
  6
CONTINUOUS
 66
     1
 40
0.000000
 41
0.000000
  0
VERTEX
  8
0
  6
CONTINUOUS
 10
3.038640
 20
7.212920
  0
VERTEX
  8
0
  6
CONTINUOUS
 10
1.819840
 20
7.212920
  0
VERTEX
  8
0
  6
CONTINUOUS
 10
1.819840
 20
8.142200
  0
VERTEX
  8
0
  6
CONTINUOUS
 10
5.665880
 20
8.142200
  0
VERTEX
  8
0
  6
CONTINUOUS
 10
5.661480
 20
8.131640
  0
VERTEX
  8
0
  6
CONTINUOUS
 10
5.661480
 20
7.625640
  0
VERTEX
  8
0
  6
CONTINUOUS
 10
5.663680
 20
7.627400
  0
VERTEX
  8
0
  6
CONTINUOUS
 10
5.663680
 20
7.212920
  0
VERTEX
  8
0
  6
CONTINUOUS
 10
5.228520
 20
7.212920
  0
VERTEX
  8
0
  6
CONTINUOUS
 10
5.228080
 20
7.210720
  0
VERTEX
  8
0
  6
CONTINUOUS
 10
5.220600
 20
7.274520
  0
VERTEX
  8
0
  6
CONTINUOUS
 10
5.214880
 20
7.304880
  0
VERTEX
  8
0
  6
CONTINUOUS
 10
5.198600
 20
7.363840
  0
VERTEX
  8
0
  6
CONTINUOUS
 10
5.188480
 20
7.391560
  0
VERTEX
  8
0
  6
CONTINUOUS
 10
5.163840
 20
7.445240
  0
VERTEX
  8
0
  6
CONTINUOUS
 10
5.134360
 20
7.495400
  0
VERTEX
  8
0
  6
CONTINUOUS
 10
5.099160
 20
7.542040
  0
VERTEX
  8
0
  6
CONTINUOUS
 10
5.059560
 20
7.584720
  0
VERTEX
  8
0
  6
CONTINUOUS
 10
5.015560
 20
7.623440
  0
VERTEX
  8
0
  6
CONTINUOUS
 10
4.966720
 20
7.658640
  0
VERTEX
  8
0
  6
CONTINUOUS
 10
4.913480
 20
7.689880
  0
VERTEX
  8
0
  6
CONTINUOUS
 10
4.856280
 20
7.717160
  0
VERTEX
  8
0
  6
CONTINUOUS
 10
4.795120
 20
7.740040
  0
VERTEX
  8
0
  6
CONTINUOUS
 10
4.730440
 20
7.758960
  0
VERTEX
  8
0
  6
CONTINUOUS
 10
4.661800
 20
7.773480
  0
VERTEX
  8
0
  6
CONTINUOUS
 10
4.590080
 20
7.784040
  0
VERTEX
  8
0
  6
CONTINUOUS
 10
4.515720
 20
7.789760
  0
VERTEX
  8
0
  6
CONTINUOUS
 10
4.437840
 20
7.791080
  0
VERTEX
  8
0
  6
CONTINUOUS
 10
4.357760
 20
7.787560
  0
VERTEX
  8
0
  6
CONTINUOUS
 10
4.274600
 20
7.779640
  0
VERTEX
  8
0
  6
CONTINUOUS
 10
4.189680
 20
7.766880
  0
VERTEX
  8
0
  6
CONTINUOUS
 10
4.102120
 20
7.749280
  0
VERTEX
  8
0
  6
CONTINUOUS
 10
4.012800
 20
7.726840
  0
VERTEX
  8
0
  6
CONTINUOUS
 10
3.921720
 20
7.699120
  0
VERTEX
  8
0
  6
CONTINUOUS
 10
3.829320
 20
7.666120
  0
VERTEX
  8
0
  6
CONTINUOUS
 10
3.735600
 20
7.628280
  0
VERTEX
  8
0
  6
CONTINUOUS
 10
3.640560
 20
7.585160
  0
VERTEX
  8
0
  6
CONTINUOUS
 10
3.544640
 20
7.536760
  0
VERTEX
  8
0
  6
CONTINUOUS
 10
3.447840
 20
7.482640
  0
VERTEX
  8
0
  6
CONTINUOUS
 10
3.350600
 20
7.423240
  0
VERTEX
  8
0
  6
CONTINUOUS
 10
3.252920
 20
7.358120
  0
VERTEX
  8
0
  6
CONTINUOUS
 10
3.155240
 20
7.287280
  0
VERTEX
  8
0
  6
CONTINUOUS
 10
3.057560
 20
7.210720
  0
VERTEX
  8
0
  6
CONTINUOUS
 10
3.038640
 20
7.212920
  0
SEQEND
  8
0
  0
POLYLINE
  8
0
  6
CONTINUOUS
 66
     1
 40
0.000000
 41
0.000000
  0
VERTEX
  8
0
  6
CONTINUOUS
 10
3.040840
 20
7.142080
  0
VERTEX
  8
0
  6
CONTINUOUS
 10
1.824240
 20
7.142080
  0
VERTEX
  8
0
  6
CONTINUOUS
 10
1.824240
 20
6.029760
  0
VERTEX
  8
0
  6
CONTINUOUS
 10
2.440680
 20
6.029760
  0
VERTEX
  8
0
  6
CONTINUOUS
 10
2.438920
 20
6.031960
  0
VERTEX
  8
0
  6
CONTINUOUS
 10
2.441560
 20
6.075960
  0
VERTEX
  8
0
  6
CONTINUOUS
 10
2.445520
 20
6.119080
  0
VERTEX
  8
0
  6
CONTINUOUS
 10
2.450800
 20
6.161320
  0
VERTEX
  8
0
  6
CONTINUOUS
 10
2.456960
 20
6.203120
  0
VERTEX
  8
0
  6
CONTINUOUS
 10
2.464880
 20
6.243600
  0
VERTEX
  8
0
  6
CONTINUOUS
 10
2.473240
 20
6.284080
  0
VERTEX
  8
0
  6
CONTINUOUS
 10
2.482920
 20
6.323240
  0
VERTEX
  8
0
  6
CONTINUOUS
 10
2.493920
 20
6.362400
  0
VERTEX
  8
0
  6
CONTINUOUS
 10
2.505800
 20
6.400240
  0
VERTEX
  8
0
  6
CONTINUOUS
 10
2.519000
 20
6.437640
  0
VERTEX
  8
0
  6
CONTINUOUS
 10
2.533080
 20
6.474600
  0
VERTEX
  8
0
  6
CONTINUOUS
 10
2.548040
 20
6.511120
  0
VERTEX
  8
0
  6
CONTINUOUS
 10
2.564320
 20
6.546760
  0
VERTEX
  8
0
  6
CONTINUOUS
 10
2.581480
 20
6.581520
  0
VERTEX
  8
0
  6
CONTINUOUS
 10
2.599520
 20
6.616280
  0
VERTEX
  8
0
  6
CONTINUOUS
 10
2.618440
 20
6.650160
  0
VERTEX
  8
0
  6
CONTINUOUS
 10
2.638680
 20
6.683600
  0
VERTEX
  8
0
  6
CONTINUOUS
 10
2.659360
 20
6.716600
  0
VERTEX
  8
0
  6
CONTINUOUS
 10
2.681360
 20
6.749160
  0
VERTEX
  8
0
  6
CONTINUOUS
 10
2.703800
 20
6.781280
  0
VERTEX
  8
0
  6
CONTINUOUS
 10
2.727560
 20
6.812960
  0
VERTEX
  8
0
  6
CONTINUOUS
 10
2.751760
 20
6.844200
  0
VERTEX
  8
0
  6
CONTINUOUS
 10
2.777280
 20
6.875000
  0
VERTEX
  8
0
  6
CONTINUOUS
 10
2.803240
 20
6.904920
  0
VERTEX
  8
0
  6
CONTINUOUS
 10
2.830080
 20
6.935280
  0
VERTEX
  8
0
  6
CONTINUOUS
 10
2.857800
 20
6.964760
  0
VERTEX
  8
0
  6
CONTINUOUS
 10
2.885960
 20
6.993800
  0
VERTEX
  8
0
  6
CONTINUOUS
 10
2.915000
 20
7.022840
  0
VERTEX
  8
0
  6
CONTINUOUS
 10
2.944920
 20
7.051440
  0
VERTEX
  8
0
  6
CONTINUOUS
 10
2.975720
 20
7.080040
  0
VERTEX
  8
0
  6
CONTINUOUS
 10
3.006960
 20
7.108200
  0
VERTEX
  8
0
  6
CONTINUOUS
 10
3.038640
 20
7.135920
  0
VERTEX
  8
0
  6
CONTINUOUS
 10
3.040840
 20
7.142080
  0
SEQEND
  8
0
  0
TEXT
  8
0
 10
5.891160
 20
7.897560
 40
0.138058
  1
754
 41
1.000000
  7
SN0
 71
     0
 72
     5
 11
6.168226
 21
7.897560
  0
TEXT
  8
0
 10
1.984840
 20
7.292560
 40
0.160847
  1
755A
 41
1.000000
  7
SN0
 71
     0
 72
     5
 11
2.436288
 21
7.292560
  0
TEXT
  8
0
 10
1.910480
 20
6.805040
 40
0.160847
  1
755B
 41
1.000000
  7
SN0
 71
     0
 72
     5
 11
2.361928
 21
6.805040
  0
POLYLINE
  8
0
  6
CONTINUOUS
 66
     1
 40
0.000000
 41
0.000000
  0
VERTEX
  8
0
  6
CONTINUOUS
 10
5.676880
 20
7.831560
  0
VERTEX
  8
0
  6
CONTINUOUS
 10
5.676440
 20
7.410920
  0
VERTEX
  8
0
  6
CONTINUOUS
 10
5.916240
 20
7.410040
  0
VERTEX
  8
0
  6
CONTINUOUS
 10
5.914480
 20
7.433800
  0
VERTEX
  8
0
  6
CONTINUOUS
 10
5.917560
 20
7.478680
  0
VERTEX
  8
0
  6
CONTINUOUS
 10
5.921960
 20
7.498920
  0
VERTEX
  8
0
  6
CONTINUOUS
 10
5.928120
 20
7.518720
  0
VERTEX
  8
0
  6
CONTINUOUS
 10
5.945280
 20
7.553920
  0
VERTEX
  8
0
  6
CONTINUOUS
 10
5.955840
 20
7.569320
  0
VERTEX
  8
0
  6
CONTINUOUS
 10
5.981360
 20
7.596160
  0
VERTEX
  8
0
  6
CONTINUOUS
 10
5.995440
 20
7.607600
  0
VERTEX
  8
0
  6
CONTINUOUS
 10
6.010840
 20
7.617280
  0
VERTEX
  8
0
  6
CONTINUOUS
 10
6.043840
 20
7.631800
  0
VERTEX
  8
0
  6
CONTINUOUS
 10
6.079480
 20
7.639280
  0
VERTEX
  8
0
  6
CONTINUOUS
 10
6.083000
 20
7.711440
  0
VERTEX
  8
0
  6
CONTINUOUS
 10
6.126560
 20
7.717160
  0
VERTEX
  8
0
  6
CONTINUOUS
 10
6.167920
 20
7.725960
  0
VERTEX
  8
0
  6
CONTINUOUS
 10
6.206200
 20
7.737400
  0
VERTEX
  8
0
  6
CONTINUOUS
 10
6.242280
 20
7.752360
  0
VERTEX
  8
0
  6
CONTINUOUS
 10
6.275280
 20
7.770400
  0
VERTEX
  8
0
  6
CONTINUOUS
 10
6.306520
 20
7.791520
  0
VERTEX
  8
0
  6
CONTINUOUS
 10
6.348320
 20
7.830240
  0
VERTEX
  8
0
  6
CONTINUOUS
 10
6.384400
 20
7.876880
  0
VERTEX
  8
0
  6
CONTINUOUS
 10
6.405520
 20
7.912520
  0
VERTEX
  8
0
  6
CONTINUOUS
 10
6.424440
 20
7.952560
  0
VERTEX
  8
0
  6
CONTINUOUS
 10
6.448200
 20
8.019440
  0
VERTEX
  8
0
  6
CONTINUOUS
 10
6.461400
 20
8.069160
  0
VERTEX
  8
0
  6
CONTINUOUS
 10
6.476360
 20
8.151880
  0
VERTEX
  8
0
  6
CONTINUOUS
 10
6.494840
 20
8.303680
  0
VERTEX
  8
0
  6
CONTINUOUS
 10
6.510240
 20
8.387280
  0
VERTEX
  8
0
  6
CONTINUOUS
 10
6.531360
 20
8.462960
  0
VERTEX
  8
0
  6
CONTINUOUS
 10
6.548960
 20
8.509160
  0
VERTEX
  8
0
  6
CONTINUOUS
 10
6.569640
 20
8.551400
  0
VERTEX
  8
0
  6
CONTINUOUS
 10
6.594280
 20
8.590120
  0
VERTEX
  8
0
  6
CONTINUOUS
 10
6.622880
 20
8.624880
  0
VERTEX
  8
0
  6
CONTINUOUS
 10
6.656320
 20
8.655240
  0
VERTEX
  8
0
  6
CONTINUOUS
 10
6.694160
 20
8.681640
  0
VERTEX
  8
0
  6
CONTINUOUS
 10
6.714840
 20
8.693520
  0
VERTEX
  8
0
  6
CONTINUOUS
 10
6.737280
 20
8.704080
  0
VERTEX
  8
0
  6
CONTINUOUS
 10
6.786120
 20
8.721680
  0
VERTEX
  8
0
  6
CONTINUOUS
 10
6.840680
 20
8.734880
  0
VERTEX
  8
0
  6
CONTINUOUS
 10
6.870160
 20
8.739720
  0
VERTEX
  8
0
  6
CONTINUOUS
 10
6.934400
 20
8.745880
  0
VERTEX
  8
0
  6
CONTINUOUS
 10
6.969160
 20
8.747200
  0
VERTEX
  8
0
  6
CONTINUOUS
 10
7.005680
 20
8.747200
  0
VERTEX
  8
0
  6
CONTINUOUS
 10
7.005240
 20
9.027480
  0
VERTEX
  8
0
  6
CONTINUOUS
 10
6.541480
 20
9.005920
  0
VERTEX
  8
0
  6
CONTINUOUS
 10
5.676880
 20
7.831560
  0
SEQEND
  8
0
  0
POLYLINE
  8
0
  6
CONTINUOUS
 66
     1
 40
0.000000
 41
0.000000
  0
VERTEX
  8
0
  6
CONTINUOUS
 10
4.671040
 20
8.559760
  0
VERTEX
  8
0
  6
CONTINUOUS
 10
5.009840
 20
8.809240
  0
VERTEX
  8
0
  6
CONTINUOUS
 10
4.867280
 20
9.002400
  0
VERTEX
  8
0
  6
CONTINUOUS
 10
4.849240
 20
8.987000
  0
VERTEX
  8
0
  6
CONTINUOUS
 10
4.830320
 20
8.973800
  0
VERTEX
  8
0
  6
CONTINUOUS
 10
4.811400
 20
8.962800
  0
VERTEX
  8
0
  6
CONTINUOUS
 10
4.792480
 20
8.954000
  0
VERTEX
  8
0
  6
CONTINUOUS
 10
4.773120
 20
8.947400
  0
VERTEX
  8
0
  6
CONTINUOUS
 10
4.753760
 20
8.943000
  0
VERTEX
  8
0
  6
CONTINUOUS
 10
4.734840
 20
8.940360
  0
VERTEX
  8
0
  6
CONTINUOUS
 10
4.715920
 20
8.939480
  0
VERTEX
  8
0
  6
CONTINUOUS
 10
4.697440
 20
8.940800
  0
VERTEX
  8
0
  6
CONTINUOUS
 10
4.679400
 20
8.943880
  0
VERTEX
  8
0
  6
CONTINUOUS
 10
4.661800
 20
8.948720
  0
VERTEX
  8
0
  6
CONTINUOUS
 10
4.644640
 20
8.955320
  0
VERTEX
  8
0
  6
CONTINUOUS
 10
4.613400
 20
8.973360
  0
VERTEX
  8
0
  6
CONTINUOUS
 10
4.586120
 20
8.997560
  0
VERTEX
  8
0
  6
CONTINUOUS
 10
4.526280
 20
8.957080
  0
VERTEX
  8
0
  6
CONTINUOUS
 10
4.480080
 20
9.003280
  0
VERTEX
  8
0
  6
CONTINUOUS
 10
4.448400
 20
9.029240
  0
VERTEX
  8
0
  6
CONTINUOUS
 10
4.398680
 20
9.060920
  0
VERTEX
  8
0
  6
CONTINUOUS
 10
4.364360
 20
9.077200
  0
VERTEX
  8
0
  6
CONTINUOUS
 10
4.328720
 20
9.089080
  0
VERTEX
  8
0
  6
CONTINUOUS
 10
4.291760
 20
9.097440
  0
VERTEX
  8
0
  6
CONTINUOUS
 10
4.253480
 20
9.101400
  0
VERTEX
  8
0
  6
CONTINUOUS
 10
4.213880
 20
9.101400
  0
VERTEX
  8
0
  6
CONTINUOUS
 10
4.172520
 20
9.097000
  0
VERTEX
  8
0
  6
CONTINUOUS
 10
4.129400
 20
9.088640
  0
VERTEX
  8
0
  6
CONTINUOUS
 10
4.084520
 20
9.075880
  0
VERTEX
  8
0
  6
CONTINUOUS
 10
4.037440
 20
9.058720
  0
VERTEX
  8
0
  6
CONTINUOUS
 10
3.963520
 20
9.025280
  0
VERTEX
  8
0
  6
CONTINUOUS
 10
3.805120
 20
8.936840
  0
VERTEX
  8
0
  6
CONTINUOUS
 10
3.728560
 20
8.899440
  0
VERTEX
  8
0
  6
CONTINUOUS
 10
3.679280
 20
8.879200
  0
VERTEX
  8
0
  6
CONTINUOUS
 10
3.631320
 20
8.863800
  0
VERTEX
  8
0
  6
CONTINUOUS
 10
3.584240
 20
8.852800
  0
VERTEX
  8
0
  6
CONTINUOUS
 10
3.538480
 20
8.846640
  0
VERTEX
  8
0
  6
CONTINUOUS
 10
3.493160
 20
8.846200
  0
VERTEX
  8
0
  6
CONTINUOUS
 10
3.448720
 20
8.851920
  0
VERTEX
  8
0
  6
CONTINUOUS
 10
3.426280
 20
8.856760
  0
VERTEX
  8
0
  6
CONTINUOUS
 10
3.404280
 20
8.863360
  0
VERTEX
  8
0
  6
CONTINUOUS
 10
3.360720
 20
8.881400
  0
VERTEX
  8
0
  6
CONTINUOUS
 10
3.339160
 20
8.892840
  0
VERTEX
  8
0
  6
CONTINUOUS
 10
3.296040
 20
8.921440
  0
VERTEX
  8
0
  6
CONTINUOUS
 10
3.252920
 20
8.957520
  0
VERTEX
  8
0
  6
CONTINUOUS
 10
3.209800
 20
9.001520
  0
VERTEX
  8
0
  6
CONTINUOUS
 10
3.166240
 20
9.053880
  0
VERTEX
  8
0
  6
CONTINUOUS
 10
3.144680
 20
9.082920
  0
VERTEX
  8
0
  6
CONTINUOUS
 10
2.919840
 20
8.915720
  0
VERTEX
  8
0
  6
CONTINUOUS
 10
3.212880
 20
8.556240
  0
VERTEX
  8
0
  6
CONTINUOUS
 10
4.671040
 20
8.559760
  0
SEQEND
  8
0
  0
TEXT
  8
0
 10
2.921600
 20
6.601320
 40
0.138058
  1
BA  754 1/2" x 2-1/16"
 41
1.000000
  7
SN0
 71
     0
 72
     5
 11
4.549048
 21
6.601320
  0
TEXT
  8
0
 10
2.921600
 20
6.409920
 40
0.138058
  1
BA  755A & B 2-1/16" x 3-13/16"
 41
1.000000
  7
SN0
 71
     0
 72
     5
 11
5.304224
 21
6.409920
  0
ENDSEC
  0
EOF
