  0
SECTION
  2
HEADER
  9
$ACADVER
  1
AC1006
  9
$EXTMIN
 10
1.612160
 20
0.680240
  9
$EXTMAX
 10
7.590000
 20
7.885680
  9
$LTSCALE
 40
0.044000
  9
$PDMODE
 70
    35
  9
$PDSIZE
 40
0.035200
  0
ENDSEC
  0
SECTION
  2
TABLES
  0
TABLE
  2
LTYPE
 70
     9
  0
LTYPE
  2
CONTINUOUS
 70
    64
  3
Solid line
 72
    65
 73
     0
 40
0.000000
  0
LTYPE
  2
DASHED
 70
    64
  3
__ __ __ __ __ __ __ __ __ __ __ __ __ __ __
 72
    65
 73
     2
 40
0.000330
 49
0.000220
 49
-0.000110
  0
LTYPE
  2
HIDDEN
 70
    64
  3
 _ _ _ _ _ _ _ _ _ _ _ _ _ _ _ _ _ _ _ _ _ _
 72
    65
 73
     2
 40
0.000165
 49
0.000110
 49
-0.000055
  0
LTYPE
  2
CENTER
 70
    64
  3
____ _ ____ _ ____ _ ____ _ ____ _ ____ _ ____
 72
    65
 73
     4
 40
0.000880
 49
0.000550
 49
-0.000110
 49
0.000110
 49
-0.000110
  0
LTYPE
  2
PHANTOM
 70
    64
  3
_____ _ _ _____ _ _ _____ _ _ _____ _ _ ____
 72
    65
 73
     6
 40
0.001100
 49
0.000550
 49
-0.000110
 49
0.000110
 49
-0.000110
 49
0.000110
 49
-0.000110
  0
LTYPE
  2
DOT
 70
    64
  3
...............................................
 72
    65
 73
     2
 40
0.000110
 49
0.000000
 49
-0.000110
  0
LTYPE
  2
DASHDOT
 70
    64
  3
__ . __ . __ . __ . __ . __ . __ . __ . __ . __
 72
    65
 73
     4
 40
0.000440
 49
0.000220
 49
-0.000110
 49
0.000000
 49
-0.000110
  0
LTYPE
  2
BORDER
 70
    64
  3
__ __ . __ __ . __ __ . __ __ . __ __ . __ __
 72
    65
 73
     6
 40
0.000770
 49
0.000220
 49
-0.000110
 49
0.000220
 49
-0.000110
 49
0.000000
 49
-0.000110
  0
LTYPE
  2
DIVIDE
 70
    64
  3
__ . . __ . . __ . . __ . . __ . . __ . . __
 72
    65
 73
     6
 40
0.000550
 49
0.000220
 49
-0.000110
 49
0.000000
 49
-0.000110
 49
0.000000
 49
-0.000110
  0
LTYPE
  2
DOTDOT
 70
    64
  3
 . .  . .  . .  . .  . .  . . 
 72
    65
 73
     5
 40
0.000242
 49
-0.000110
 49
0.000000
 49
-0.000110
 49
0.000000
 49
-0.000110
  0
ENDTAB
  0
TABLE
  2
STYLE
 70
     2
  0
STYLE
 70
     0
  2
SN0
 40
0.000000
 41
0.000440
 50
0.000000
 71
     0
 42
0.000000
  3
ROMAND
  0
STYLE
 70
    68
  2
SV0
 40
0.000000
 41
0.000440
 50
0.000000
 71
     0
 42
0.000000
  3
ROMAND
  0
ENDTAB
  0
TABLE
  2
LAYER
 70
     3
  0
LAYER
  2
FOREGROUND
 70
    64
 62
     7
  6
CONTINUOUS
  0
LAYER
  2
BACKGROUND
 70
    65
 62
    -7
  6
CONTINUOUS
  0
LAYER
  2
0
 70
    64
 62
     7
  6
CONTINUOUS
  0
ENDTAB
  0
ENDSEC
  0
SECTION
  2
ENTITIES
  0
POLYLINE
  8
FOREGROUND
  6
CONTINUOUS
 66
     1
 40
0.000000
 41
0.000000
  0
VERTEX
  8
FOREGROUND
  6
CONTINUOUS
 10
0.000000
 20
8.565920
  0
VERTEX
  8
FOREGROUND
  6
CONTINUOUS
 10
8.499920
 20
8.565920
  0
VERTEX
  8
FOREGROUND
  6
CONTINUOUS
 10
8.499920
 20
-2.434080
  0
VERTEX
  8
FOREGROUND
  6
CONTINUOUS
 10
0.000000
 20
-2.434080
  0
VERTEX
  8
FOREGROUND
  6
CONTINUOUS
 10
0.000000
 20
8.565920
  0
SEQEND
  8
0
  0
POLYLINE
  8
FOREGROUND
  6
CONTINUOUS
 66
     1
 40
0.000000
 41
0.000000
  0
VERTEX
  8
FOREGROUND
  6
CONTINUOUS
 10
0.000000
 20
8.565920
  0
VERTEX
  8
FOREGROUND
  6
CONTINUOUS
 10
8.499920
 20
8.565920
  0
VERTEX
  8
FOREGROUND
  6
CONTINUOUS
 10
8.499920
 20
-2.434080
  0
VERTEX
  8
FOREGROUND
  6
CONTINUOUS
 10
0.000000
 20
-2.434080
  0
VERTEX
  8
FOREGROUND
  6
CONTINUOUS
 10
0.000000
 20
8.565920
  0
SEQEND
  8
0
  0
TEXT
  8
0
 10
1.612600
 20
0.914760
 40
0.138049
  1
BA  754 1/2" x 2-1/16"
 41
1.000000
  7
SN0
 71
     0
 72
     5
 11
3.239949
 21
0.914760
  0
TEXT
  8
0
 10
1.612600
 20
0.723360
 40
0.138049
  1
BA  755A & B 2-1/16" x 3-13/16"
 41
1.000000
  7
SN0
 71
     0
 72
     5
 11
3.995079
 21
0.723360
  0
SOLID
  8
0
 62
    15
 10
3.007840
 20
2.640000
 11
3.639240
 21
2.270840
 12
3.006520
 22
2.638680
 13
3.637920
 23
2.269520
  0
POLYLINE
  8
0
  6
CONTINUOUS
 66
     1
 40
0.000000
 41
0.000000
  0
VERTEX
  8
0
  6
CONTINUOUS
 10
3.007840
 20
2.640000
  0
VERTEX
  8
0
  6
CONTINUOUS
 10
3.639240
 20
2.270840
  0
VERTEX
  8
0
  6
CONTINUOUS
 10
3.637920
 20
2.269520
  0
VERTEX
  8
0
  6
CONTINUOUS
 10
3.006520
 20
2.638680
  0
VERTEX
  8
0
  6
CONTINUOUS
 10
3.007840
 20
2.640000
  0
SEQEND
  8
0
  0
SOLID
  8
0
 62
    15
 10
5.616160
 20
2.642640
 11
6.247560
 21
2.273040
 12
5.616600
 22
2.639120
 13
6.248000
 23
2.269960
  0
POLYLINE
  8
0
  6
CONTINUOUS
 66
     1
 40
0.000000
 41
0.000000
  0
VERTEX
  8
0
  6
CONTINUOUS
 10
5.616160
 20
2.642640
  0
VERTEX
  8
0
  6
CONTINUOUS
 10
6.247560
 20
2.273040
  0
VERTEX
  8
0
  6
CONTINUOUS
 10
6.248000
 20
2.269960
  0
VERTEX
  8
0
  6
CONTINUOUS
 10
5.616600
 20
2.639120
  0
VERTEX
  8
0
  6
CONTINUOUS
 10
5.616160
 20
2.642640
  0
SEQEND
  8
0
  0
SOLID
  8
0
 62
    15
 10
5.616600
 20
2.639120
 11
6.248000
 21
2.269960
 12
5.177920
 22
2.639120
 13
5.809320
 23
2.269960
  0
POLYLINE
  8
0
  6
CONTINUOUS
 66
     1
 40
0.000000
 41
0.000000
  0
VERTEX
  8
0
  6
CONTINUOUS
 10
5.616600
 20
2.639120
  0
VERTEX
  8
0
  6
CONTINUOUS
 10
6.248000
 20
2.269960
  0
VERTEX
  8
0
  6
CONTINUOUS
 10
5.809320
 20
2.269960
  0
VERTEX
  8
0
  6
CONTINUOUS
 10
5.177920
 20
2.639120
  0
VERTEX
  8
0
  6
CONTINUOUS
 10
5.616600
 20
2.639120
  0
SEQEND
  8
0
  0
SOLID
  8
0
 62
    15
 10
4.863320
 20
3.124880
 11
5.494720
 21
2.755720
 12
4.744960
 22
3.174600
 13
5.376360
 23
2.805440
  0
POLYLINE
  8
0
  6
CONTINUOUS
 66
     1
 40
0.000000
 41
0.000000
  0
VERTEX
  8
0
  6
CONTINUOUS
 10
4.863320
 20
3.124880
  0
VERTEX
  8
0
  6
CONTINUOUS
 10
5.494720
 20
2.755720
  0
VERTEX
  8
0
  6
CONTINUOUS
 10
5.376360
 20
2.805440
  0
VERTEX
  8
0
  6
CONTINUOUS
 10
4.744960
 20
3.174600
  0
VERTEX
  8
0
  6
CONTINUOUS
 10
4.863320
 20
3.124880
  0
SEQEND
  8
0
  0
SOLID
  8
0
 62
    15
 10
4.744960
 20
3.174600
 11
5.376360
 21
2.805440
 12
4.612080
 22
3.207160
 13
5.243480
 23
2.838000
  0
POLYLINE
  8
0
  6
CONTINUOUS
 66
     1
 40
0.000000
 41
0.000000
  0
VERTEX
  8
0
  6
CONTINUOUS
 10
4.744960
 20
3.174600
  0
VERTEX
  8
0
  6
CONTINUOUS
 10
5.376360
 20
2.805440
  0
VERTEX
  8
0
  6
CONTINUOUS
 10
5.243480
 20
2.838000
  0
VERTEX
  8
0
  6
CONTINUOUS
 10
4.612080
 20
3.207160
  0
VERTEX
  8
0
  6
CONTINUOUS
 10
4.744960
 20
3.174600
  0
SEQEND
  8
0
  0
SOLID
  8
0
 62
    15
 10
4.612080
 20
3.207160
 11
5.243480
 21
2.838000
 12
4.465560
 22
3.222560
 13
5.096960
 23
2.853400
  0
POLYLINE
  8
0
  6
CONTINUOUS
 66
     1
 40
0.000000
 41
0.000000
  0
VERTEX
  8
0
  6
CONTINUOUS
 10
4.612080
 20
3.207160
  0
VERTEX
  8
0
  6
CONTINUOUS
 10
5.243480
 20
2.838000
  0
VERTEX
  8
0
  6
CONTINUOUS
 10
5.096960
 20
2.853400
  0
VERTEX
  8
0
  6
CONTINUOUS
 10
4.465560
 20
3.222560
  0
VERTEX
  8
0
  6
CONTINUOUS
 10
4.612080
 20
3.207160
  0
SEQEND
  8
0
  0
SOLID
  8
0
 62
    15
 10
3.809960
 20
3.571920
 11
4.441360
 21
3.202320
 12
3.809960
 22
3.571920
 13
3.809960
 23
3.571480
  0
POLYLINE
  8
0
  6
CONTINUOUS
 66
     1
 40
0.000000
 41
0.000000
  0
VERTEX
  8
0
  6
CONTINUOUS
 10
3.809960
 20
3.571920
  0
VERTEX
  8
0
  6
CONTINUOUS
 10
4.441360
 20
3.202320
  0
VERTEX
  8
0
  6
CONTINUOUS
 10
3.809960
 20
3.571480
  0
VERTEX
  8
0
  6
CONTINUOUS
 10
3.809960
 20
3.571920
  0
SEQEND
  8
0
  0
SOLID
  8
0
 62
    15
 10
4.307600
 20
3.219920
 11
4.939000
 21
2.850760
 12
4.139520
 22
3.198360
 13
4.770920
 23
2.829200
  0
POLYLINE
  8
0
  6
CONTINUOUS
 66
     1
 40
0.000000
 41
0.000000
  0
VERTEX
  8
0
  6
CONTINUOUS
 10
4.307600
 20
3.219920
  0
VERTEX
  8
0
  6
CONTINUOUS
 10
4.939000
 20
2.850760
  0
VERTEX
  8
0
  6
CONTINUOUS
 10
4.770920
 20
2.829200
  0
VERTEX
  8
0
  6
CONTINUOUS
 10
4.139520
 20
3.198360
  0
VERTEX
  8
0
  6
CONTINUOUS
 10
4.307600
 20
3.219920
  0
SEQEND
  8
0
  0
SOLID
  8
0
 62
    15
 10
4.139520
 20
3.198360
 11
4.770920
 21
2.829200
 12
3.963080
 22
3.157880
 13
4.594480
 23
2.788720
  0
POLYLINE
  8
0
  6
CONTINUOUS
 66
     1
 40
0.000000
 41
0.000000
  0
VERTEX
  8
0
  6
CONTINUOUS
 10
4.139520
 20
3.198360
  0
VERTEX
  8
0
  6
CONTINUOUS
 10
4.770920
 20
2.829200
  0
VERTEX
  8
0
  6
CONTINUOUS
 10
4.594480
 20
2.788720
  0
VERTEX
  8
0
  6
CONTINUOUS
 10
3.963080
 20
3.157880
  0
VERTEX
  8
0
  6
CONTINUOUS
 10
4.139520
 20
3.198360
  0
SEQEND
  8
0
  0
SOLID
  8
0
 62
    15
 10
3.963080
 20
3.157880
 11
4.594480
 21
2.788720
 12
3.779600
 22
3.096720
 13
4.411000
 23
2.727560
  0
POLYLINE
  8
0
  6
CONTINUOUS
 66
     1
 40
0.000000
 41
0.000000
  0
VERTEX
  8
0
  6
CONTINUOUS
 10
3.963080
 20
3.157880
  0
VERTEX
  8
0
  6
CONTINUOUS
 10
4.594480
 20
2.788720
  0
VERTEX
  8
0
  6
CONTINUOUS
 10
4.411000
 20
2.727560
  0
VERTEX
  8
0
  6
CONTINUOUS
 10
3.779600
 20
3.096720
  0
VERTEX
  8
0
  6
CONTINUOUS
 10
3.963080
 20
3.157880
  0
SEQEND
  8
0
  0
SOLID
  8
0
 62
    15
 10
3.779600
 20
3.096720
 11
4.411000
 21
2.727560
 12
3.590840
 22
3.015320
 13
4.222240
 23
2.646160
  0
POLYLINE
  8
0
  6
CONTINUOUS
 66
     1
 40
0.000000
 41
0.000000
  0
VERTEX
  8
0
  6
CONTINUOUS
 10
3.779600
 20
3.096720
  0
VERTEX
  8
0
  6
CONTINUOUS
 10
4.411000
 20
2.727560
  0
VERTEX
  8
0
  6
CONTINUOUS
 10
4.222240
 20
2.646160
  0
VERTEX
  8
0
  6
CONTINUOUS
 10
3.590840
 20
3.015320
  0
VERTEX
  8
0
  6
CONTINUOUS
 10
3.779600
 20
3.096720
  0
SEQEND
  8
0
  0
SOLID
  8
0
 62
    15
 10
3.590840
 20
3.015320
 11
4.222240
 21
2.646160
 12
3.398120
 22
2.912360
 13
4.029520
 23
2.543200
  0
POLYLINE
  8
0
  6
CONTINUOUS
 66
     1
 40
0.000000
 41
0.000000
  0
VERTEX
  8
0
  6
CONTINUOUS
 10
3.590840
 20
3.015320
  0
VERTEX
  8
0
  6
CONTINUOUS
 10
4.222240
 20
2.646160
  0
VERTEX
  8
0
  6
CONTINUOUS
 10
4.029520
 20
2.543200
  0
VERTEX
  8
0
  6
CONTINUOUS
 10
3.398120
 20
2.912360
  0
VERTEX
  8
0
  6
CONTINUOUS
 10
3.590840
 20
3.015320
  0
SEQEND
  8
0
  0
SOLID
  8
0
 62
    15
 10
3.398120
 20
2.912360
 11
4.029520
 21
2.543200
 12
3.203200
 22
2.787400
 13
3.834600
 23
2.418240
  0
POLYLINE
  8
0
  6
CONTINUOUS
 66
     1
 40
0.000000
 41
0.000000
  0
VERTEX
  8
0
  6
CONTINUOUS
 10
3.398120
 20
2.912360
  0
VERTEX
  8
0
  6
CONTINUOUS
 10
4.029520
 20
2.543200
  0
VERTEX
  8
0
  6
CONTINUOUS
 10
3.834600
 20
2.418240
  0
VERTEX
  8
0
  6
CONTINUOUS
 10
3.203200
 20
2.787400
  0
VERTEX
  8
0
  6
CONTINUOUS
 10
3.398120
 20
2.912360
  0
SEQEND
  8
0
  0
SOLID
  8
0
 62
    15
 10
3.203200
 20
2.787400
 11
3.834600
 21
2.418240
 12
3.007840
 22
2.640000
 13
3.639240
 23
2.270840
  0
POLYLINE
  8
0
  6
CONTINUOUS
 66
     1
 40
0.000000
 41
0.000000
  0
VERTEX
  8
0
  6
CONTINUOUS
 10
3.203200
 20
2.787400
  0
VERTEX
  8
0
  6
CONTINUOUS
 10
3.834600
 20
2.418240
  0
VERTEX
  8
0
  6
CONTINUOUS
 10
3.639240
 20
2.270840
  0
VERTEX
  8
0
  6
CONTINUOUS
 10
3.007840
 20
2.640000
  0
VERTEX
  8
0
  6
CONTINUOUS
 10
3.203200
 20
2.787400
  0
SEQEND
  8
0
  0
SOLID
  8
0
 62
    15
 10
5.616160
 20
3.571480
 11
6.247560
 21
3.202320
 12
5.616160
 22
2.642640
 13
6.247560
 23
2.273040
  0
POLYLINE
  8
0
  6
CONTINUOUS
 66
     1
 40
0.000000
 41
0.000000
  0
VERTEX
  8
0
  6
CONTINUOUS
 10
5.616160
 20
3.571480
  0
VERTEX
  8
0
  6
CONTINUOUS
 10
6.247560
 20
3.202320
  0
VERTEX
  8
0
  6
CONTINUOUS
 10
6.247560
 20
2.273040
  0
VERTEX
  8
0
  6
CONTINUOUS
 10
5.616160
 20
2.642640
  0
VERTEX
  8
0
  6
CONTINUOUS
 10
5.616160
 20
3.571480
  0
SEQEND
  8
0
  0
SOLID
  8
0
 62
    15
 10
3.006520
 20
2.638680
 11
3.637920
 21
2.269520
 12
2.989800
 22
2.625480
 13
3.621200
 23
2.256320
  0
POLYLINE
  8
0
  6
CONTINUOUS
 66
     1
 40
0.000000
 41
0.000000
  0
VERTEX
  8
0
  6
CONTINUOUS
 10
3.006520
 20
2.638680
  0
VERTEX
  8
0
  6
CONTINUOUS
 10
3.637920
 20
2.269520
  0
VERTEX
  8
0
  6
CONTINUOUS
 10
3.621200
 20
2.256320
  0
VERTEX
  8
0
  6
CONTINUOUS
 10
2.989800
 20
2.625480
  0
VERTEX
  8
0
  6
CONTINUOUS
 10
3.006520
 20
2.638680
  0
SEQEND
  8
0
  0
SOLID
  8
0
 62
    15
 10
2.989800
 20
2.625480
 11
3.621200
 21
2.256320
 12
2.867040
 22
2.513280
 13
3.498440
 23
2.144120
  0
POLYLINE
  8
0
  6
CONTINUOUS
 66
     1
 40
0.000000
 41
0.000000
  0
VERTEX
  8
0
  6
CONTINUOUS
 10
2.989800
 20
2.625480
  0
VERTEX
  8
0
  6
CONTINUOUS
 10
3.621200
 20
2.256320
  0
VERTEX
  8
0
  6
CONTINUOUS
 10
3.498440
 20
2.144120
  0
VERTEX
  8
0
  6
CONTINUOUS
 10
2.867040
 20
2.513280
  0
VERTEX
  8
0
  6
CONTINUOUS
 10
2.989800
 20
2.625480
  0
SEQEND
  8
0
  0
SOLID
  8
0
 62
    15
 10
2.867040
 20
2.513280
 11
3.498440
 21
2.144120
 12
2.756600
 22
2.396680
 13
3.388440
 23
2.027520
  0
POLYLINE
  8
0
  6
CONTINUOUS
 66
     1
 40
0.000000
 41
0.000000
  0
VERTEX
  8
0
  6
CONTINUOUS
 10
2.867040
 20
2.513280
  0
VERTEX
  8
0
  6
CONTINUOUS
 10
3.498440
 20
2.144120
  0
VERTEX
  8
0
  6
CONTINUOUS
 10
3.388440
 20
2.027520
  0
VERTEX
  8
0
  6
CONTINUOUS
 10
2.756600
 20
2.396680
  0
VERTEX
  8
0
  6
CONTINUOUS
 10
2.867040
 20
2.513280
  0
SEQEND
  8
0
  0
SOLID
  8
0
 62
    15
 10
2.756600
 20
2.396680
 11
3.388440
 21
2.027520
 12
2.659800
 22
2.274800
 13
3.291200
 23
1.905640
  0
POLYLINE
  8
0
  6
CONTINUOUS
 66
     1
 40
0.000000
 41
0.000000
  0
VERTEX
  8
0
  6
CONTINUOUS
 10
2.756600
 20
2.396680
  0
VERTEX
  8
0
  6
CONTINUOUS
 10
3.388440
 20
2.027520
  0
VERTEX
  8
0
  6
CONTINUOUS
 10
3.291200
 20
1.905640
  0
VERTEX
  8
0
  6
CONTINUOUS
 10
2.659800
 20
2.274800
  0
VERTEX
  8
0
  6
CONTINUOUS
 10
2.756600
 20
2.396680
  0
SEQEND
  8
0
  0
SOLID
  8
0
 62
    15
 10
2.659800
 20
2.274800
 11
3.291200
 21
1.905640
 12
2.577520
 22
2.146320
 13
3.208920
 23
1.777160
  0
POLYLINE
  8
0
  6
CONTINUOUS
 66
     1
 40
0.000000
 41
0.000000
  0
VERTEX
  8
0
  6
CONTINUOUS
 10
2.659800
 20
2.274800
  0
VERTEX
  8
0
  6
CONTINUOUS
 10
3.291200
 20
1.905640
  0
VERTEX
  8
0
  6
CONTINUOUS
 10
3.208920
 20
1.777160
  0
VERTEX
  8
0
  6
CONTINUOUS
 10
2.577520
 20
2.146320
  0
VERTEX
  8
0
  6
CONTINUOUS
 10
2.659800
 20
2.274800
  0
SEQEND
  8
0
  0
SOLID
  8
0
 62
    15
 10
2.577520
 20
2.146320
 11
3.208920
 21
1.777160
 12
2.509760
 22
2.009040
 13
3.141160
 23
1.639880
  0
POLYLINE
  8
0
  6
CONTINUOUS
 66
     1
 40
0.000000
 41
0.000000
  0
VERTEX
  8
0
  6
CONTINUOUS
 10
2.577520
 20
2.146320
  0
VERTEX
  8
0
  6
CONTINUOUS
 10
3.208920
 20
1.777160
  0
VERTEX
  8
0
  6
CONTINUOUS
 10
3.141160
 20
1.639880
  0
VERTEX
  8
0
  6
CONTINUOUS
 10
2.509760
 20
2.009040
  0
VERTEX
  8
0
  6
CONTINUOUS
 10
2.577520
 20
2.146320
  0
SEQEND
  8
0
  0
SOLID
  8
0
 62
    15
 10
2.509760
 20
2.009040
 11
3.141160
 21
1.639880
 12
2.457840
 22
1.862520
 13
3.089240
 23
1.493360
  0
POLYLINE
  8
0
  6
CONTINUOUS
 66
     1
 40
0.000000
 41
0.000000
  0
VERTEX
  8
0
  6
CONTINUOUS
 10
2.509760
 20
2.009040
  0
VERTEX
  8
0
  6
CONTINUOUS
 10
3.141160
 20
1.639880
  0
VERTEX
  8
0
  6
CONTINUOUS
 10
3.089240
 20
1.493360
  0
VERTEX
  8
0
  6
CONTINUOUS
 10
2.457840
 20
1.862520
  0
VERTEX
  8
0
  6
CONTINUOUS
 10
2.509760
 20
2.009040
  0
SEQEND
  8
0
  0
SOLID
  8
0
 62
    15
 10
2.457840
 20
1.862520
 11
3.089240
 21
1.493360
 12
2.423080
 22
1.704560
 13
3.054480
 23
1.335400
  0
POLYLINE
  8
0
  6
CONTINUOUS
 66
     1
 40
0.000000
 41
0.000000
  0
VERTEX
  8
0
  6
CONTINUOUS
 10
2.457840
 20
1.862520
  0
VERTEX
  8
0
  6
CONTINUOUS
 10
3.089240
 20
1.493360
  0
VERTEX
  8
0
  6
CONTINUOUS
 10
3.054480
 20
1.335400
  0
VERTEX
  8
0
  6
CONTINUOUS
 10
2.423080
 20
1.704560
  0
VERTEX
  8
0
  6
CONTINUOUS
 10
2.457840
 20
1.862520
  0
SEQEND
  8
0
  0
SOLID
  8
0
 62
    15
 10
2.423080
 20
1.704560
 11
3.054480
 21
1.335400
 12
2.405480
 22
1.533840
 13
3.036880
 23
1.164680
  0
POLYLINE
  8
0
  6
CONTINUOUS
 66
     1
 40
0.000000
 41
0.000000
  0
VERTEX
  8
0
  6
CONTINUOUS
 10
2.423080
 20
1.704560
  0
VERTEX
  8
0
  6
CONTINUOUS
 10
3.054480
 20
1.335400
  0
VERTEX
  8
0
  6
CONTINUOUS
 10
3.036880
 20
1.164680
  0
VERTEX
  8
0
  6
CONTINUOUS
 10
2.405480
 20
1.533840
  0
VERTEX
  8
0
  6
CONTINUOUS
 10
2.423080
 20
1.704560
  0
SEQEND
  8
0
  0
SOLID
  8
0
 62
    15
 10
2.405480
 20
1.533840
 11
3.036880
 21
1.164680
 12
2.400200
 22
1.533400
 13
3.031600
 23
1.164240
  0
POLYLINE
  8
0
  6
CONTINUOUS
 66
     1
 40
0.000000
 41
0.000000
  0
VERTEX
  8
0
  6
CONTINUOUS
 10
2.405480
 20
1.533840
  0
VERTEX
  8
0
  6
CONTINUOUS
 10
3.036880
 20
1.164680
  0
VERTEX
  8
0
  6
CONTINUOUS
 10
3.031600
 20
1.164240
  0
VERTEX
  8
0
  6
CONTINUOUS
 10
2.400200
 20
1.533400
  0
VERTEX
  8
0
  6
CONTINUOUS
 10
2.405480
 20
1.533840
  0
SEQEND
  8
0
  0
SOLID
  8
0
 62
    15
 10
2.400200
 20
1.533400
 11
3.031600
 21
1.164240
 12
1.766160
 22
1.534280
 13
2.398000
 23
1.165120
  0
POLYLINE
  8
0
  6
CONTINUOUS
 66
     1
 40
0.000000
 41
0.000000
  0
VERTEX
  8
0
  6
CONTINUOUS
 10
2.400200
 20
1.533400
  0
VERTEX
  8
0
  6
CONTINUOUS
 10
3.031600
 20
1.164240
  0
VERTEX
  8
0
  6
CONTINUOUS
 10
2.398000
 20
1.165120
  0
VERTEX
  8
0
  6
CONTINUOUS
 10
1.766160
 20
1.534280
  0
VERTEX
  8
0
  6
CONTINUOUS
 10
2.400200
 20
1.533400
  0
SEQEND
  8
0
  0
SOLID
  8
0
 62
    15
 10
1.768360
 20
2.709520
 11
2.399760
 21
2.340360
 12
1.768360
 22
2.704240
 13
2.399760
 23
2.335080
  0
POLYLINE
  8
0
  6
CONTINUOUS
 66
     1
 40
0.000000
 41
0.000000
  0
VERTEX
  8
0
  6
CONTINUOUS
 10
1.768360
 20
2.709520
  0
VERTEX
  8
0
  6
CONTINUOUS
 10
2.399760
 20
2.340360
  0
VERTEX
  8
0
  6
CONTINUOUS
 10
2.399760
 20
2.335080
  0
VERTEX
  8
0
  6
CONTINUOUS
 10
1.768360
 20
2.704240
  0
VERTEX
  8
0
  6
CONTINUOUS
 10
1.768360
 20
2.709520
  0
SEQEND
  8
0
  0
SOLID
  8
0
 62
    15
 10
4.465560
 20
3.222560
 11
5.096960
 21
2.853400
 12
4.307600
 22
3.219920
 13
4.939000
 23
2.850760
  0
POLYLINE
  8
0
  6
CONTINUOUS
 66
     1
 40
0.000000
 41
0.000000
  0
VERTEX
  8
0
  6
CONTINUOUS
 10
4.465560
 20
3.222560
  0
VERTEX
  8
0
  6
CONTINUOUS
 10
5.096960
 20
2.853400
  0
VERTEX
  8
0
  6
CONTINUOUS
 10
4.939000
 20
2.850760
  0
VERTEX
  8
0
  6
CONTINUOUS
 10
4.307600
 20
3.219920
  0
VERTEX
  8
0
  6
CONTINUOUS
 10
4.465560
 20
3.222560
  0
SEQEND
  8
0
  0
POLYLINE
  8
0
  6
CONTINUOUS
 66
     1
 40
0.000000
 41
0.000000
  0
VERTEX
  8
0
  6
CONTINUOUS
 10
3.809960
 20
3.571480
  0
VERTEX
  8
0
  6
CONTINUOUS
 10
5.616160
 20
3.571480
  0
VERTEX
  8
0
  6
CONTINUOUS
 10
5.616160
 20
2.642640
  0
VERTEX
  8
0
  6
CONTINUOUS
 10
5.616600
 20
2.639120
  0
VERTEX
  8
0
  6
CONTINUOUS
 10
5.177920
 20
2.639120
  0
VERTEX
  8
0
  6
CONTINUOUS
 10
5.177920
 20
2.647040
  0
VERTEX
  8
0
  6
CONTINUOUS
 10
5.178360
 20
2.647480
  0
VERTEX
  8
0
  6
CONTINUOUS
 10
5.157240
 20
2.771560
  0
VERTEX
  8
0
  6
CONTINUOUS
 10
5.113680
 20
2.881560
  0
VERTEX
  8
0
  6
CONTINUOUS
 10
5.049440
 20
2.977920
  0
VERTEX
  8
0
  6
CONTINUOUS
 10
4.965400
 20
3.059320
  0
VERTEX
  8
0
  6
CONTINUOUS
 10
4.863320
 20
3.124880
  0
VERTEX
  8
0
  6
CONTINUOUS
 10
4.744960
 20
3.174600
  0
VERTEX
  8
0
  6
CONTINUOUS
 10
4.612080
 20
3.207160
  0
VERTEX
  8
0
  6
CONTINUOUS
 10
4.465560
 20
3.222560
  0
VERTEX
  8
0
  6
CONTINUOUS
 10
4.307600
 20
3.219920
  0
VERTEX
  8
0
  6
CONTINUOUS
 10
4.139520
 20
3.198360
  0
VERTEX
  8
0
  6
CONTINUOUS
 10
3.963080
 20
3.157880
  0
VERTEX
  8
0
  6
CONTINUOUS
 10
3.779600
 20
3.096720
  0
VERTEX
  8
0
  6
CONTINUOUS
 10
3.590840
 20
3.015320
  0
VERTEX
  8
0
  6
CONTINUOUS
 10
3.398120
 20
2.912360
  0
VERTEX
  8
0
  6
CONTINUOUS
 10
3.203200
 20
2.787400
  0
VERTEX
  8
0
  6
CONTINUOUS
 10
3.007840
 20
2.640000
  0
VERTEX
  8
0
  6
CONTINUOUS
 10
3.006520
 20
2.638680
  0
VERTEX
  8
0
  6
CONTINUOUS
 10
2.989800
 20
2.625480
  0
VERTEX
  8
0
  6
CONTINUOUS
 10
2.867040
 20
2.513280
  0
VERTEX
  8
0
  6
CONTINUOUS
 10
2.756600
 20
2.396680
  0
VERTEX
  8
0
  6
CONTINUOUS
 10
2.659800
 20
2.274800
  0
VERTEX
  8
0
  6
CONTINUOUS
 10
2.577520
 20
2.146320
  0
VERTEX
  8
0
  6
CONTINUOUS
 10
2.509760
 20
2.009040
  0
VERTEX
  8
0
  6
CONTINUOUS
 10
2.457840
 20
1.862520
  0
VERTEX
  8
0
  6
CONTINUOUS
 10
2.423080
 20
1.704560
  0
VERTEX
  8
0
  6
CONTINUOUS
 10
2.405480
 20
1.533840
  0
VERTEX
  8
0
  6
CONTINUOUS
 10
2.400200
 20
1.533400
  0
VERTEX
  8
0
  6
CONTINUOUS
 10
1.766160
 20
1.534280
  0
VERTEX
  8
0
  6
CONTINUOUS
 10
1.767920
 20
2.482480
  0
VERTEX
  8
0
  6
CONTINUOUS
 10
1.767920
 20
2.568720
  0
VERTEX
  8
0
  6
CONTINUOUS
 10
1.767920
 20
2.637800
  0
VERTEX
  8
0
  6
CONTINUOUS
 10
1.768360
 20
2.709520
  0
VERTEX
  8
0
  6
CONTINUOUS
 10
1.768360
 20
2.704240
  0
VERTEX
  8
0
  6
CONTINUOUS
 10
3.809960
 20
3.571920
  0
VERTEX
  8
0
  6
CONTINUOUS
 10
3.809960
 20
3.571480
  0
SEQEND
  8
0
  0
SOLID
  8
0
 62
    15
 10
6.345240
 20
3.428480
 11
6.989840
 21
3.050520
 12
6.300360
 22
3.360720
 13
6.944960
 23
2.982320
  0
POLYLINE
  8
0
  6
CONTINUOUS
 66
     1
 40
0.000000
 41
0.000000
  0
VERTEX
  8
0
  6
CONTINUOUS
 10
6.345240
 20
3.428480
  0
VERTEX
  8
0
  6
CONTINUOUS
 10
6.989840
 20
3.050520
  0
VERTEX
  8
0
  6
CONTINUOUS
 10
6.944960
 20
2.982320
  0
VERTEX
  8
0
  6
CONTINUOUS
 10
6.300360
 20
3.360720
  0
VERTEX
  8
0
  6
CONTINUOUS
 10
6.345240
 20
3.428480
  0
SEQEND
  8
0
  0
SOLID
  8
0
 62
    15
 10
6.944960
 20
4.262720
 11
7.590000
 21
3.884760
 12
6.874120
 22
4.261400
 13
7.518720
 23
3.883440
  0
POLYLINE
  8
0
  6
CONTINUOUS
 66
     1
 40
0.000000
 41
0.000000
  0
VERTEX
  8
0
  6
CONTINUOUS
 10
6.944960
 20
4.262720
  0
VERTEX
  8
0
  6
CONTINUOUS
 10
7.590000
 20
3.884760
  0
VERTEX
  8
0
  6
CONTINUOUS
 10
7.518720
 20
3.883440
  0
VERTEX
  8
0
  6
CONTINUOUS
 10
6.874120
 20
4.261400
  0
VERTEX
  8
0
  6
CONTINUOUS
 10
6.944960
 20
4.262720
  0
SEQEND
  8
0
  0
SOLID
  8
0
 62
    15
 10
6.874120
 20
4.261400
 11
7.518720
 21
3.883440
 12
6.809880
 22
4.255240
 13
7.454480
 23
3.877280
  0
POLYLINE
  8
0
  6
CONTINUOUS
 66
     1
 40
0.000000
 41
0.000000
  0
VERTEX
  8
0
  6
CONTINUOUS
 10
6.874120
 20
4.261400
  0
VERTEX
  8
0
  6
CONTINUOUS
 10
7.518720
 20
3.883440
  0
VERTEX
  8
0
  6
CONTINUOUS
 10
7.454480
 20
3.877280
  0
VERTEX
  8
0
  6
CONTINUOUS
 10
6.809880
 20
4.255240
  0
VERTEX
  8
0
  6
CONTINUOUS
 10
6.874120
 20
4.261400
  0
SEQEND
  8
0
  0
SOLID
  8
0
 62
    15
 10
6.809880
 20
4.255240
 11
7.454480
 21
3.877280
 12
6.751800
 22
4.244680
 13
7.396400
 23
3.866280
  0
POLYLINE
  8
0
  6
CONTINUOUS
 66
     1
 40
0.000000
 41
0.000000
  0
VERTEX
  8
0
  6
CONTINUOUS
 10
6.809880
 20
4.255240
  0
VERTEX
  8
0
  6
CONTINUOUS
 10
7.454480
 20
3.877280
  0
VERTEX
  8
0
  6
CONTINUOUS
 10
7.396400
 20
3.866280
  0
VERTEX
  8
0
  6
CONTINUOUS
 10
6.751800
 20
4.244680
  0
VERTEX
  8
0
  6
CONTINUOUS
 10
6.809880
 20
4.255240
  0
SEQEND
  8
0
  0
SOLID
  8
0
 62
    15
 10
6.751800
 20
4.244680
 11
7.396400
 21
3.866280
 12
6.700320
 22
4.229280
 13
7.344920
 23
3.850880
  0
POLYLINE
  8
0
  6
CONTINUOUS
 66
     1
 40
0.000000
 41
0.000000
  0
VERTEX
  8
0
  6
CONTINUOUS
 10
6.751800
 20
4.244680
  0
VERTEX
  8
0
  6
CONTINUOUS
 10
7.396400
 20
3.866280
  0
VERTEX
  8
0
  6
CONTINUOUS
 10
7.344920
 20
3.850880
  0
VERTEX
  8
0
  6
CONTINUOUS
 10
6.700320
 20
4.229280
  0
VERTEX
  8
0
  6
CONTINUOUS
 10
6.751800
 20
4.244680
  0
SEQEND
  8
0
  0
SOLID
  8
0
 62
    15
 10
6.700320
 20
4.229280
 11
7.344920
 21
3.850880
 12
6.654560
 22
4.209040
 13
7.299160
 23
3.831080
  0
POLYLINE
  8
0
  6
CONTINUOUS
 66
     1
 40
0.000000
 41
0.000000
  0
VERTEX
  8
0
  6
CONTINUOUS
 10
6.700320
 20
4.229280
  0
VERTEX
  8
0
  6
CONTINUOUS
 10
7.344920
 20
3.850880
  0
VERTEX
  8
0
  6
CONTINUOUS
 10
7.299160
 20
3.831080
  0
VERTEX
  8
0
  6
CONTINUOUS
 10
6.654560
 20
4.209040
  0
VERTEX
  8
0
  6
CONTINUOUS
 10
6.700320
 20
4.229280
  0
SEQEND
  8
0
  0
SOLID
  8
0
 62
    15
 10
6.654560
 20
4.209040
 11
7.299160
 21
3.831080
 12
6.614080
 22
4.184840
 13
7.258680
 23
3.806880
  0
POLYLINE
  8
0
  6
CONTINUOUS
 66
     1
 40
0.000000
 41
0.000000
  0
VERTEX
  8
0
  6
CONTINUOUS
 10
6.654560
 20
4.209040
  0
VERTEX
  8
0
  6
CONTINUOUS
 10
7.299160
 20
3.831080
  0
VERTEX
  8
0
  6
CONTINUOUS
 10
7.258680
 20
3.806880
  0
VERTEX
  8
0
  6
CONTINUOUS
 10
6.614080
 20
4.184840
  0
VERTEX
  8
0
  6
CONTINUOUS
 10
6.654560
 20
4.209040
  0
SEQEND
  8
0
  0
SOLID
  8
0
 62
    15
 10
6.614080
 20
4.184840
 11
7.258680
 21
3.806880
 12
6.547640
 22
4.123680
 13
7.192240
 23
3.745720
  0
POLYLINE
  8
0
  6
CONTINUOUS
 66
     1
 40
0.000000
 41
0.000000
  0
VERTEX
  8
0
  6
CONTINUOUS
 10
6.614080
 20
4.184840
  0
VERTEX
  8
0
  6
CONTINUOUS
 10
7.258680
 20
3.806880
  0
VERTEX
  8
0
  6
CONTINUOUS
 10
7.192240
 20
3.745720
  0
VERTEX
  8
0
  6
CONTINUOUS
 10
6.547640
 20
4.123680
  0
VERTEX
  8
0
  6
CONTINUOUS
 10
6.614080
 20
4.184840
  0
SEQEND
  8
0
  0
SOLID
  8
0
 62
    15
 10
6.547640
 20
4.123680
 11
7.192240
 21
3.745720
 12
6.498360
 22
4.046680
 13
7.142960
 23
3.668280
  0
POLYLINE
  8
0
  6
CONTINUOUS
 66
     1
 40
0.000000
 41
0.000000
  0
VERTEX
  8
0
  6
CONTINUOUS
 10
6.547640
 20
4.123680
  0
VERTEX
  8
0
  6
CONTINUOUS
 10
7.192240
 20
3.745720
  0
VERTEX
  8
0
  6
CONTINUOUS
 10
7.142960
 20
3.668280
  0
VERTEX
  8
0
  6
CONTINUOUS
 10
6.498360
 20
4.046680
  0
VERTEX
  8
0
  6
CONTINUOUS
 10
6.547640
 20
4.123680
  0
SEQEND
  8
0
  0
SOLID
  8
0
 62
    15
 10
6.498360
 20
4.046680
 11
7.142960
 21
3.668280
 12
6.463160
 22
3.954720
 13
7.107760
 23
3.576320
  0
POLYLINE
  8
0
  6
CONTINUOUS
 66
     1
 40
0.000000
 41
0.000000
  0
VERTEX
  8
0
  6
CONTINUOUS
 10
6.498360
 20
4.046680
  0
VERTEX
  8
0
  6
CONTINUOUS
 10
7.142960
 20
3.668280
  0
VERTEX
  8
0
  6
CONTINUOUS
 10
7.107760
 20
3.576320
  0
VERTEX
  8
0
  6
CONTINUOUS
 10
6.463160
 20
3.954720
  0
VERTEX
  8
0
  6
CONTINUOUS
 10
6.498360
 20
4.046680
  0
SEQEND
  8
0
  0
SOLID
  8
0
 62
     7
 10
6.463160
 20
3.954720
 11
7.107760
 21
3.576320
 12
6.439400
 22
3.848240
 13
7.084000
 23
3.469840
  0
POLYLINE
  8
0
  6
CONTINUOUS
 66
     1
 40
0.000000
 41
0.000000
  0
VERTEX
  8
0
  6
CONTINUOUS
 10
6.463160
 20
3.954720
  0
VERTEX
  8
0
  6
CONTINUOUS
 10
7.107760
 20
3.576320
  0
VERTEX
  8
0
  6
CONTINUOUS
 10
7.084000
 20
3.469840
  0
VERTEX
  8
0
  6
CONTINUOUS
 10
6.439400
 20
3.848240
  0
VERTEX
  8
0
  6
CONTINUOUS
 10
6.463160
 20
3.954720
  0
SEQEND
  8
0
  0
SOLID
  8
0
 62
     7
 10
6.439400
 20
3.848240
 11
7.084000
 21
3.469840
 12
6.423560
 22
3.728560
 13
7.068160
 23
3.350160
  0
POLYLINE
  8
0
  6
CONTINUOUS
 66
     1
 40
0.000000
 41
0.000000
  0
VERTEX
  8
0
  6
CONTINUOUS
 10
6.439400
 20
3.848240
  0
VERTEX
  8
0
  6
CONTINUOUS
 10
7.084000
 20
3.469840
  0
VERTEX
  8
0
  6
CONTINUOUS
 10
7.068160
 20
3.350160
  0
VERTEX
  8
0
  6
CONTINUOUS
 10
6.423560
 20
3.728560
  0
VERTEX
  8
0
  6
CONTINUOUS
 10
6.439400
 20
3.848240
  0
SEQEND
  8
0
  0
SOLID
  8
0
 62
     7
 10
6.423560
 20
3.728560
 11
7.068160
 21
3.350160
 12
6.406400
 22
3.611520
 13
7.051000
 23
3.233560
  0
POLYLINE
  8
0
  6
CONTINUOUS
 66
     1
 40
0.000000
 41
0.000000
  0
VERTEX
  8
0
  6
CONTINUOUS
 10
6.423560
 20
3.728560
  0
VERTEX
  8
0
  6
CONTINUOUS
 10
7.068160
 20
3.350160
  0
VERTEX
  8
0
  6
CONTINUOUS
 10
7.051000
 20
3.233560
  0
VERTEX
  8
0
  6
CONTINUOUS
 10
6.406400
 20
3.611520
  0
VERTEX
  8
0
  6
CONTINUOUS
 10
6.423560
 20
3.728560
  0
SEQEND
  8
0
  0
SOLID
  8
0
 62
    15
 10
6.406400
 20
3.611520
 11
7.051000
 21
3.233560
 12
6.380440
 22
3.512080
 13
7.025040
 23
3.133680
  0
POLYLINE
  8
0
  6
CONTINUOUS
 66
     1
 40
0.000000
 41
0.000000
  0
VERTEX
  8
0
  6
CONTINUOUS
 10
6.406400
 20
3.611520
  0
VERTEX
  8
0
  6
CONTINUOUS
 10
7.051000
 20
3.233560
  0
VERTEX
  8
0
  6
CONTINUOUS
 10
7.025040
 20
3.133680
  0
VERTEX
  8
0
  6
CONTINUOUS
 10
6.380440
 20
3.512080
  0
VERTEX
  8
0
  6
CONTINUOUS
 10
6.406400
 20
3.611520
  0
SEQEND
  8
0
  0
SOLID
  8
0
 62
    15
 10
6.380440
 20
3.512080
 11
7.025040
 21
3.133680
 12
6.345240
 22
3.428480
 13
6.989840
 23
3.050520
  0
POLYLINE
  8
0
  6
CONTINUOUS
 66
     1
 40
0.000000
 41
0.000000
  0
VERTEX
  8
0
  6
CONTINUOUS
 10
6.380440
 20
3.512080
  0
VERTEX
  8
0
  6
CONTINUOUS
 10
7.025040
 20
3.133680
  0
VERTEX
  8
0
  6
CONTINUOUS
 10
6.989840
 20
3.050520
  0
VERTEX
  8
0
  6
CONTINUOUS
 10
6.345240
 20
3.428480
  0
VERTEX
  8
0
  6
CONTINUOUS
 10
6.380440
 20
3.512080
  0
SEQEND
  8
0
  0
SOLID
  8
0
 62
    15
 10
6.944520
 20
4.543440
 11
7.589120
 21
4.165040
 12
6.944960
 22
4.262720
 13
7.590000
 23
3.884760
  0
POLYLINE
  8
0
  6
CONTINUOUS
 66
     1
 40
0.000000
 41
0.000000
  0
VERTEX
  8
0
  6
CONTINUOUS
 10
6.944520
 20
4.543440
  0
VERTEX
  8
0
  6
CONTINUOUS
 10
7.589120
 20
4.165040
  0
VERTEX
  8
0
  6
CONTINUOUS
 10
7.590000
 20
3.884760
  0
VERTEX
  8
0
  6
CONTINUOUS
 10
6.944960
 20
4.262720
  0
VERTEX
  8
0
  6
CONTINUOUS
 10
6.944520
 20
4.543440
  0
SEQEND
  8
0
  0
SOLID
  8
0
 62
    15
 10
6.300360
 20
3.360720
 11
6.944960
 21
2.982320
 12
6.245800
 22
3.307480
 13
6.890400
 23
2.929520
  0
POLYLINE
  8
0
  6
CONTINUOUS
 66
     1
 40
0.000000
 41
0.000000
  0
VERTEX
  8
0
  6
CONTINUOUS
 10
6.300360
 20
3.360720
  0
VERTEX
  8
0
  6
CONTINUOUS
 10
6.944960
 20
2.982320
  0
VERTEX
  8
0
  6
CONTINUOUS
 10
6.890400
 20
2.929520
  0
VERTEX
  8
0
  6
CONTINUOUS
 10
6.245800
 20
3.307480
  0
VERTEX
  8
0
  6
CONTINUOUS
 10
6.300360
 20
3.360720
  0
SEQEND
  8
0
  0
SOLID
  8
0
 62
    15
 10
6.245800
 20
3.307480
 11
6.890400
 21
2.929520
 12
6.181560
 22
3.268320
 13
6.826160
 23
2.889920
  0
POLYLINE
  8
0
  6
CONTINUOUS
 66
     1
 40
0.000000
 41
0.000000
  0
VERTEX
  8
0
  6
CONTINUOUS
 10
6.245800
 20
3.307480
  0
VERTEX
  8
0
  6
CONTINUOUS
 10
6.890400
 20
2.929520
  0
VERTEX
  8
0
  6
CONTINUOUS
 10
6.826160
 20
2.889920
  0
VERTEX
  8
0
  6
CONTINUOUS
 10
6.181560
 20
3.268320
  0
VERTEX
  8
0
  6
CONTINUOUS
 10
6.245800
 20
3.307480
  0
SEQEND
  8
0
  0
SOLID
  8
0
 62
    15
 10
6.181560
 20
3.268320
 11
6.826160
 21
2.889920
 12
6.107200
 22
3.241920
 13
6.751800
 23
2.863520
  0
POLYLINE
  8
0
  6
CONTINUOUS
 66
     1
 40
0.000000
 41
0.000000
  0
VERTEX
  8
0
  6
CONTINUOUS
 10
6.181560
 20
3.268320
  0
VERTEX
  8
0
  6
CONTINUOUS
 10
6.826160
 20
2.889920
  0
VERTEX
  8
0
  6
CONTINUOUS
 10
6.751800
 20
2.863520
  0
VERTEX
  8
0
  6
CONTINUOUS
 10
6.107200
 20
3.241920
  0
VERTEX
  8
0
  6
CONTINUOUS
 10
6.181560
 20
3.268320
  0
SEQEND
  8
0
  0
SOLID
  8
0
 62
    15
 10
6.107200
 20
3.241920
 11
6.751800
 21
2.863520
 12
6.022280
 22
3.227400
 13
6.666880
 23
2.849000
  0
POLYLINE
  8
0
  6
CONTINUOUS
 66
     1
 40
0.000000
 41
0.000000
  0
VERTEX
  8
0
  6
CONTINUOUS
 10
6.107200
 20
3.241920
  0
VERTEX
  8
0
  6
CONTINUOUS
 10
6.751800
 20
2.863520
  0
VERTEX
  8
0
  6
CONTINUOUS
 10
6.666880
 20
2.849000
  0
VERTEX
  8
0
  6
CONTINUOUS
 10
6.022280
 20
3.227400
  0
VERTEX
  8
0
  6
CONTINUOUS
 10
6.107200
 20
3.241920
  0
SEQEND
  8
0
  0
SOLID
  8
0
 62
     7
 10
6.022280
 20
3.227400
 11
6.666880
 21
2.849000
 12
6.018760
 22
3.155240
 13
6.663800
 23
2.776840
  0
POLYLINE
  8
0
  6
CONTINUOUS
 66
     1
 40
0.000000
 41
0.000000
  0
VERTEX
  8
0
  6
CONTINUOUS
 10
6.022280
 20
3.227400
  0
VERTEX
  8
0
  6
CONTINUOUS
 10
6.666880
 20
2.849000
  0
VERTEX
  8
0
  6
CONTINUOUS
 10
6.663800
 20
2.776840
  0
VERTEX
  8
0
  6
CONTINUOUS
 10
6.018760
 20
3.155240
  0
VERTEX
  8
0
  6
CONTINUOUS
 10
6.022280
 20
3.227400
  0
SEQEND
  8
0
  0
SOLID
  8
0
 62
    15
 10
6.018760
 20
3.155240
 11
6.663800
 21
2.776840
 12
5.983120
 22
3.147760
 13
6.627720
 23
2.769360
  0
POLYLINE
  8
0
  6
CONTINUOUS
 66
     1
 40
0.000000
 41
0.000000
  0
VERTEX
  8
0
  6
CONTINUOUS
 10
6.018760
 20
3.155240
  0
VERTEX
  8
0
  6
CONTINUOUS
 10
6.663800
 20
2.776840
  0
VERTEX
  8
0
  6
CONTINUOUS
 10
6.627720
 20
2.769360
  0
VERTEX
  8
0
  6
CONTINUOUS
 10
5.983120
 20
3.147760
  0
VERTEX
  8
0
  6
CONTINUOUS
 10
6.018760
 20
3.155240
  0
SEQEND
  8
0
  0
SOLID
  8
0
 62
    15
 10
5.983120
 20
3.147760
 11
6.627720
 21
2.769360
 12
5.950120
 22
3.133240
 13
6.594720
 23
2.754840
  0
POLYLINE
  8
0
  6
CONTINUOUS
 66
     1
 40
0.000000
 41
0.000000
  0
VERTEX
  8
0
  6
CONTINUOUS
 10
5.983120
 20
3.147760
  0
VERTEX
  8
0
  6
CONTINUOUS
 10
6.627720
 20
2.769360
  0
VERTEX
  8
0
  6
CONTINUOUS
 10
6.594720
 20
2.754840
  0
VERTEX
  8
0
  6
CONTINUOUS
 10
5.950120
 20
3.133240
  0
VERTEX
  8
0
  6
CONTINUOUS
 10
5.983120
 20
3.147760
  0
SEQEND
  8
0
  0
SOLID
  8
0
 62
    15
 10
5.950120
 20
3.133240
 11
6.594720
 21
2.754840
 12
5.920640
 22
3.112120
 13
6.565240
 23
2.734160
  0
POLYLINE
  8
0
  6
CONTINUOUS
 66
     1
 40
0.000000
 41
0.000000
  0
VERTEX
  8
0
  6
CONTINUOUS
 10
5.950120
 20
3.133240
  0
VERTEX
  8
0
  6
CONTINUOUS
 10
6.594720
 20
2.754840
  0
VERTEX
  8
0
  6
CONTINUOUS
 10
6.565240
 20
2.734160
  0
VERTEX
  8
0
  6
CONTINUOUS
 10
5.920640
 20
3.112120
  0
VERTEX
  8
0
  6
CONTINUOUS
 10
5.950120
 20
3.133240
  0
SEQEND
  8
0
  0
SOLID
  8
0
 62
    15
 10
5.920640
 20
3.112120
 11
6.565240
 21
2.734160
 12
5.895120
 22
3.085280
 13
6.540160
 23
2.707320
  0
POLYLINE
  8
0
  6
CONTINUOUS
 66
     1
 40
0.000000
 41
0.000000
  0
VERTEX
  8
0
  6
CONTINUOUS
 10
5.920640
 20
3.112120
  0
VERTEX
  8
0
  6
CONTINUOUS
 10
6.565240
 20
2.734160
  0
VERTEX
  8
0
  6
CONTINUOUS
 10
6.540160
 20
2.707320
  0
VERTEX
  8
0
  6
CONTINUOUS
 10
5.895120
 20
3.085280
  0
VERTEX
  8
0
  6
CONTINUOUS
 10
5.920640
 20
3.112120
  0
SEQEND
  8
0
  0
SOLID
  8
0
 62
    15
 10
5.895120
 20
3.085280
 11
6.540160
 21
2.707320
 12
5.875320
 22
3.052720
 13
6.519920
 23
2.674760
  0
POLYLINE
  8
0
  6
CONTINUOUS
 66
     1
 40
0.000000
 41
0.000000
  0
VERTEX
  8
0
  6
CONTINUOUS
 10
5.895120
 20
3.085280
  0
VERTEX
  8
0
  6
CONTINUOUS
 10
6.540160
 20
2.707320
  0
VERTEX
  8
0
  6
CONTINUOUS
 10
6.519920
 20
2.674760
  0
VERTEX
  8
0
  6
CONTINUOUS
 10
5.875320
 20
3.052720
  0
VERTEX
  8
0
  6
CONTINUOUS
 10
5.895120
 20
3.085280
  0
SEQEND
  8
0
  0
SOLID
  8
0
 62
    15
 10
5.875320
 20
3.052720
 11
6.519920
 21
2.674760
 12
5.861240
 22
3.015320
 13
6.506280
 23
2.636920
  0
POLYLINE
  8
0
  6
CONTINUOUS
 66
     1
 40
0.000000
 41
0.000000
  0
VERTEX
  8
0
  6
CONTINUOUS
 10
5.875320
 20
3.052720
  0
VERTEX
  8
0
  6
CONTINUOUS
 10
6.519920
 20
2.674760
  0
VERTEX
  8
0
  6
CONTINUOUS
 10
6.506280
 20
2.636920
  0
VERTEX
  8
0
  6
CONTINUOUS
 10
5.861240
 20
3.015320
  0
VERTEX
  8
0
  6
CONTINUOUS
 10
5.875320
 20
3.052720
  0
SEQEND
  8
0
  0
SOLID
  8
0
 62
     7
 10
5.861240
 20
3.015320
 11
6.506280
 21
2.636920
 12
5.854640
 22
2.972640
 13
6.499240
 23
2.594680
  0
POLYLINE
  8
0
  6
CONTINUOUS
 66
     1
 40
0.000000
 41
0.000000
  0
VERTEX
  8
0
  6
CONTINUOUS
 10
5.861240
 20
3.015320
  0
VERTEX
  8
0
  6
CONTINUOUS
 10
6.506280
 20
2.636920
  0
VERTEX
  8
0
  6
CONTINUOUS
 10
6.499240
 20
2.594680
  0
VERTEX
  8
0
  6
CONTINUOUS
 10
5.854640
 20
2.972640
  0
VERTEX
  8
0
  6
CONTINUOUS
 10
5.861240
 20
3.015320
  0
SEQEND
  8
0
  0
SOLID
  8
0
 62
     7
 10
5.854640
 20
2.972640
 11
6.499240
 21
2.594680
 12
5.855520
 22
2.926000
 13
6.500120
 23
2.548040
  0
POLYLINE
  8
0
  6
CONTINUOUS
 66
     1
 40
0.000000
 41
0.000000
  0
VERTEX
  8
0
  6
CONTINUOUS
 10
5.854640
 20
2.972640
  0
VERTEX
  8
0
  6
CONTINUOUS
 10
6.499240
 20
2.594680
  0
VERTEX
  8
0
  6
CONTINUOUS
 10
6.500120
 20
2.548040
  0
VERTEX
  8
0
  6
CONTINUOUS
 10
5.855520
 20
2.926000
  0
VERTEX
  8
0
  6
CONTINUOUS
 10
5.854640
 20
2.972640
  0
SEQEND
  8
0
  0
SOLID
  8
0
 62
    15
 10
5.855520
 20
2.926000
 11
6.500120
 21
2.548040
 12
5.615720
 22
2.926880
 13
6.260320
 23
2.548480
  0
POLYLINE
  8
0
  6
CONTINUOUS
 66
     1
 40
0.000000
 41
0.000000
  0
VERTEX
  8
0
  6
CONTINUOUS
 10
5.855520
 20
2.926000
  0
VERTEX
  8
0
  6
CONTINUOUS
 10
6.500120
 20
2.548040
  0
VERTEX
  8
0
  6
CONTINUOUS
 10
6.260320
 20
2.548480
  0
VERTEX
  8
0
  6
CONTINUOUS
 10
5.615720
 20
2.926880
  0
VERTEX
  8
0
  6
CONTINUOUS
 10
5.855520
 20
2.926000
  0
SEQEND
  8
0
  0
POLYLINE
  8
0
  6
CONTINUOUS
 66
     1
 40
0.000000
 41
0.000000
  0
VERTEX
  8
0
  6
CONTINUOUS
 10
6.048680
 20
3.934480
  0
VERTEX
  8
0
  6
CONTINUOUS
 10
6.481200
 20
4.521880
  0
VERTEX
  8
0
  6
CONTINUOUS
 10
6.944520
 20
4.543440
  0
VERTEX
  8
0
  6
CONTINUOUS
 10
6.944960
 20
4.262720
  0
VERTEX
  8
0
  6
CONTINUOUS
 10
6.874120
 20
4.261400
  0
VERTEX
  8
0
  6
CONTINUOUS
 10
6.809880
 20
4.255240
  0
VERTEX
  8
0
  6
CONTINUOUS
 10
6.751800
 20
4.244680
  0
VERTEX
  8
0
  6
CONTINUOUS
 10
6.700320
 20
4.229280
  0
VERTEX
  8
0
  6
CONTINUOUS
 10
6.654560
 20
4.209040
  0
VERTEX
  8
0
  6
CONTINUOUS
 10
6.614080
 20
4.184840
  0
VERTEX
  8
0
  6
CONTINUOUS
 10
6.547640
 20
4.123680
  0
VERTEX
  8
0
  6
CONTINUOUS
 10
6.498360
 20
4.046680
  0
VERTEX
  8
0
  6
CONTINUOUS
 10
6.463160
 20
3.954720
  0
VERTEX
  8
0
  6
CONTINUOUS
 10
6.439400
 20
3.848240
  0
VERTEX
  8
0
  6
CONTINUOUS
 10
6.423560
 20
3.728560
  0
VERTEX
  8
0
  6
CONTINUOUS
 10
6.406400
 20
3.611520
  0
VERTEX
  8
0
  6
CONTINUOUS
 10
6.380440
 20
3.512080
  0
VERTEX
  8
0
  6
CONTINUOUS
 10
6.345240
 20
3.428480
  0
VERTEX
  8
0
  6
CONTINUOUS
 10
6.300360
 20
3.360720
  0
VERTEX
  8
0
  6
CONTINUOUS
 10
6.245800
 20
3.307480
  0
VERTEX
  8
0
  6
CONTINUOUS
 10
6.181560
 20
3.268320
  0
VERTEX
  8
0
  6
CONTINUOUS
 10
6.107200
 20
3.241920
  0
VERTEX
  8
0
  6
CONTINUOUS
 10
6.022280
 20
3.227400
  0
VERTEX
  8
0
  6
CONTINUOUS
 10
6.018760
 20
3.155240
  0
VERTEX
  8
0
  6
CONTINUOUS
 10
5.983120
 20
3.147760
  0
VERTEX
  8
0
  6
CONTINUOUS
 10
5.950120
 20
3.133240
  0
VERTEX
  8
0
  6
CONTINUOUS
 10
5.920640
 20
3.112120
  0
VERTEX
  8
0
  6
CONTINUOUS
 10
5.895120
 20
3.085280
  0
VERTEX
  8
0
  6
CONTINUOUS
 10
5.875320
 20
3.052720
  0
VERTEX
  8
0
  6
CONTINUOUS
 10
5.861240
 20
3.015320
  0
VERTEX
  8
0
  6
CONTINUOUS
 10
5.854640
 20
2.972640
  0
VERTEX
  8
0
  6
CONTINUOUS
 10
5.855520
 20
2.926000
  0
VERTEX
  8
0
  6
CONTINUOUS
 10
5.615720
 20
2.926880
  0
VERTEX
  8
0
  6
CONTINUOUS
 10
5.616600
 20
3.347080
  0
VERTEX
  8
0
  6
CONTINUOUS
 10
6.048680
 20
3.934480
  0
SEQEND
  8
0
  0
TEXT
  8
0
 10
1.930720
 20
1.683000
 40
0.138049
  1
755
 41
1.000000
  7
SN0
 71
     0
 72
     5
 11
2.207769
 21
1.683000
  0
TEXT
  8
0
 10
5.826040
 20
3.347520
 40
0.138049
  1
754
 41
1.000000
  7
SN0
 71
     0
 72
     5
 11
6.103089
 21
3.347520
  0
LINE
  8
0
  6
DOT
 10
1.768360
 20
2.636480
 11
2.987600
 21
2.636480
  0
POLYLINE
  8
0
  6
CONTINUOUS
 66
     1
 40
0.000000
 41
0.000000
  0
VERTEX
  8
0
  6
CONTINUOUS
 10
3.390200
 20
5.995880
  0
VERTEX
  8
0
  6
CONTINUOUS
 10
2.171400
 20
5.996320
  0
VERTEX
  8
0
  6
CONTINUOUS
 10
2.171400
 20
6.925160
  0
VERTEX
  8
0
  6
CONTINUOUS
 10
6.017000
 20
6.925160
  0
VERTEX
  8
0
  6
CONTINUOUS
 10
6.013040
 20
6.914600
  0
VERTEX
  8
0
  6
CONTINUOUS
 10
6.013040
 20
6.408600
  0
VERTEX
  8
0
  6
CONTINUOUS
 10
6.015240
 20
6.410800
  0
VERTEX
  8
0
  6
CONTINUOUS
 10
6.015240
 20
5.995880
  0
VERTEX
  8
0
  6
CONTINUOUS
 10
5.579640
 20
5.995880
  0
VERTEX
  8
0
  6
CONTINUOUS
 10
5.579640
 20
5.994120
  0
VERTEX
  8
0
  6
CONTINUOUS
 10
5.572160
 20
6.057920
  0
VERTEX
  8
0
  6
CONTINUOUS
 10
5.558960
 20
6.118200
  0
VERTEX
  8
0
  6
CONTINUOUS
 10
5.550160
 20
6.146800
  0
VERTEX
  8
0
  6
CONTINUOUS
 10
5.528160
 20
6.202240
  0
VERTEX
  8
0
  6
CONTINUOUS
 10
5.515400
 20
6.228640
  0
VERTEX
  8
0
  6
CONTINUOUS
 10
5.485480
 20
6.278800
  0
VERTEX
  8
0
  6
CONTINUOUS
 10
5.450720
 20
6.325000
  0
VERTEX
  8
0
  6
CONTINUOUS
 10
5.411120
 20
6.367680
  0
VERTEX
  8
0
  6
CONTINUOUS
 10
5.366680
 20
6.406840
  0
VERTEX
  8
0
  6
CONTINUOUS
 10
5.317840
 20
6.442040
  0
VERTEX
  8
0
  6
CONTINUOUS
 10
5.264600
 20
6.473280
  0
VERTEX
  8
0
  6
CONTINUOUS
 10
5.207400
 20
6.500120
  0
VERTEX
  8
0
  6
CONTINUOUS
 10
5.146240
 20
6.523440
  0
VERTEX
  8
0
  6
CONTINUOUS
 10
5.081560
 20
6.542360
  0
VERTEX
  8
0
  6
CONTINUOUS
 10
5.013360
 20
6.556880
  0
VERTEX
  8
0
  6
CONTINUOUS
 10
4.941640
 20
6.567000
  0
VERTEX
  8
0
  6
CONTINUOUS
 10
4.866840
 20
6.572720
  0
VERTEX
  8
0
  6
CONTINUOUS
 10
4.789400
 20
6.574040
  0
VERTEX
  8
0
  6
CONTINUOUS
 10
4.708880
 20
6.570960
  0
VERTEX
  8
0
  6
CONTINUOUS
 10
4.626160
 20
6.563040
  0
VERTEX
  8
0
  6
CONTINUOUS
 10
4.540800
 20
6.550280
  0
VERTEX
  8
0
  6
CONTINUOUS
 10
4.453680
 20
6.532680
  0
VERTEX
  8
0
  6
CONTINUOUS
 10
4.364360
 20
6.509800
  0
VERTEX
  8
0
  6
CONTINUOUS
 10
4.273280
 20
6.482520
  0
VERTEX
  8
0
  6
CONTINUOUS
 10
4.180880
 20
6.449520
  0
VERTEX
  8
0
  6
CONTINUOUS
 10
4.086720
 20
6.411680
  0
VERTEX
  8
0
  6
CONTINUOUS
 10
3.991680
 20
6.368560
  0
VERTEX
  8
0
  6
CONTINUOUS
 10
3.895760
 20
6.320160
  0
VERTEX
  8
0
  6
CONTINUOUS
 10
3.798960
 20
6.266040
  0
VERTEX
  8
0
  6
CONTINUOUS
 10
3.701720
 20
6.206640
  0
VERTEX
  8
0
  6
CONTINUOUS
 10
3.604040
 20
6.141520
  0
VERTEX
  8
0
  6
CONTINUOUS
 10
3.506360
 20
6.070680
  0
VERTEX
  8
0
  6
CONTINUOUS
 10
3.408680
 20
5.994120
  0
VERTEX
  8
0
  6
CONTINUOUS
 10
3.390200
 20
5.995880
  0
SEQEND
  8
0
  0
POLYLINE
  8
0
  6
CONTINUOUS
 66
     1
 40
0.000000
 41
0.000000
  0
VERTEX
  8
0
  6
CONTINUOUS
 10
3.391960
 20
5.925040
  0
VERTEX
  8
0
  6
CONTINUOUS
 10
2.175360
 20
5.925040
  0
VERTEX
  8
0
  6
CONTINUOUS
 10
2.175360
 20
4.812720
  0
VERTEX
  8
0
  6
CONTINUOUS
 10
2.792240
 20
4.812720
  0
VERTEX
  8
0
  6
CONTINUOUS
 10
2.790040
 20
4.814920
  0
VERTEX
  8
0
  6
CONTINUOUS
 10
2.792680
 20
4.858920
  0
VERTEX
  8
0
  6
CONTINUOUS
 10
2.796640
 20
4.902040
  0
VERTEX
  8
0
  6
CONTINUOUS
 10
2.801920
 20
4.944280
  0
VERTEX
  8
0
  6
CONTINUOUS
 10
2.808080
 20
4.986080
  0
VERTEX
  8
0
  6
CONTINUOUS
 10
2.816000
 20
5.027000
  0
VERTEX
  8
0
  6
CONTINUOUS
 10
2.824360
 20
5.067040
  0
VERTEX
  8
0
  6
CONTINUOUS
 10
2.834040
 20
5.106640
  0
VERTEX
  8
0
  6
CONTINUOUS
 10
2.845040
 20
5.145360
  0
VERTEX
  8
0
  6
CONTINUOUS
 10
2.856920
 20
5.183640
  0
VERTEX
  8
0
  6
CONTINUOUS
 10
2.870120
 20
5.221040
  0
VERTEX
  8
0
  6
CONTINUOUS
 10
2.884200
 20
5.258000
  0
VERTEX
  8
0
  6
CONTINUOUS
 10
2.899160
 20
5.294080
  0
VERTEX
  8
0
  6
CONTINUOUS
 10
2.915440
 20
5.329720
  0
VERTEX
  8
0
  6
CONTINUOUS
 10
2.932600
 20
5.364920
  0
VERTEX
  8
0
  6
CONTINUOUS
 10
2.950640
 20
5.399240
  0
VERTEX
  8
0
  6
CONTINUOUS
 10
2.969560
 20
5.433560
  0
VERTEX
  8
0
  6
CONTINUOUS
 10
2.989800
 20
5.467000
  0
VERTEX
  8
0
  6
CONTINUOUS
 10
3.010480
 20
5.500000
  0
VERTEX
  8
0
  6
CONTINUOUS
 10
3.032480
 20
5.532120
  0
VERTEX
  8
0
  6
CONTINUOUS
 10
3.054920
 20
5.564240
  0
VERTEX
  8
0
  6
CONTINUOUS
 10
3.078680
 20
5.595920
  0
VERTEX
  8
0
  6
CONTINUOUS
 10
3.103320
 20
5.627160
  0
VERTEX
  8
0
  6
CONTINUOUS
 10
3.128400
 20
5.657960
  0
VERTEX
  8
0
  6
CONTINUOUS
 10
3.154360
 20
5.688320
  0
VERTEX
  8
0
  6
CONTINUOUS
 10
3.181200
 20
5.718240
  0
VERTEX
  8
0
  6
CONTINUOUS
 10
3.208920
 20
5.747720
  0
VERTEX
  8
0
  6
CONTINUOUS
 10
3.237520
 20
5.777200
  0
VERTEX
  8
0
  6
CONTINUOUS
 10
3.266560
 20
5.805800
  0
VERTEX
  8
0
  6
CONTINUOUS
 10
3.296480
 20
5.834400
  0
VERTEX
  8
0
  6
CONTINUOUS
 10
3.326840
 20
5.863000
  0
VERTEX
  8
0
  6
CONTINUOUS
 10
3.358080
 20
5.891160
  0
VERTEX
  8
0
  6
CONTINUOUS
 10
3.390200
 20
5.918880
  0
VERTEX
  8
0
  6
CONTINUOUS
 10
3.391960
 20
5.925040
  0
SEQEND
  8
0
  0
TEXT
  8
0
 10
6.242280
 20
6.680520
 40
0.138049
  1
754
 41
1.000000
  7
SN0
 71
     0
 72
     5
 11
6.519329
 21
6.680520
  0
TEXT
  8
0
 10
2.336400
 20
6.075960
 40
0.160837
  1
755A
 41
1.000000
  7
SN0
 71
     0
 72
     5
 11
2.787821
 21
6.075960
  0
TEXT
  8
0
 10
2.262040
 20
5.588440
 40
0.160837
  1
755B
 41
1.000000
  7
SN0
 71
     0
 72
     5
 11
2.713461
 21
5.588440
  0
POLYLINE
  8
0
  6
CONTINUOUS
 66
     1
 40
0.000000
 41
0.000000
  0
VERTEX
  8
0
  6
CONTINUOUS
 10
6.028440
 20
6.614520
  0
VERTEX
  8
0
  6
CONTINUOUS
 10
6.027560
 20
6.193880
  0
VERTEX
  8
0
  6
CONTINUOUS
 10
6.267360
 20
6.193440
  0
VERTEX
  8
0
  6
CONTINUOUS
 10
6.265600
 20
6.217200
  0
VERTEX
  8
0
  6
CONTINUOUS
 10
6.266480
 20
6.240080
  0
VERTEX
  8
0
  6
CONTINUOUS
 10
6.268680
 20
6.261640
  0
VERTEX
  8
0
  6
CONTINUOUS
 10
6.273080
 20
6.282320
  0
VERTEX
  8
0
  6
CONTINUOUS
 10
6.279240
 20
6.301680
  0
VERTEX
  8
0
  6
CONTINUOUS
 10
6.287160
 20
6.320160
  0
VERTEX
  8
0
  6
CONTINUOUS
 10
6.306960
 20
6.352720
  0
VERTEX
  8
0
  6
CONTINUOUS
 10
6.332480
 20
6.379560
  0
VERTEX
  8
0
  6
CONTINUOUS
 10
6.346560
 20
6.390560
  0
VERTEX
  8
0
  6
CONTINUOUS
 10
6.361960
 20
6.400240
  0
VERTEX
  8
0
  6
CONTINUOUS
 10
6.395400
 20
6.414760
  0
VERTEX
  8
0
  6
CONTINUOUS
 10
6.431040
 20
6.422240
  0
VERTEX
  8
0
  6
CONTINUOUS
 10
6.434120
 20
6.494840
  0
VERTEX
  8
0
  6
CONTINUOUS
 10
6.477680
 20
6.500560
  0
VERTEX
  8
0
  6
CONTINUOUS
 10
6.519040
 20
6.509360
  0
VERTEX
  8
0
  6
CONTINUOUS
 10
6.557320
 20
6.520800
  0
VERTEX
  8
0
  6
CONTINUOUS
 10
6.593400
 20
6.535760
  0
VERTEX
  8
0
  6
CONTINUOUS
 10
6.626840
 20
6.553800
  0
VERTEX
  8
0
  6
CONTINUOUS
 10
6.657640
 20
6.574920
  0
VERTEX
  8
0
  6
CONTINUOUS
 10
6.686240
 20
6.599560
  0
VERTEX
  8
0
  6
CONTINUOUS
 10
6.712200
 20
6.628160
  0
VERTEX
  8
0
  6
CONTINUOUS
 10
6.735520
 20
6.660280
  0
VERTEX
  8
0
  6
CONTINUOUS
 10
6.757080
 20
6.695920
  0
VERTEX
  8
0
  6
CONTINUOUS
 10
6.775560
 20
6.735520
  0
VERTEX
  8
0
  6
CONTINUOUS
 10
6.792280
 20
6.779080
  0
VERTEX
  8
0
  6
CONTINUOUS
 10
6.806360
 20
6.827040
  0
VERTEX
  8
0
  6
CONTINUOUS
 10
6.823520
 20
6.906680
  0
VERTEX
  8
0
  6
CONTINUOUS
 10
6.835400
 20
6.996000
  0
VERTEX
  8
0
  6
CONTINUOUS
 10
6.846400
 20
7.087080
  0
VERTEX
  8
0
  6
CONTINUOUS
 10
6.861800
 20
7.170240
  0
VERTEX
  8
0
  6
CONTINUOUS
 10
6.875000
 20
7.221720
  0
VERTEX
  8
0
  6
CONTINUOUS
 10
6.891280
 20
7.269680
  0
VERTEX
  8
0
  6
CONTINUOUS
 10
6.910200
 20
7.314120
  0
VERTEX
  8
0
  6
CONTINUOUS
 10
6.933080
 20
7.354600
  0
VERTEX
  8
0
  6
CONTINUOUS
 10
6.959480
 20
7.391120
  0
VERTEX
  8
0
  6
CONTINUOUS
 10
6.990280
 20
7.423680
  0
VERTEX
  8
0
  6
CONTINUOUS
 10
7.007440
 20
7.438640
  0
VERTEX
  8
0
  6
CONTINUOUS
 10
7.045280
 20
7.465040
  0
VERTEX
  8
0
  6
CONTINUOUS
 10
7.088840
 20
7.487040
  0
VERTEX
  8
0
  6
CONTINUOUS
 10
7.137240
 20
7.504640
  0
VERTEX
  8
0
  6
CONTINUOUS
 10
7.192240
 20
7.517840
  0
VERTEX
  8
0
  6
CONTINUOUS
 10
7.221720
 20
7.522680
  0
VERTEX
  8
0
  6
CONTINUOUS
 10
7.285960
 20
7.528840
  0
VERTEX
  8
0
  6
CONTINUOUS
 10
7.320720
 20
7.530160
  0
VERTEX
  8
0
  6
CONTINUOUS
 10
7.357240
 20
7.530160
  0
VERTEX
  8
0
  6
CONTINUOUS
 10
7.356360
 20
7.810440
  0
VERTEX
  8
0
  6
CONTINUOUS
 10
6.893040
 20
7.788880
  0
VERTEX
  8
0
  6
CONTINUOUS
 10
6.028440
 20
6.614520
  0
SEQEND
  8
0
  0
POLYLINE
  8
0
  6
CONTINUOUS
 66
     1
 40
0.000000
 41
0.000000
  0
VERTEX
  8
0
  6
CONTINUOUS
 10
5.022600
 20
7.342720
  0
VERTEX
  8
0
  6
CONTINUOUS
 10
5.360960
 20
7.592200
  0
VERTEX
  8
0
  6
CONTINUOUS
 10
5.218840
 20
7.785360
  0
VERTEX
  8
0
  6
CONTINUOUS
 10
5.200800
 20
7.769960
  0
VERTEX
  8
0
  6
CONTINUOUS
 10
5.181880
 20
7.756760
  0
VERTEX
  8
0
  6
CONTINUOUS
 10
5.162960
 20
7.745760
  0
VERTEX
  8
0
  6
CONTINUOUS
 10
5.143600
 20
7.736960
  0
VERTEX
  8
0
  6
CONTINUOUS
 10
5.124680
 20
7.730360
  0
VERTEX
  8
0
  6
CONTINUOUS
 10
5.105320
 20
7.725960
  0
VERTEX
  8
0
  6
CONTINUOUS
 10
5.085960
 20
7.723320
  0
VERTEX
  8
0
  6
CONTINUOUS
 10
5.067040
 20
7.722880
  0
VERTEX
  8
0
  6
CONTINUOUS
 10
5.048560
 20
7.723760
  0
VERTEX
  8
0
  6
CONTINUOUS
 10
5.030520
 20
7.726840
  0
VERTEX
  8
0
  6
CONTINUOUS
 10
5.012920
 20
7.731680
  0
VERTEX
  8
0
  6
CONTINUOUS
 10
4.995760
 20
7.738280
  0
VERTEX
  8
0
  6
CONTINUOUS
 10
4.964520
 20
7.756320
  0
VERTEX
  8
0
  6
CONTINUOUS
 10
4.937240
 20
7.780520
  0
VERTEX
  8
0
  6
CONTINUOUS
 10
4.877400
 20
7.740480
  0
VERTEX
  8
0
  6
CONTINUOUS
 10
4.831200
 20
7.786680
  0
VERTEX
  8
0
  6
CONTINUOUS
 10
4.799520
 20
7.812640
  0
VERTEX
  8
0
  6
CONTINUOUS
 10
4.766960
 20
7.834640
  0
VERTEX
  8
0
  6
CONTINUOUS
 10
4.733080
 20
7.852680
  0
VERTEX
  8
0
  6
CONTINUOUS
 10
4.680280
 20
7.872480
  0
VERTEX
  8
0
  6
CONTINUOUS
 10
4.643320
 20
7.880400
  0
VERTEX
  8
0
  6
CONTINUOUS
 10
4.605040
 20
7.884360
  0
VERTEX
  8
0
  6
CONTINUOUS
 10
4.565000
 20
7.884360
  0
VERTEX
  8
0
  6
CONTINUOUS
 10
4.523640
 20
7.879960
  0
VERTEX
  8
0
  6
CONTINUOUS
 10
4.480520
 20
7.871600
  0
VERTEX
  8
0
  6
CONTINUOUS
 10
4.435640
 20
7.858840
  0
VERTEX
  8
0
  6
CONTINUOUS
 10
4.364800
 20
7.831560
  0
VERTEX
  8
0
  6
CONTINUOUS
 10
4.315080
 20
7.808240
  0
VERTEX
  8
0
  6
CONTINUOUS
 10
4.130280
 20
7.706160
  0
VERTEX
  8
0
  6
CONTINUOUS
 10
4.055040
 20
7.671840
  0
VERTEX
  8
0
  6
CONTINUOUS
 10
4.006640
 20
7.653800
  0
VERTEX
  8
0
  6
CONTINUOUS
 10
3.959120
 20
7.640600
  0
VERTEX
  8
0
  6
CONTINUOUS
 10
3.912480
 20
7.632240
  0
VERTEX
  8
0
  6
CONTINUOUS
 10
3.889600
 20
7.629600
  0
VERTEX
  8
0
  6
CONTINUOUS
 10
3.844280
 20
7.629160
  0
VERTEX
  8
0
  6
CONTINUOUS
 10
3.799840
 20
7.634880
  0
VERTEX
  8
0
  6
CONTINUOUS
 10
3.777840
 20
7.639720
  0
VERTEX
  8
0
  6
CONTINUOUS
 10
3.755840
 20
7.646320
  0
VERTEX
  8
0
  6
CONTINUOUS
 10
3.712280
 20
7.664360
  0
VERTEX
  8
0
  6
CONTINUOUS
 10
3.669160
 20
7.689440
  0
VERTEX
  8
0
  6
CONTINUOUS
 10
3.626040
 20
7.722000
  0
VERTEX
  8
0
  6
CONTINUOUS
 10
3.582920
 20
7.762040
  0
VERTEX
  8
0
  6
CONTINUOUS
 10
3.539800
 20
7.810000
  0
VERTEX
  8
0
  6
CONTINUOUS
 10
3.517800
 20
7.836840
  0
VERTEX
  8
0
  6
CONTINUOUS
 10
3.496240
 20
7.866320
  0
VERTEX
  8
0
  6
CONTINUOUS
 10
3.270960
 20
7.699120
  0
VERTEX
  8
0
  6
CONTINUOUS
 10
3.564000
 20
7.339200
  0
VERTEX
  8
0
  6
CONTINUOUS
 10
5.022600
 20
7.342720
  0
SEQEND
  8
0
  0
TEXT
  8
0
 10
3.273160
 20
5.384280
 40
0.138049
  1
BA  754 1/2" x 2-1/16"
 41
1.000000
  7
SN0
 71
     0
 72
     5
 11
4.900509
 21
5.384280
  0
TEXT
  8
0
 10
3.273160
 20
5.192880
 40
0.138049
  1
BA  755A & B 2-1/16" x 3-13/16"
 41
1.000000
  7
SN0
 71
     0
 72
     5
 11
5.655639
 21
5.192880
  0
ENDSEC
  0
EOF
