  0
SECTION
  2
HEADER
  9
$ACADVER
  1
AC1006
  9
$EXTMIN
 10
0.872080
 20
0.567600
  9
$EXTMAX
 10
7.071680
 20
5.203000
  9
$LTSCALE
 40
0.044000
  9
$PDMODE
 70
    35
  9
$PDSIZE
 40
0.035200
  0
ENDSEC
  0
SECTION
  2
TABLES
  0
TABLE
  2
LTYPE
 70
     9
  0
LTYPE
  2
CONTINUOUS
 70
    64
  3
Solid line
 72
    65
 73
     0
 40
0.000000
  0
LTYPE
  2
DASHED
 70
    64
  3
__ __ __ __ __ __ __ __ __ __ __ __ __ __ __
 72
    65
 73
     2
 40
0.000330
 49
0.000220
 49
-0.000110
  0
LTYPE
  2
HIDDEN
 70
    64
  3
 _ _ _ _ _ _ _ _ _ _ _ _ _ _ _ _ _ _ _ _ _ _
 72
    65
 73
     2
 40
0.000165
 49
0.000110
 49
-0.000055
  0
LTYPE
  2
CENTER
 70
    64
  3
____ _ ____ _ ____ _ ____ _ ____ _ ____ _ ____
 72
    65
 73
     4
 40
0.000880
 49
0.000550
 49
-0.000110
 49
0.000110
 49
-0.000110
  0
LTYPE
  2
PHANTOM
 70
    64
  3
_____ _ _ _____ _ _ _____ _ _ _____ _ _ ____
 72
    65
 73
     6
 40
0.001100
 49
0.000550
 49
-0.000110
 49
0.000110
 49
-0.000110
 49
0.000110
 49
-0.000110
  0
LTYPE
  2
DOT
 70
    64
  3
...............................................
 72
    65
 73
     2
 40
0.000110
 49
0.000000
 49
-0.000110
  0
LTYPE
  2
DASHDOT
 70
    64
  3
__ . __ . __ . __ . __ . __ . __ . __ . __ . __
 72
    65
 73
     4
 40
0.000440
 49
0.000220
 49
-0.000110
 49
0.000000
 49
-0.000110
  0
LTYPE
  2
BORDER
 70
    64
  3
__ __ . __ __ . __ __ . __ __ . __ __ . __ __
 72
    65
 73
     6
 40
0.000770
 49
0.000220
 49
-0.000110
 49
0.000220
 49
-0.000110
 49
0.000000
 49
-0.000110
  0
LTYPE
  2
DIVIDE
 70
    64
  3
__ . . __ . . __ . . __ . . __ . . __ . . __
 72
    65
 73
     6
 40
0.000550
 49
0.000220
 49
-0.000110
 49
0.000000
 49
-0.000110
 49
0.000000
 49
-0.000110
  0
LTYPE
  2
DOTDOT
 70
    64
  3
 . .  . .  . .  . .  . .  . . 
 72
    65
 73
     5
 40
0.000242
 49
-0.000110
 49
0.000000
 49
-0.000110
 49
0.000000
 49
-0.000110
  0
ENDTAB
  0
TABLE
  2
STYLE
 70
     2
  0
STYLE
 70
     0
  2
SN0
 40
0.000000
 41
0.000440
 50
0.000000
 71
     0
 42
0.000000
  3
ROMAND
  0
STYLE
 70
    68
  2
SV0
 40
0.000000
 41
0.000440
 50
0.000000
 71
     0
 42
0.000000
  3
ROMAND
  0
ENDTAB
  0
TABLE
  2
LAYER
 70
     3
  0
LAYER
  2
FOREGROUND
 70
    64
 62
     7
  6
CONTINUOUS
  0
LAYER
  2
BACKGROUND
 70
    65
 62
    -7
  6
CONTINUOUS
  0
LAYER
  2
0
 70
    64
 62
     7
  6
CONTINUOUS
  0
ENDTAB
  0
ENDSEC
  0
SECTION
  2
ENTITIES
  0
POLYLINE
  8
FOREGROUND
  6
CONTINUOUS
 66
     1
 40
0.000000
 41
0.000000
  0
VERTEX
  8
FOREGROUND
  6
CONTINUOUS
 10
0.000000
 20
5.770600
  0
VERTEX
  8
FOREGROUND
  6
CONTINUOUS
 10
8.499920
 20
5.770600
  0
VERTEX
  8
FOREGROUND
  6
CONTINUOUS
 10
8.499920
 20
-5.229400
  0
VERTEX
  8
FOREGROUND
  6
CONTINUOUS
 10
0.000000
 20
-5.229400
  0
VERTEX
  8
FOREGROUND
  6
CONTINUOUS
 10
0.000000
 20
5.770600
  0
SEQEND
  8
0
  0
POLYLINE
  8
FOREGROUND
  6
CONTINUOUS
 66
     1
 40
0.000000
 41
0.000000
  0
VERTEX
  8
FOREGROUND
  6
CONTINUOUS
 10
0.000000
 20
5.770600
  0
VERTEX
  8
FOREGROUND
  6
CONTINUOUS
 10
8.499920
 20
5.770600
  0
VERTEX
  8
FOREGROUND
  6
CONTINUOUS
 10
8.499920
 20
-5.229400
  0
VERTEX
  8
FOREGROUND
  6
CONTINUOUS
 10
0.000000
 20
-5.229400
  0
VERTEX
  8
FOREGROUND
  6
CONTINUOUS
 10
0.000000
 20
5.770600
  0
SEQEND
  8
0
  0
SOLID
  8
0
 62
    15
 10
1.532080
 20
3.396360
 11
2.269960
 21
3.396360
 12
1.522840
 22
2.991120
 13
2.260720
 23
2.991120
  0
POLYLINE
  8
0
  6
CONTINUOUS
 66
     1
 40
0.000000
 41
0.000000
  0
VERTEX
  8
0
  6
CONTINUOUS
 10
1.532080
 20
3.396360
  0
VERTEX
  8
0
  6
CONTINUOUS
 10
2.269960
 20
3.396360
  0
VERTEX
  8
0
  6
CONTINUOUS
 10
2.260720
 20
2.991120
  0
VERTEX
  8
0
  6
CONTINUOUS
 10
1.522840
 20
2.991120
  0
VERTEX
  8
0
  6
CONTINUOUS
 10
1.532080
 20
3.396360
  0
SEQEND
  8
0
  0
SOLID
  8
0
 62
    15
 10
1.167320
 20
5.158560
 11
1.905640
 21
5.158560
 12
1.183600
 22
5.122040
 13
1.921920
 23
5.122040
  0
POLYLINE
  8
0
  6
CONTINUOUS
 66
     1
 40
0.000000
 41
0.000000
  0
VERTEX
  8
0
  6
CONTINUOUS
 10
1.167320
 20
5.158560
  0
VERTEX
  8
0
  6
CONTINUOUS
 10
1.905640
 20
5.158560
  0
VERTEX
  8
0
  6
CONTINUOUS
 10
1.921920
 20
5.122040
  0
VERTEX
  8
0
  6
CONTINUOUS
 10
1.183600
 20
5.122040
  0
VERTEX
  8
0
  6
CONTINUOUS
 10
1.167320
 20
5.158560
  0
SEQEND
  8
0
  0
SOLID
  8
0
 62
    15
 10
1.183600
 20
5.122040
 11
1.921920
 21
5.122040
 12
1.206920
 22
5.088600
 13
1.944800
 23
5.088600
  0
POLYLINE
  8
0
  6
CONTINUOUS
 66
     1
 40
0.000000
 41
0.000000
  0
VERTEX
  8
0
  6
CONTINUOUS
 10
1.183600
 20
5.122040
  0
VERTEX
  8
0
  6
CONTINUOUS
 10
1.921920
 20
5.122040
  0
VERTEX
  8
0
  6
CONTINUOUS
 10
1.944800
 20
5.088600
  0
VERTEX
  8
0
  6
CONTINUOUS
 10
1.206920
 20
5.088600
  0
VERTEX
  8
0
  6
CONTINUOUS
 10
1.183600
 20
5.122040
  0
SEQEND
  8
0
  0
SOLID
  8
0
 62
    15
 10
1.206920
 20
5.088600
 11
1.944800
 21
5.088600
 12
1.235520
 22
5.059120
 13
1.973400
 23
5.059120
  0
POLYLINE
  8
0
  6
CONTINUOUS
 66
     1
 40
0.000000
 41
0.000000
  0
VERTEX
  8
0
  6
CONTINUOUS
 10
1.206920
 20
5.088600
  0
VERTEX
  8
0
  6
CONTINUOUS
 10
1.944800
 20
5.088600
  0
VERTEX
  8
0
  6
CONTINUOUS
 10
1.973400
 20
5.059120
  0
VERTEX
  8
0
  6
CONTINUOUS
 10
1.235520
 20
5.059120
  0
VERTEX
  8
0
  6
CONTINUOUS
 10
1.206920
 20
5.088600
  0
SEQEND
  8
0
  0
SOLID
  8
0
 62
    15
 10
1.235520
 20
5.059120
 11
1.973400
 21
5.059120
 12
1.268520
 22
5.033160
 13
2.006400
 23
5.033160
  0
POLYLINE
  8
0
  6
CONTINUOUS
 66
     1
 40
0.000000
 41
0.000000
  0
VERTEX
  8
0
  6
CONTINUOUS
 10
1.235520
 20
5.059120
  0
VERTEX
  8
0
  6
CONTINUOUS
 10
1.973400
 20
5.059120
  0
VERTEX
  8
0
  6
CONTINUOUS
 10
2.006400
 20
5.033160
  0
VERTEX
  8
0
  6
CONTINUOUS
 10
1.268520
 20
5.033160
  0
VERTEX
  8
0
  6
CONTINUOUS
 10
1.235520
 20
5.059120
  0
SEQEND
  8
0
  0
SOLID
  8
0
 62
    15
 10
1.268520
 20
5.033160
 11
2.006400
 21
5.033160
 12
1.304600
 22
5.011160
 13
2.042480
 23
5.011160
  0
POLYLINE
  8
0
  6
CONTINUOUS
 66
     1
 40
0.000000
 41
0.000000
  0
VERTEX
  8
0
  6
CONTINUOUS
 10
1.268520
 20
5.033160
  0
VERTEX
  8
0
  6
CONTINUOUS
 10
2.006400
 20
5.033160
  0
VERTEX
  8
0
  6
CONTINUOUS
 10
2.042480
 20
5.011160
  0
VERTEX
  8
0
  6
CONTINUOUS
 10
1.304600
 20
5.011160
  0
VERTEX
  8
0
  6
CONTINUOUS
 10
1.268520
 20
5.033160
  0
SEQEND
  8
0
  0
SOLID
  8
0
 62
    15
 10
1.304600
 20
5.011160
 11
2.042480
 21
5.011160
 12
1.342880
 22
4.994000
 13
2.080760
 23
4.994000
  0
POLYLINE
  8
0
  6
CONTINUOUS
 66
     1
 40
0.000000
 41
0.000000
  0
VERTEX
  8
0
  6
CONTINUOUS
 10
1.304600
 20
5.011160
  0
VERTEX
  8
0
  6
CONTINUOUS
 10
2.042480
 20
5.011160
  0
VERTEX
  8
0
  6
CONTINUOUS
 10
2.080760
 20
4.994000
  0
VERTEX
  8
0
  6
CONTINUOUS
 10
1.342880
 20
4.994000
  0
VERTEX
  8
0
  6
CONTINUOUS
 10
1.304600
 20
5.011160
  0
SEQEND
  8
0
  0
SOLID
  8
0
 62
    15
 10
1.342880
 20
4.994000
 11
2.080760
 21
4.994000
 12
1.381600
 22
4.980800
 13
2.119920
 23
4.980800
  0
POLYLINE
  8
0
  6
CONTINUOUS
 66
     1
 40
0.000000
 41
0.000000
  0
VERTEX
  8
0
  6
CONTINUOUS
 10
1.342880
 20
4.994000
  0
VERTEX
  8
0
  6
CONTINUOUS
 10
2.080760
 20
4.994000
  0
VERTEX
  8
0
  6
CONTINUOUS
 10
2.119920
 20
4.980800
  0
VERTEX
  8
0
  6
CONTINUOUS
 10
1.381600
 20
4.980800
  0
VERTEX
  8
0
  6
CONTINUOUS
 10
1.342880
 20
4.994000
  0
SEQEND
  8
0
  0
SOLID
  8
0
 62
    15
 10
1.381600
 20
4.980800
 11
2.119920
 21
4.980800
 12
1.421200
 22
4.967160
 13
2.159520
 23
4.967160
  0
POLYLINE
  8
0
  6
CONTINUOUS
 66
     1
 40
0.000000
 41
0.000000
  0
VERTEX
  8
0
  6
CONTINUOUS
 10
1.381600
 20
4.980800
  0
VERTEX
  8
0
  6
CONTINUOUS
 10
2.119920
 20
4.980800
  0
VERTEX
  8
0
  6
CONTINUOUS
 10
2.159520
 20
4.967160
  0
VERTEX
  8
0
  6
CONTINUOUS
 10
1.421200
 20
4.967160
  0
VERTEX
  8
0
  6
CONTINUOUS
 10
1.381600
 20
4.980800
  0
SEQEND
  8
0
  0
SOLID
  8
0
 62
    15
 10
1.421200
 20
4.967160
 11
2.159520
 21
4.967160
 12
1.460800
 22
4.948240
 13
2.199120
 23
4.948240
  0
POLYLINE
  8
0
  6
CONTINUOUS
 66
     1
 40
0.000000
 41
0.000000
  0
VERTEX
  8
0
  6
CONTINUOUS
 10
1.421200
 20
4.967160
  0
VERTEX
  8
0
  6
CONTINUOUS
 10
2.159520
 20
4.967160
  0
VERTEX
  8
0
  6
CONTINUOUS
 10
2.199120
 20
4.948240
  0
VERTEX
  8
0
  6
CONTINUOUS
 10
1.460800
 20
4.948240
  0
VERTEX
  8
0
  6
CONTINUOUS
 10
1.421200
 20
4.967160
  0
SEQEND
  8
0
  0
SOLID
  8
0
 62
    15
 10
1.460800
 20
4.948240
 11
2.199120
 21
4.948240
 12
1.534280
 22
4.898960
 13
2.272600
 23
4.898960
  0
POLYLINE
  8
0
  6
CONTINUOUS
 66
     1
 40
0.000000
 41
0.000000
  0
VERTEX
  8
0
  6
CONTINUOUS
 10
1.460800
 20
4.948240
  0
VERTEX
  8
0
  6
CONTINUOUS
 10
2.199120
 20
4.948240
  0
VERTEX
  8
0
  6
CONTINUOUS
 10
2.272600
 20
4.898960
  0
VERTEX
  8
0
  6
CONTINUOUS
 10
1.534280
 20
4.898960
  0
VERTEX
  8
0
  6
CONTINUOUS
 10
1.460800
 20
4.948240
  0
SEQEND
  8
0
  0
SOLID
  8
0
 62
    15
 10
1.534280
 20
4.898960
 11
2.272600
 21
4.898960
 12
1.565080
 22
4.871240
 13
2.303400
 23
4.871240
  0
POLYLINE
  8
0
  6
CONTINUOUS
 66
     1
 40
0.000000
 41
0.000000
  0
VERTEX
  8
0
  6
CONTINUOUS
 10
1.534280
 20
4.898960
  0
VERTEX
  8
0
  6
CONTINUOUS
 10
2.272600
 20
4.898960
  0
VERTEX
  8
0
  6
CONTINUOUS
 10
2.303400
 20
4.871240
  0
VERTEX
  8
0
  6
CONTINUOUS
 10
1.565080
 20
4.871240
  0
VERTEX
  8
0
  6
CONTINUOUS
 10
1.534280
 20
4.898960
  0
SEQEND
  8
0
  0
SOLID
  8
0
 62
    15
 10
1.565080
 20
4.871240
 11
2.303400
 21
4.871240
 12
1.590160
 22
4.843080
 13
2.328040
 23
4.843080
  0
POLYLINE
  8
0
  6
CONTINUOUS
 66
     1
 40
0.000000
 41
0.000000
  0
VERTEX
  8
0
  6
CONTINUOUS
 10
1.565080
 20
4.871240
  0
VERTEX
  8
0
  6
CONTINUOUS
 10
2.303400
 20
4.871240
  0
VERTEX
  8
0
  6
CONTINUOUS
 10
2.328040
 20
4.843080
  0
VERTEX
  8
0
  6
CONTINUOUS
 10
1.590160
 20
4.843080
  0
VERTEX
  8
0
  6
CONTINUOUS
 10
1.565080
 20
4.871240
  0
SEQEND
  8
0
  0
SOLID
  8
0
 62
    15
 10
1.590160
 20
4.843080
 11
2.328040
 21
4.843080
 12
1.607760
 22
4.815800
 13
2.346080
 23
4.815800
  0
POLYLINE
  8
0
  6
CONTINUOUS
 66
     1
 40
0.000000
 41
0.000000
  0
VERTEX
  8
0
  6
CONTINUOUS
 10
1.590160
 20
4.843080
  0
VERTEX
  8
0
  6
CONTINUOUS
 10
2.328040
 20
4.843080
  0
VERTEX
  8
0
  6
CONTINUOUS
 10
2.346080
 20
4.815800
  0
VERTEX
  8
0
  6
CONTINUOUS
 10
1.607760
 20
4.815800
  0
VERTEX
  8
0
  6
CONTINUOUS
 10
1.590160
 20
4.843080
  0
SEQEND
  8
0
  0
SOLID
  8
0
 62
    15
 10
1.607760
 20
4.815800
 11
2.346080
 21
4.815800
 12
1.617000
 22
4.790280
 13
2.354880
 23
4.790280
  0
POLYLINE
  8
0
  6
CONTINUOUS
 66
     1
 40
0.000000
 41
0.000000
  0
VERTEX
  8
0
  6
CONTINUOUS
 10
1.607760
 20
4.815800
  0
VERTEX
  8
0
  6
CONTINUOUS
 10
2.346080
 20
4.815800
  0
VERTEX
  8
0
  6
CONTINUOUS
 10
2.354880
 20
4.790280
  0
VERTEX
  8
0
  6
CONTINUOUS
 10
1.617000
 20
4.790280
  0
VERTEX
  8
0
  6
CONTINUOUS
 10
1.607760
 20
4.815800
  0
SEQEND
  8
0
  0
SOLID
  8
0
 62
    15
 10
1.617000
 20
4.790280
 11
2.354880
 21
4.790280
 12
1.621400
 22
4.740120
 13
2.359280
 23
4.740120
  0
POLYLINE
  8
0
  6
CONTINUOUS
 66
     1
 40
0.000000
 41
0.000000
  0
VERTEX
  8
0
  6
CONTINUOUS
 10
1.617000
 20
4.790280
  0
VERTEX
  8
0
  6
CONTINUOUS
 10
2.354880
 20
4.790280
  0
VERTEX
  8
0
  6
CONTINUOUS
 10
2.359280
 20
4.740120
  0
VERTEX
  8
0
  6
CONTINUOUS
 10
1.621400
 20
4.740120
  0
VERTEX
  8
0
  6
CONTINUOUS
 10
1.617000
 20
4.790280
  0
SEQEND
  8
0
  0
SOLID
  8
0
 62
    15
 10
1.621400
 20
4.740120
 11
2.359280
 21
4.740120
 12
1.617440
 22
4.689960
 13
2.355760
 23
4.689960
  0
POLYLINE
  8
0
  6
CONTINUOUS
 66
     1
 40
0.000000
 41
0.000000
  0
VERTEX
  8
0
  6
CONTINUOUS
 10
1.621400
 20
4.740120
  0
VERTEX
  8
0
  6
CONTINUOUS
 10
2.359280
 20
4.740120
  0
VERTEX
  8
0
  6
CONTINUOUS
 10
2.355760
 20
4.689960
  0
VERTEX
  8
0
  6
CONTINUOUS
 10
1.617440
 20
4.689960
  0
VERTEX
  8
0
  6
CONTINUOUS
 10
1.621400
 20
4.740120
  0
SEQEND
  8
0
  0
SOLID
  8
0
 62
    15
 10
1.617440
 20
4.689960
 11
2.355760
 21
4.689960
 12
1.611280
 22
4.667520
 13
2.349160
 23
4.667520
  0
POLYLINE
  8
0
  6
CONTINUOUS
 66
     1
 40
0.000000
 41
0.000000
  0
VERTEX
  8
0
  6
CONTINUOUS
 10
1.617440
 20
4.689960
  0
VERTEX
  8
0
  6
CONTINUOUS
 10
2.355760
 20
4.689960
  0
VERTEX
  8
0
  6
CONTINUOUS
 10
2.349160
 20
4.667520
  0
VERTEX
  8
0
  6
CONTINUOUS
 10
1.611280
 20
4.667520
  0
VERTEX
  8
0
  6
CONTINUOUS
 10
1.617440
 20
4.689960
  0
SEQEND
  8
0
  0
SOLID
  8
0
 62
    15
 10
1.611280
 20
4.667520
 11
2.349160
 21
4.667520
 12
1.602040
 22
4.648160
 13
2.339920
 23
4.648160
  0
POLYLINE
  8
0
  6
CONTINUOUS
 66
     1
 40
0.000000
 41
0.000000
  0
VERTEX
  8
0
  6
CONTINUOUS
 10
1.611280
 20
4.667520
  0
VERTEX
  8
0
  6
CONTINUOUS
 10
2.349160
 20
4.667520
  0
VERTEX
  8
0
  6
CONTINUOUS
 10
2.339920
 20
4.648160
  0
VERTEX
  8
0
  6
CONTINUOUS
 10
1.602040
 20
4.648160
  0
VERTEX
  8
0
  6
CONTINUOUS
 10
1.611280
 20
4.667520
  0
SEQEND
  8
0
  0
SOLID
  8
0
 62
    15
 10
1.602040
 20
4.648160
 11
2.339920
 21
4.648160
 12
1.588840
 22
4.632760
 13
2.326720
 23
4.632760
  0
POLYLINE
  8
0
  6
CONTINUOUS
 66
     1
 40
0.000000
 41
0.000000
  0
VERTEX
  8
0
  6
CONTINUOUS
 10
1.602040
 20
4.648160
  0
VERTEX
  8
0
  6
CONTINUOUS
 10
2.339920
 20
4.648160
  0
VERTEX
  8
0
  6
CONTINUOUS
 10
2.326720
 20
4.632760
  0
VERTEX
  8
0
  6
CONTINUOUS
 10
1.588840
 20
4.632760
  0
VERTEX
  8
0
  6
CONTINUOUS
 10
1.602040
 20
4.648160
  0
SEQEND
  8
0
  0
SOLID
  8
0
 62
    15
 10
1.588840
 20
4.632760
 11
2.326720
 21
4.632760
 12
1.571680
 22
4.622200
 13
2.310000
 23
4.622200
  0
POLYLINE
  8
0
  6
CONTINUOUS
 66
     1
 40
0.000000
 41
0.000000
  0
VERTEX
  8
0
  6
CONTINUOUS
 10
1.588840
 20
4.632760
  0
VERTEX
  8
0
  6
CONTINUOUS
 10
2.326720
 20
4.632760
  0
VERTEX
  8
0
  6
CONTINUOUS
 10
2.310000
 20
4.622200
  0
VERTEX
  8
0
  6
CONTINUOUS
 10
1.571680
 20
4.622200
  0
VERTEX
  8
0
  6
CONTINUOUS
 10
1.588840
 20
4.632760
  0
SEQEND
  8
0
  0
SOLID
  8
0
 62
    15
 10
1.571680
 20
4.622200
 11
2.310000
 21
4.622200
 12
1.571680
 22
4.599760
 13
2.310000
 23
4.599760
  0
POLYLINE
  8
0
  6
CONTINUOUS
 66
     1
 40
0.000000
 41
0.000000
  0
VERTEX
  8
0
  6
CONTINUOUS
 10
1.571680
 20
4.622200
  0
VERTEX
  8
0
  6
CONTINUOUS
 10
2.310000
 20
4.622200
  0
VERTEX
  8
0
  6
CONTINUOUS
 10
2.310000
 20
4.599760
  0
VERTEX
  8
0
  6
CONTINUOUS
 10
1.571680
 20
4.599760
  0
VERTEX
  8
0
  6
CONTINUOUS
 10
1.571680
 20
4.622200
  0
SEQEND
  8
0
  0
SOLID
  8
0
 62
    15
 10
1.571680
 20
4.599760
 11
2.310000
 21
4.599760
 12
1.750320
 22
4.580840
 13
2.488200
 23
4.580840
  0
POLYLINE
  8
0
  6
CONTINUOUS
 66
     1
 40
0.000000
 41
0.000000
  0
VERTEX
  8
0
  6
CONTINUOUS
 10
1.571680
 20
4.599760
  0
VERTEX
  8
0
  6
CONTINUOUS
 10
2.310000
 20
4.599760
  0
VERTEX
  8
0
  6
CONTINUOUS
 10
2.488200
 20
4.580840
  0
VERTEX
  8
0
  6
CONTINUOUS
 10
1.750320
 20
4.580840
  0
VERTEX
  8
0
  6
CONTINUOUS
 10
1.571680
 20
4.599760
  0
SEQEND
  8
0
  0
SOLID
  8
0
 62
    15
 10
1.750320
 20
4.580840
 11
2.488200
 21
4.580840
 12
1.743720
 22
3.672680
 13
2.481600
 23
3.672680
  0
POLYLINE
  8
0
  6
CONTINUOUS
 66
     1
 40
0.000000
 41
0.000000
  0
VERTEX
  8
0
  6
CONTINUOUS
 10
1.750320
 20
4.580840
  0
VERTEX
  8
0
  6
CONTINUOUS
 10
2.488200
 20
4.580840
  0
VERTEX
  8
0
  6
CONTINUOUS
 10
2.481600
 20
3.672680
  0
VERTEX
  8
0
  6
CONTINUOUS
 10
1.743720
 20
3.672680
  0
VERTEX
  8
0
  6
CONTINUOUS
 10
1.750320
 20
4.580840
  0
SEQEND
  8
0
  0
SOLID
  8
0
 62
    15
 10
1.743720
 20
3.672680
 11
2.481600
 21
3.672680
 12
1.731840
 22
3.665200
 13
2.469720
 23
3.665200
  0
POLYLINE
  8
0
  6
CONTINUOUS
 66
     1
 40
0.000000
 41
0.000000
  0
VERTEX
  8
0
  6
CONTINUOUS
 10
1.743720
 20
3.672680
  0
VERTEX
  8
0
  6
CONTINUOUS
 10
2.481600
 20
3.672680
  0
VERTEX
  8
0
  6
CONTINUOUS
 10
2.469720
 20
3.665200
  0
VERTEX
  8
0
  6
CONTINUOUS
 10
1.731840
 20
3.665200
  0
VERTEX
  8
0
  6
CONTINUOUS
 10
1.743720
 20
3.672680
  0
SEQEND
  8
0
  0
SOLID
  8
0
 62
    15
 10
1.731840
 20
3.665200
 11
2.469720
 21
3.665200
 12
1.718200
 22
3.656840
 13
2.456080
 23
3.656840
  0
POLYLINE
  8
0
  6
CONTINUOUS
 66
     1
 40
0.000000
 41
0.000000
  0
VERTEX
  8
0
  6
CONTINUOUS
 10
1.731840
 20
3.665200
  0
VERTEX
  8
0
  6
CONTINUOUS
 10
2.469720
 20
3.665200
  0
VERTEX
  8
0
  6
CONTINUOUS
 10
2.456080
 20
3.656840
  0
VERTEX
  8
0
  6
CONTINUOUS
 10
1.718200
 20
3.656840
  0
VERTEX
  8
0
  6
CONTINUOUS
 10
1.731840
 20
3.665200
  0
SEQEND
  8
0
  0
SOLID
  8
0
 62
    15
 10
1.718200
 20
3.656840
 11
2.456080
 21
3.656840
 12
1.687400
 22
3.637480
 13
2.425280
 23
3.637480
  0
POLYLINE
  8
0
  6
CONTINUOUS
 66
     1
 40
0.000000
 41
0.000000
  0
VERTEX
  8
0
  6
CONTINUOUS
 10
1.718200
 20
3.656840
  0
VERTEX
  8
0
  6
CONTINUOUS
 10
2.456080
 20
3.656840
  0
VERTEX
  8
0
  6
CONTINUOUS
 10
2.425280
 20
3.637480
  0
VERTEX
  8
0
  6
CONTINUOUS
 10
1.687400
 20
3.637480
  0
VERTEX
  8
0
  6
CONTINUOUS
 10
1.718200
 20
3.656840
  0
SEQEND
  8
0
  0
SOLID
  8
0
 62
    15
 10
1.687400
 20
3.637480
 11
2.425280
 21
3.637480
 12
1.653520
 22
3.613280
 13
2.391400
 23
3.613280
  0
POLYLINE
  8
0
  6
CONTINUOUS
 66
     1
 40
0.000000
 41
0.000000
  0
VERTEX
  8
0
  6
CONTINUOUS
 10
1.687400
 20
3.637480
  0
VERTEX
  8
0
  6
CONTINUOUS
 10
2.425280
 20
3.637480
  0
VERTEX
  8
0
  6
CONTINUOUS
 10
2.391400
 20
3.613280
  0
VERTEX
  8
0
  6
CONTINUOUS
 10
1.653520
 20
3.613280
  0
VERTEX
  8
0
  6
CONTINUOUS
 10
1.687400
 20
3.637480
  0
SEQEND
  8
0
  0
SOLID
  8
0
 62
    15
 10
1.653520
 20
3.613280
 11
2.391400
 21
3.613280
 12
1.619640
 22
3.583800
 13
2.357520
 23
3.583800
  0
POLYLINE
  8
0
  6
CONTINUOUS
 66
     1
 40
0.000000
 41
0.000000
  0
VERTEX
  8
0
  6
CONTINUOUS
 10
1.653520
 20
3.613280
  0
VERTEX
  8
0
  6
CONTINUOUS
 10
2.391400
 20
3.613280
  0
VERTEX
  8
0
  6
CONTINUOUS
 10
2.357520
 20
3.583800
  0
VERTEX
  8
0
  6
CONTINUOUS
 10
1.619640
 20
3.583800
  0
VERTEX
  8
0
  6
CONTINUOUS
 10
1.653520
 20
3.613280
  0
SEQEND
  8
0
  0
SOLID
  8
0
 62
    15
 10
1.619640
 20
3.583800
 11
2.357520
 21
3.583800
 12
1.587520
 22
3.548160
 13
2.325840
 23
3.548160
  0
POLYLINE
  8
0
  6
CONTINUOUS
 66
     1
 40
0.000000
 41
0.000000
  0
VERTEX
  8
0
  6
CONTINUOUS
 10
1.619640
 20
3.583800
  0
VERTEX
  8
0
  6
CONTINUOUS
 10
2.357520
 20
3.583800
  0
VERTEX
  8
0
  6
CONTINUOUS
 10
2.325840
 20
3.548160
  0
VERTEX
  8
0
  6
CONTINUOUS
 10
1.587520
 20
3.548160
  0
VERTEX
  8
0
  6
CONTINUOUS
 10
1.619640
 20
3.583800
  0
SEQEND
  8
0
  0
SOLID
  8
0
 62
    15
 10
1.587520
 20
3.548160
 11
2.325840
 21
3.548160
 12
1.560680
 22
3.505480
 13
2.298560
 23
3.505480
  0
POLYLINE
  8
0
  6
CONTINUOUS
 66
     1
 40
0.000000
 41
0.000000
  0
VERTEX
  8
0
  6
CONTINUOUS
 10
1.587520
 20
3.548160
  0
VERTEX
  8
0
  6
CONTINUOUS
 10
2.325840
 20
3.548160
  0
VERTEX
  8
0
  6
CONTINUOUS
 10
2.298560
 20
3.505480
  0
VERTEX
  8
0
  6
CONTINUOUS
 10
1.560680
 20
3.505480
  0
VERTEX
  8
0
  6
CONTINUOUS
 10
1.587520
 20
3.548160
  0
SEQEND
  8
0
  0
SOLID
  8
0
 62
    15
 10
1.560680
 20
3.505480
 11
2.298560
 21
3.505480
 12
1.541320
 22
3.455320
 13
2.279200
 23
3.455320
  0
POLYLINE
  8
0
  6
CONTINUOUS
 66
     1
 40
0.000000
 41
0.000000
  0
VERTEX
  8
0
  6
CONTINUOUS
 10
1.560680
 20
3.505480
  0
VERTEX
  8
0
  6
CONTINUOUS
 10
2.298560
 20
3.505480
  0
VERTEX
  8
0
  6
CONTINUOUS
 10
2.279200
 20
3.455320
  0
VERTEX
  8
0
  6
CONTINUOUS
 10
1.541320
 20
3.455320
  0
VERTEX
  8
0
  6
CONTINUOUS
 10
1.560680
 20
3.505480
  0
SEQEND
  8
0
  0
SOLID
  8
0
 62
    15
 10
1.541320
 20
3.455320
 11
2.279200
 21
3.455320
 12
1.532080
 22
3.396360
 13
2.269960
 23
3.396360
  0
POLYLINE
  8
0
  6
CONTINUOUS
 66
     1
 40
0.000000
 41
0.000000
  0
VERTEX
  8
0
  6
CONTINUOUS
 10
1.541320
 20
3.455320
  0
VERTEX
  8
0
  6
CONTINUOUS
 10
2.279200
 20
3.455320
  0
VERTEX
  8
0
  6
CONTINUOUS
 10
2.269960
 20
3.396360
  0
VERTEX
  8
0
  6
CONTINUOUS
 10
1.532080
 20
3.396360
  0
VERTEX
  8
0
  6
CONTINUOUS
 10
1.541320
 20
3.455320
  0
SEQEND
  8
0
  0
SOLID
  8
0
 62
    15
 10
1.158960
 20
5.197720
 11
1.896840
 21
5.197720
 12
1.167320
 22
5.158560
 13
1.905640
 23
5.158560
  0
POLYLINE
  8
0
  6
CONTINUOUS
 66
     1
 40
0.000000
 41
0.000000
  0
VERTEX
  8
0
  6
CONTINUOUS
 10
1.158960
 20
5.197720
  0
VERTEX
  8
0
  6
CONTINUOUS
 10
1.896840
 20
5.197720
  0
VERTEX
  8
0
  6
CONTINUOUS
 10
1.905640
 20
5.158560
  0
VERTEX
  8
0
  6
CONTINUOUS
 10
1.167320
 20
5.158560
  0
VERTEX
  8
0
  6
CONTINUOUS
 10
1.158960
 20
5.197720
  0
SEQEND
  8
0
  0
SOLID
  8
0
 62
    15
 10
1.522840
 20
2.991120
 11
2.260720
 21
2.991120
 12
1.520200
 22
2.956360
 13
2.258520
 23
2.956360
  0
POLYLINE
  8
0
  6
CONTINUOUS
 66
     1
 40
0.000000
 41
0.000000
  0
VERTEX
  8
0
  6
CONTINUOUS
 10
1.522840
 20
2.991120
  0
VERTEX
  8
0
  6
CONTINUOUS
 10
2.260720
 20
2.991120
  0
VERTEX
  8
0
  6
CONTINUOUS
 10
2.258520
 20
2.956360
  0
VERTEX
  8
0
  6
CONTINUOUS
 10
1.520200
 20
2.956360
  0
VERTEX
  8
0
  6
CONTINUOUS
 10
1.522840
 20
2.991120
  0
SEQEND
  8
0
  0
SOLID
  8
0
 62
    15
 10
1.520200
 20
2.956360
 11
2.258520
 21
2.956360
 12
1.515800
 22
2.925120
 13
2.253680
 23
2.925120
  0
POLYLINE
  8
0
  6
CONTINUOUS
 66
     1
 40
0.000000
 41
0.000000
  0
VERTEX
  8
0
  6
CONTINUOUS
 10
1.520200
 20
2.956360
  0
VERTEX
  8
0
  6
CONTINUOUS
 10
2.258520
 20
2.956360
  0
VERTEX
  8
0
  6
CONTINUOUS
 10
2.253680
 20
2.925120
  0
VERTEX
  8
0
  6
CONTINUOUS
 10
1.515800
 20
2.925120
  0
VERTEX
  8
0
  6
CONTINUOUS
 10
1.520200
 20
2.956360
  0
SEQEND
  8
0
  0
SOLID
  8
0
 62
    15
 10
1.515800
 20
2.925120
 11
2.253680
 21
2.925120
 12
1.508320
 22
2.896960
 13
2.246640
 23
2.896960
  0
POLYLINE
  8
0
  6
CONTINUOUS
 66
     1
 40
0.000000
 41
0.000000
  0
VERTEX
  8
0
  6
CONTINUOUS
 10
1.515800
 20
2.925120
  0
VERTEX
  8
0
  6
CONTINUOUS
 10
2.253680
 20
2.925120
  0
VERTEX
  8
0
  6
CONTINUOUS
 10
2.246640
 20
2.896960
  0
VERTEX
  8
0
  6
CONTINUOUS
 10
1.508320
 20
2.896960
  0
VERTEX
  8
0
  6
CONTINUOUS
 10
1.515800
 20
2.925120
  0
SEQEND
  8
0
  0
SOLID
  8
0
 62
    15
 10
1.508320
 20
2.896960
 11
2.246640
 21
2.896960
 12
1.497760
 22
2.871440
 13
2.235640
 23
2.871440
  0
POLYLINE
  8
0
  6
CONTINUOUS
 66
     1
 40
0.000000
 41
0.000000
  0
VERTEX
  8
0
  6
CONTINUOUS
 10
1.508320
 20
2.896960
  0
VERTEX
  8
0
  6
CONTINUOUS
 10
2.246640
 20
2.896960
  0
VERTEX
  8
0
  6
CONTINUOUS
 10
2.235640
 20
2.871440
  0
VERTEX
  8
0
  6
CONTINUOUS
 10
1.497760
 20
2.871440
  0
VERTEX
  8
0
  6
CONTINUOUS
 10
1.508320
 20
2.896960
  0
SEQEND
  8
0
  0
SOLID
  8
0
 62
    15
 10
1.497760
 20
2.871440
 11
2.235640
 21
2.871440
 12
1.482360
 22
2.847240
 13
2.220240
 23
2.847240
  0
POLYLINE
  8
0
  6
CONTINUOUS
 66
     1
 40
0.000000
 41
0.000000
  0
VERTEX
  8
0
  6
CONTINUOUS
 10
1.497760
 20
2.871440
  0
VERTEX
  8
0
  6
CONTINUOUS
 10
2.235640
 20
2.871440
  0
VERTEX
  8
0
  6
CONTINUOUS
 10
2.220240
 20
2.847240
  0
VERTEX
  8
0
  6
CONTINUOUS
 10
1.482360
 20
2.847240
  0
VERTEX
  8
0
  6
CONTINUOUS
 10
1.497760
 20
2.871440
  0
SEQEND
  8
0
  0
SOLID
  8
0
 62
    15
 10
1.482360
 20
2.847240
 11
2.220240
 21
2.847240
 12
1.461240
 22
2.824800
 13
2.199560
 23
2.824800
  0
POLYLINE
  8
0
  6
CONTINUOUS
 66
     1
 40
0.000000
 41
0.000000
  0
VERTEX
  8
0
  6
CONTINUOUS
 10
1.482360
 20
2.847240
  0
VERTEX
  8
0
  6
CONTINUOUS
 10
2.220240
 20
2.847240
  0
VERTEX
  8
0
  6
CONTINUOUS
 10
2.199560
 20
2.824800
  0
VERTEX
  8
0
  6
CONTINUOUS
 10
1.461240
 20
2.824800
  0
VERTEX
  8
0
  6
CONTINUOUS
 10
1.482360
 20
2.847240
  0
SEQEND
  8
0
  0
SOLID
  8
0
 62
    15
 10
1.461240
 20
2.824800
 11
2.199560
 21
2.824800
 12
1.434400
 22
2.802360
 13
2.172720
 23
2.802360
  0
POLYLINE
  8
0
  6
CONTINUOUS
 66
     1
 40
0.000000
 41
0.000000
  0
VERTEX
  8
0
  6
CONTINUOUS
 10
1.461240
 20
2.824800
  0
VERTEX
  8
0
  6
CONTINUOUS
 10
2.199560
 20
2.824800
  0
VERTEX
  8
0
  6
CONTINUOUS
 10
2.172720
 20
2.802360
  0
VERTEX
  8
0
  6
CONTINUOUS
 10
1.434400
 20
2.802360
  0
VERTEX
  8
0
  6
CONTINUOUS
 10
1.461240
 20
2.824800
  0
SEQEND
  8
0
  0
SOLID
  8
0
 62
    15
 10
1.434400
 20
2.802360
 11
2.172720
 21
2.802360
 12
1.400960
 22
2.780360
 13
2.138840
 23
2.780360
  0
POLYLINE
  8
0
  6
CONTINUOUS
 66
     1
 40
0.000000
 41
0.000000
  0
VERTEX
  8
0
  6
CONTINUOUS
 10
1.434400
 20
2.802360
  0
VERTEX
  8
0
  6
CONTINUOUS
 10
2.172720
 20
2.802360
  0
VERTEX
  8
0
  6
CONTINUOUS
 10
2.138840
 20
2.780360
  0
VERTEX
  8
0
  6
CONTINUOUS
 10
1.400960
 20
2.780360
  0
VERTEX
  8
0
  6
CONTINUOUS
 10
1.434400
 20
2.802360
  0
SEQEND
  8
0
  0
SOLID
  8
0
 62
    15
 10
1.400960
 20
2.780360
 11
2.138840
 21
2.780360
 12
1.367960
 22
2.758800
 13
2.105840
 23
2.758800
  0
POLYLINE
  8
0
  6
CONTINUOUS
 66
     1
 40
0.000000
 41
0.000000
  0
VERTEX
  8
0
  6
CONTINUOUS
 10
1.400960
 20
2.780360
  0
VERTEX
  8
0
  6
CONTINUOUS
 10
2.138840
 20
2.780360
  0
VERTEX
  8
0
  6
CONTINUOUS
 10
2.105840
 20
2.758800
  0
VERTEX
  8
0
  6
CONTINUOUS
 10
1.367960
 20
2.758800
  0
VERTEX
  8
0
  6
CONTINUOUS
 10
1.400960
 20
2.780360
  0
SEQEND
  8
0
  0
SOLID
  8
0
 62
    15
 10
1.367960
 20
2.758800
 11
2.105840
 21
2.758800
 12
1.343320
 22
2.739440
 13
2.081640
 23
2.739440
  0
POLYLINE
  8
0
  6
CONTINUOUS
 66
     1
 40
0.000000
 41
0.000000
  0
VERTEX
  8
0
  6
CONTINUOUS
 10
1.367960
 20
2.758800
  0
VERTEX
  8
0
  6
CONTINUOUS
 10
2.105840
 20
2.758800
  0
VERTEX
  8
0
  6
CONTINUOUS
 10
2.081640
 20
2.739440
  0
VERTEX
  8
0
  6
CONTINUOUS
 10
1.343320
 20
2.739440
  0
VERTEX
  8
0
  6
CONTINUOUS
 10
1.367960
 20
2.758800
  0
SEQEND
  8
0
  0
SOLID
  8
0
 62
    15
 10
1.343320
 20
2.739440
 11
2.081640
 21
2.739440
 12
1.326160
 22
2.721400
 13
2.064480
 23
2.721400
  0
POLYLINE
  8
0
  6
CONTINUOUS
 66
     1
 40
0.000000
 41
0.000000
  0
VERTEX
  8
0
  6
CONTINUOUS
 10
1.343320
 20
2.739440
  0
VERTEX
  8
0
  6
CONTINUOUS
 10
2.081640
 20
2.739440
  0
VERTEX
  8
0
  6
CONTINUOUS
 10
2.064480
 20
2.721400
  0
VERTEX
  8
0
  6
CONTINUOUS
 10
1.326160
 20
2.721400
  0
VERTEX
  8
0
  6
CONTINUOUS
 10
1.343320
 20
2.739440
  0
SEQEND
  8
0
  0
SOLID
  8
0
 62
    15
 10
1.326160
 20
2.721400
 11
2.064480
 21
2.721400
 12
1.315160
 22
2.703360
 13
2.053040
 23
2.703360
  0
POLYLINE
  8
0
  6
CONTINUOUS
 66
     1
 40
0.000000
 41
0.000000
  0
VERTEX
  8
0
  6
CONTINUOUS
 10
1.326160
 20
2.721400
  0
VERTEX
  8
0
  6
CONTINUOUS
 10
2.064480
 20
2.721400
  0
VERTEX
  8
0
  6
CONTINUOUS
 10
2.053040
 20
2.703360
  0
VERTEX
  8
0
  6
CONTINUOUS
 10
1.315160
 20
2.703360
  0
VERTEX
  8
0
  6
CONTINUOUS
 10
1.326160
 20
2.721400
  0
SEQEND
  8
0
  0
SOLID
  8
0
 62
    15
 10
1.315160
 20
2.703360
 11
2.053040
 21
2.703360
 12
1.305480
 22
2.663760
 13
2.043360
 23
2.663760
  0
POLYLINE
  8
0
  6
CONTINUOUS
 66
     1
 40
0.000000
 41
0.000000
  0
VERTEX
  8
0
  6
CONTINUOUS
 10
1.315160
 20
2.703360
  0
VERTEX
  8
0
  6
CONTINUOUS
 10
2.053040
 20
2.703360
  0
VERTEX
  8
0
  6
CONTINUOUS
 10
2.043360
 20
2.663760
  0
VERTEX
  8
0
  6
CONTINUOUS
 10
1.305480
 20
2.663760
  0
VERTEX
  8
0
  6
CONTINUOUS
 10
1.315160
 20
2.703360
  0
SEQEND
  8
0
  0
SOLID
  8
0
 62
    15
 10
1.305480
 20
2.663760
 11
2.043360
 21
2.663760
 12
1.304160
 22
2.640440
 13
2.042040
 23
2.640440
  0
POLYLINE
  8
0
  6
CONTINUOUS
 66
     1
 40
0.000000
 41
0.000000
  0
VERTEX
  8
0
  6
CONTINUOUS
 10
1.305480
 20
2.663760
  0
VERTEX
  8
0
  6
CONTINUOUS
 10
2.043360
 20
2.663760
  0
VERTEX
  8
0
  6
CONTINUOUS
 10
2.042040
 20
2.640440
  0
VERTEX
  8
0
  6
CONTINUOUS
 10
1.304160
 20
2.640440
  0
VERTEX
  8
0
  6
CONTINUOUS
 10
1.305480
 20
2.663760
  0
SEQEND
  8
0
  0
SOLID
  8
0
 62
    15
 10
1.304160
 20
2.640440
 11
2.042040
 21
2.640440
 12
1.303720
 22
2.613600
 13
2.041600
 23
2.613600
  0
POLYLINE
  8
0
  6
CONTINUOUS
 66
     1
 40
0.000000
 41
0.000000
  0
VERTEX
  8
0
  6
CONTINUOUS
 10
1.304160
 20
2.640440
  0
VERTEX
  8
0
  6
CONTINUOUS
 10
2.042040
 20
2.640440
  0
VERTEX
  8
0
  6
CONTINUOUS
 10
2.041600
 20
2.613600
  0
VERTEX
  8
0
  6
CONTINUOUS
 10
1.303720
 20
2.613600
  0
VERTEX
  8
0
  6
CONTINUOUS
 10
1.304160
 20
2.640440
  0
SEQEND
  8
0
  0
SOLID
  8
0
 62
    15
 10
1.303720
 20
2.613600
 11
2.041600
 21
2.613600
 12
1.292720
 22
1.704560
 13
2.030600
 23
1.704560
  0
POLYLINE
  8
0
  6
CONTINUOUS
 66
     1
 40
0.000000
 41
0.000000
  0
VERTEX
  8
0
  6
CONTINUOUS
 10
1.303720
 20
2.613600
  0
VERTEX
  8
0
  6
CONTINUOUS
 10
2.041600
 20
2.613600
  0
VERTEX
  8
0
  6
CONTINUOUS
 10
2.030600
 20
1.704560
  0
VERTEX
  8
0
  6
CONTINUOUS
 10
1.292720
 20
1.704560
  0
VERTEX
  8
0
  6
CONTINUOUS
 10
1.303720
 20
2.613600
  0
SEQEND
  8
0
  0
SOLID
  8
0
 62
    15
 10
1.292720
 20
1.704560
 11
2.030600
 21
1.704560
 12
1.206920
 22
1.702360
 13
1.944800
 23
1.702360
  0
POLYLINE
  8
0
  6
CONTINUOUS
 66
     1
 40
0.000000
 41
0.000000
  0
VERTEX
  8
0
  6
CONTINUOUS
 10
1.292720
 20
1.704560
  0
VERTEX
  8
0
  6
CONTINUOUS
 10
2.030600
 20
1.704560
  0
VERTEX
  8
0
  6
CONTINUOUS
 10
1.944800
 20
1.702360
  0
VERTEX
  8
0
  6
CONTINUOUS
 10
1.206920
 20
1.702360
  0
VERTEX
  8
0
  6
CONTINUOUS
 10
1.292720
 20
1.704560
  0
SEQEND
  8
0
  0
SOLID
  8
0
 62
    15
 10
1.206920
 20
1.702360
 11
1.944800
 21
1.702360
 12
1.206920
 22
1.671560
 13
1.944800
 23
1.671560
  0
POLYLINE
  8
0
  6
CONTINUOUS
 66
     1
 40
0.000000
 41
0.000000
  0
VERTEX
  8
0
  6
CONTINUOUS
 10
1.206920
 20
1.702360
  0
VERTEX
  8
0
  6
CONTINUOUS
 10
1.944800
 20
1.702360
  0
VERTEX
  8
0
  6
CONTINUOUS
 10
1.944800
 20
1.671560
  0
VERTEX
  8
0
  6
CONTINUOUS
 10
1.206920
 20
1.671560
  0
VERTEX
  8
0
  6
CONTINUOUS
 10
1.206920
 20
1.702360
  0
SEQEND
  8
0
  0
SOLID
  8
0
 62
    15
 10
1.206920
 20
1.671560
 11
1.944800
 21
1.671560
 12
1.222320
 22
1.638120
 13
1.960640
 23
1.638120
  0
POLYLINE
  8
0
  6
CONTINUOUS
 66
     1
 40
0.000000
 41
0.000000
  0
VERTEX
  8
0
  6
CONTINUOUS
 10
1.206920
 20
1.671560
  0
VERTEX
  8
0
  6
CONTINUOUS
 10
1.944800
 20
1.671560
  0
VERTEX
  8
0
  6
CONTINUOUS
 10
1.960640
 20
1.638120
  0
VERTEX
  8
0
  6
CONTINUOUS
 10
1.222320
 20
1.638120
  0
VERTEX
  8
0
  6
CONTINUOUS
 10
1.206920
 20
1.671560
  0
SEQEND
  8
0
  0
SOLID
  8
0
 62
    15
 10
1.222320
 20
1.638120
 11
1.960640
 21
1.638120
 12
1.229800
 22
1.607760
 13
1.967680
 23
1.607760
  0
POLYLINE
  8
0
  6
CONTINUOUS
 66
     1
 40
0.000000
 41
0.000000
  0
VERTEX
  8
0
  6
CONTINUOUS
 10
1.222320
 20
1.638120
  0
VERTEX
  8
0
  6
CONTINUOUS
 10
1.960640
 20
1.638120
  0
VERTEX
  8
0
  6
CONTINUOUS
 10
1.967680
 20
1.607760
  0
VERTEX
  8
0
  6
CONTINUOUS
 10
1.229800
 20
1.607760
  0
VERTEX
  8
0
  6
CONTINUOUS
 10
1.222320
 20
1.638120
  0
SEQEND
  8
0
  0
SOLID
  8
0
 62
    15
 10
1.229800
 20
1.607760
 11
1.967680
 21
1.607760
 12
1.228920
 22
1.579160
 13
1.966800
 23
1.579160
  0
POLYLINE
  8
0
  6
CONTINUOUS
 66
     1
 40
0.000000
 41
0.000000
  0
VERTEX
  8
0
  6
CONTINUOUS
 10
1.229800
 20
1.607760
  0
VERTEX
  8
0
  6
CONTINUOUS
 10
1.967680
 20
1.607760
  0
VERTEX
  8
0
  6
CONTINUOUS
 10
1.966800
 20
1.579160
  0
VERTEX
  8
0
  6
CONTINUOUS
 10
1.228920
 20
1.579160
  0
VERTEX
  8
0
  6
CONTINUOUS
 10
1.229800
 20
1.607760
  0
SEQEND
  8
0
  0
SOLID
  8
0
 62
    15
 10
1.228920
 20
1.579160
 11
1.966800
 21
1.579160
 12
1.221440
 22
1.551440
 13
1.959320
 23
1.551440
  0
POLYLINE
  8
0
  6
CONTINUOUS
 66
     1
 40
0.000000
 41
0.000000
  0
VERTEX
  8
0
  6
CONTINUOUS
 10
1.228920
 20
1.579160
  0
VERTEX
  8
0
  6
CONTINUOUS
 10
1.966800
 20
1.579160
  0
VERTEX
  8
0
  6
CONTINUOUS
 10
1.959320
 20
1.551440
  0
VERTEX
  8
0
  6
CONTINUOUS
 10
1.221440
 20
1.551440
  0
VERTEX
  8
0
  6
CONTINUOUS
 10
1.228920
 20
1.579160
  0
SEQEND
  8
0
  0
SOLID
  8
0
 62
    15
 10
1.221440
 20
1.551440
 11
1.959320
 21
1.551440
 12
1.207360
 22
1.523280
 13
1.945680
 23
1.523280
  0
POLYLINE
  8
0
  6
CONTINUOUS
 66
     1
 40
0.000000
 41
0.000000
  0
VERTEX
  8
0
  6
CONTINUOUS
 10
1.221440
 20
1.551440
  0
VERTEX
  8
0
  6
CONTINUOUS
 10
1.959320
 20
1.551440
  0
VERTEX
  8
0
  6
CONTINUOUS
 10
1.945680
 20
1.523280
  0
VERTEX
  8
0
  6
CONTINUOUS
 10
1.207360
 20
1.523280
  0
VERTEX
  8
0
  6
CONTINUOUS
 10
1.221440
 20
1.551440
  0
SEQEND
  8
0
  0
SOLID
  8
0
 62
    15
 10
1.207360
 20
1.523280
 11
1.945680
 21
1.523280
 12
1.188440
 22
1.492920
 13
1.926320
 23
1.492920
  0
POLYLINE
  8
0
  6
CONTINUOUS
 66
     1
 40
0.000000
 41
0.000000
  0
VERTEX
  8
0
  6
CONTINUOUS
 10
1.207360
 20
1.523280
  0
VERTEX
  8
0
  6
CONTINUOUS
 10
1.945680
 20
1.523280
  0
VERTEX
  8
0
  6
CONTINUOUS
 10
1.926320
 20
1.492920
  0
VERTEX
  8
0
  6
CONTINUOUS
 10
1.188440
 20
1.492920
  0
VERTEX
  8
0
  6
CONTINUOUS
 10
1.207360
 20
1.523280
  0
SEQEND
  8
0
  0
SOLID
  8
0
 62
    15
 10
1.188440
 20
1.492920
 11
1.926320
 21
1.492920
 12
1.164680
 22
1.459920
 13
1.902560
 23
1.459920
  0
POLYLINE
  8
0
  6
CONTINUOUS
 66
     1
 40
0.000000
 41
0.000000
  0
VERTEX
  8
0
  6
CONTINUOUS
 10
1.188440
 20
1.492920
  0
VERTEX
  8
0
  6
CONTINUOUS
 10
1.926320
 20
1.492920
  0
VERTEX
  8
0
  6
CONTINUOUS
 10
1.902560
 20
1.459920
  0
VERTEX
  8
0
  6
CONTINUOUS
 10
1.164680
 20
1.459920
  0
VERTEX
  8
0
  6
CONTINUOUS
 10
1.188440
 20
1.492920
  0
SEQEND
  8
0
  0
SOLID
  8
0
 62
    15
 10
1.164680
 20
1.459920
 11
1.902560
 21
1.459920
 12
1.136960
 22
1.422080
 13
1.874840
 23
1.422080
  0
POLYLINE
  8
0
  6
CONTINUOUS
 66
     1
 40
0.000000
 41
0.000000
  0
VERTEX
  8
0
  6
CONTINUOUS
 10
1.164680
 20
1.459920
  0
VERTEX
  8
0
  6
CONTINUOUS
 10
1.902560
 20
1.459920
  0
VERTEX
  8
0
  6
CONTINUOUS
 10
1.874840
 20
1.422080
  0
VERTEX
  8
0
  6
CONTINUOUS
 10
1.136960
 20
1.422080
  0
VERTEX
  8
0
  6
CONTINUOUS
 10
1.164680
 20
1.459920
  0
SEQEND
  8
0
  0
SOLID
  8
0
 62
    15
 10
1.136960
 20
1.422080
 11
1.874840
 21
1.422080
 12
1.082400
 22
1.339360
 13
1.820720
 23
1.339360
  0
POLYLINE
  8
0
  6
CONTINUOUS
 66
     1
 40
0.000000
 41
0.000000
  0
VERTEX
  8
0
  6
CONTINUOUS
 10
1.136960
 20
1.422080
  0
VERTEX
  8
0
  6
CONTINUOUS
 10
1.874840
 20
1.422080
  0
VERTEX
  8
0
  6
CONTINUOUS
 10
1.820720
 20
1.339360
  0
VERTEX
  8
0
  6
CONTINUOUS
 10
1.082400
 20
1.339360
  0
VERTEX
  8
0
  6
CONTINUOUS
 10
1.136960
 20
1.422080
  0
SEQEND
  8
0
  0
SOLID
  8
0
 62
    15
 10
1.082400
 20
1.339360
 11
1.820720
 21
1.339360
 12
1.040160
 22
1.253560
 13
1.778040
 23
1.253560
  0
POLYLINE
  8
0
  6
CONTINUOUS
 66
     1
 40
0.000000
 41
0.000000
  0
VERTEX
  8
0
  6
CONTINUOUS
 10
1.082400
 20
1.339360
  0
VERTEX
  8
0
  6
CONTINUOUS
 10
1.820720
 20
1.339360
  0
VERTEX
  8
0
  6
CONTINUOUS
 10
1.778040
 20
1.253560
  0
VERTEX
  8
0
  6
CONTINUOUS
 10
1.040160
 20
1.253560
  0
VERTEX
  8
0
  6
CONTINUOUS
 10
1.082400
 20
1.339360
  0
SEQEND
  8
0
  0
SOLID
  8
0
 62
    15
 10
1.040160
 20
1.253560
 11
1.778040
 21
1.253560
 12
1.024760
 22
1.210000
 13
1.762640
 23
1.210000
  0
POLYLINE
  8
0
  6
CONTINUOUS
 66
     1
 40
0.000000
 41
0.000000
  0
VERTEX
  8
0
  6
CONTINUOUS
 10
1.040160
 20
1.253560
  0
VERTEX
  8
0
  6
CONTINUOUS
 10
1.778040
 20
1.253560
  0
VERTEX
  8
0
  6
CONTINUOUS
 10
1.762640
 20
1.210000
  0
VERTEX
  8
0
  6
CONTINUOUS
 10
1.024760
 20
1.210000
  0
VERTEX
  8
0
  6
CONTINUOUS
 10
1.040160
 20
1.253560
  0
SEQEND
  8
0
  0
SOLID
  8
0
 62
    15
 10
1.024760
 20
1.210000
 11
1.762640
 21
1.210000
 12
1.013760
 22
1.166000
 13
1.751640
 23
1.166000
  0
POLYLINE
  8
0
  6
CONTINUOUS
 66
     1
 40
0.000000
 41
0.000000
  0
VERTEX
  8
0
  6
CONTINUOUS
 10
1.024760
 20
1.210000
  0
VERTEX
  8
0
  6
CONTINUOUS
 10
1.762640
 20
1.210000
  0
VERTEX
  8
0
  6
CONTINUOUS
 10
1.751640
 20
1.166000
  0
VERTEX
  8
0
  6
CONTINUOUS
 10
1.013760
 20
1.166000
  0
VERTEX
  8
0
  6
CONTINUOUS
 10
1.024760
 20
1.210000
  0
SEQEND
  8
0
  0
SOLID
  8
0
 62
    15
 10
1.013760
 20
1.166000
 11
1.751640
 21
1.166000
 12
1.007600
 22
1.122880
 13
1.745480
 23
1.122880
  0
POLYLINE
  8
0
  6
CONTINUOUS
 66
     1
 40
0.000000
 41
0.000000
  0
VERTEX
  8
0
  6
CONTINUOUS
 10
1.013760
 20
1.166000
  0
VERTEX
  8
0
  6
CONTINUOUS
 10
1.751640
 20
1.166000
  0
VERTEX
  8
0
  6
CONTINUOUS
 10
1.745480
 20
1.122880
  0
VERTEX
  8
0
  6
CONTINUOUS
 10
1.007600
 20
1.122880
  0
VERTEX
  8
0
  6
CONTINUOUS
 10
1.013760
 20
1.166000
  0
SEQEND
  8
0
  0
SOLID
  8
0
 62
    15
 10
1.007600
 20
1.122880
 11
1.745480
 21
1.122880
 12
1.007160
 22
1.079760
 13
1.745040
 23
1.079760
  0
POLYLINE
  8
0
  6
CONTINUOUS
 66
     1
 40
0.000000
 41
0.000000
  0
VERTEX
  8
0
  6
CONTINUOUS
 10
1.007600
 20
1.122880
  0
VERTEX
  8
0
  6
CONTINUOUS
 10
1.745480
 20
1.122880
  0
VERTEX
  8
0
  6
CONTINUOUS
 10
1.745040
 20
1.079760
  0
VERTEX
  8
0
  6
CONTINUOUS
 10
1.007160
 20
1.079760
  0
VERTEX
  8
0
  6
CONTINUOUS
 10
1.007600
 20
1.122880
  0
SEQEND
  8
0
  0
SOLID
  8
0
 62
    15
 10
1.158960
 20
5.202560
 11
1.896840
 21
5.202560
 12
1.158960
 22
5.197720
 13
1.896840
 23
5.197720
  0
POLYLINE
  8
0
  6
CONTINUOUS
 66
     1
 40
0.000000
 41
0.000000
  0
VERTEX
  8
0
  6
CONTINUOUS
 10
1.158960
 20
5.202560
  0
VERTEX
  8
0
  6
CONTINUOUS
 10
1.896840
 20
5.202560
  0
VERTEX
  8
0
  6
CONTINUOUS
 10
1.896840
 20
5.197720
  0
VERTEX
  8
0
  6
CONTINUOUS
 10
1.158960
 20
5.197720
  0
VERTEX
  8
0
  6
CONTINUOUS
 10
1.158960
 20
5.202560
  0
SEQEND
  8
0
  0
POLYLINE
  8
0
  6
CONTINUOUS
 66
     1
 40
0.000000
 41
0.000000
  0
VERTEX
  8
0
  6
CONTINUOUS
 10
1.158960
 20
5.197720
  0
VERTEX
  8
0
  6
CONTINUOUS
 10
1.167320
 20
5.158560
  0
VERTEX
  8
0
  6
CONTINUOUS
 10
1.183600
 20
5.122040
  0
VERTEX
  8
0
  6
CONTINUOUS
 10
1.206920
 20
5.088600
  0
VERTEX
  8
0
  6
CONTINUOUS
 10
1.235520
 20
5.059120
  0
VERTEX
  8
0
  6
CONTINUOUS
 10
1.268520
 20
5.033160
  0
VERTEX
  8
0
  6
CONTINUOUS
 10
1.304600
 20
5.011160
  0
VERTEX
  8
0
  6
CONTINUOUS
 10
1.342880
 20
4.994000
  0
VERTEX
  8
0
  6
CONTINUOUS
 10
1.421200
 20
4.967160
  0
VERTEX
  8
0
  6
CONTINUOUS
 10
1.460800
 20
4.948240
  0
VERTEX
  8
0
  6
CONTINUOUS
 10
1.534280
 20
4.898960
  0
VERTEX
  8
0
  6
CONTINUOUS
 10
1.565080
 20
4.871240
  0
VERTEX
  8
0
  6
CONTINUOUS
 10
1.590160
 20
4.843080
  0
VERTEX
  8
0
  6
CONTINUOUS
 10
1.607760
 20
4.815800
  0
VERTEX
  8
0
  6
CONTINUOUS
 10
1.617000
 20
4.790280
  0
VERTEX
  8
0
  6
CONTINUOUS
 10
1.621400
 20
4.740120
  0
VERTEX
  8
0
  6
CONTINUOUS
 10
1.617440
 20
4.689960
  0
VERTEX
  8
0
  6
CONTINUOUS
 10
1.611280
 20
4.667520
  0
VERTEX
  8
0
  6
CONTINUOUS
 10
1.602040
 20
4.648160
  0
VERTEX
  8
0
  6
CONTINUOUS
 10
1.588840
 20
4.632760
  0
VERTEX
  8
0
  6
CONTINUOUS
 10
1.571680
 20
4.622200
  0
VERTEX
  8
0
  6
CONTINUOUS
 10
1.571680
 20
4.599760
  0
VERTEX
  8
0
  6
CONTINUOUS
 10
1.750320
 20
4.580840
  0
VERTEX
  8
0
  6
CONTINUOUS
 10
1.743720
 20
3.672680
  0
VERTEX
  8
0
  6
CONTINUOUS
 10
1.687400
 20
3.637480
  0
VERTEX
  8
0
  6
CONTINUOUS
 10
1.653520
 20
3.613280
  0
VERTEX
  8
0
  6
CONTINUOUS
 10
1.619640
 20
3.583800
  0
VERTEX
  8
0
  6
CONTINUOUS
 10
1.587520
 20
3.548160
  0
VERTEX
  8
0
  6
CONTINUOUS
 10
1.560680
 20
3.505480
  0
VERTEX
  8
0
  6
CONTINUOUS
 10
1.541320
 20
3.455320
  0
VERTEX
  8
0
  6
CONTINUOUS
 10
1.532080
 20
3.396360
  0
VERTEX
  8
0
  6
CONTINUOUS
 10
1.522840
 20
2.991120
  0
VERTEX
  8
0
  6
CONTINUOUS
 10
1.520200
 20
2.956360
  0
VERTEX
  8
0
  6
CONTINUOUS
 10
1.515800
 20
2.925120
  0
VERTEX
  8
0
  6
CONTINUOUS
 10
1.508320
 20
2.896960
  0
VERTEX
  8
0
  6
CONTINUOUS
 10
1.497760
 20
2.871440
  0
VERTEX
  8
0
  6
CONTINUOUS
 10
1.482360
 20
2.847240
  0
VERTEX
  8
0
  6
CONTINUOUS
 10
1.461240
 20
2.824800
  0
VERTEX
  8
0
  6
CONTINUOUS
 10
1.434400
 20
2.802360
  0
VERTEX
  8
0
  6
CONTINUOUS
 10
1.367960
 20
2.758800
  0
VERTEX
  8
0
  6
CONTINUOUS
 10
1.343320
 20
2.739440
  0
VERTEX
  8
0
  6
CONTINUOUS
 10
1.326160
 20
2.721400
  0
VERTEX
  8
0
  6
CONTINUOUS
 10
1.315160
 20
2.703360
  0
VERTEX
  8
0
  6
CONTINUOUS
 10
1.305480
 20
2.663760
  0
VERTEX
  8
0
  6
CONTINUOUS
 10
1.303720
 20
2.613600
  0
VERTEX
  8
0
  6
CONTINUOUS
 10
1.292720
 20
1.704560
  0
VERTEX
  8
0
  6
CONTINUOUS
 10
1.206920
 20
1.702360
  0
VERTEX
  8
0
  6
CONTINUOUS
 10
1.206920
 20
1.671560
  0
VERTEX
  8
0
  6
CONTINUOUS
 10
1.222320
 20
1.638120
  0
VERTEX
  8
0
  6
CONTINUOUS
 10
1.229800
 20
1.607760
  0
VERTEX
  8
0
  6
CONTINUOUS
 10
1.228920
 20
1.579160
  0
VERTEX
  8
0
  6
CONTINUOUS
 10
1.221440
 20
1.551440
  0
VERTEX
  8
0
  6
CONTINUOUS
 10
1.207360
 20
1.523280
  0
VERTEX
  8
0
  6
CONTINUOUS
 10
1.188440
 20
1.492920
  0
VERTEX
  8
0
  6
CONTINUOUS
 10
1.136960
 20
1.422080
  0
VERTEX
  8
0
  6
CONTINUOUS
 10
1.082400
 20
1.339360
  0
VERTEX
  8
0
  6
CONTINUOUS
 10
1.040160
 20
1.253560
  0
VERTEX
  8
0
  6
CONTINUOUS
 10
1.024760
 20
1.210000
  0
VERTEX
  8
0
  6
CONTINUOUS
 10
1.013760
 20
1.166000
  0
VERTEX
  8
0
  6
CONTINUOUS
 10
1.007600
 20
1.122880
  0
VERTEX
  8
0
  6
CONTINUOUS
 10
1.007160
 20
1.079760
  0
VERTEX
  8
0
  6
CONTINUOUS
 10
0.872960
 20
1.079760
  0
VERTEX
  8
0
  6
CONTINUOUS
 10
0.872960
 20
5.202560
  0
VERTEX
  8
0
  6
CONTINUOUS
 10
1.158960
 20
5.202560
  0
VERTEX
  8
0
  6
CONTINUOUS
 10
1.158960
 20
5.197720
  0
SEQEND
  8
0
  0
TEXT
  8
0
 10
1.384240
 20
0.803440
 40
0.138101
  1
BA  753
 41
1.000000
  7
SN0
 71
     0
 72
     5
 11
1.974752
 21
0.803440
  0
TEXT
  8
0
 10
1.228480
 20
0.611600
 40
0.138101
  1
7/8" x 4-1/8"
 41
1.000000
  7
SN0
 71
     0
 72
     5
 11
2.130212
 21
0.611600
  0
POLYLINE
  8
0
  6
CONTINUOUS
 66
     1
 40
0.000000
 41
0.000000
  0
VERTEX
  8
0
  6
CONTINUOUS
 10
2.953720
 20
4.567200
  0
VERTEX
  8
0
  6
CONTINUOUS
 10
2.973960
 20
4.570280
  0
VERTEX
  8
0
  6
CONTINUOUS
 10
2.992880
 20
4.575560
  0
VERTEX
  8
0
  6
CONTINUOUS
 10
3.029400
 20
4.591840
  0
VERTEX
  8
0
  6
CONTINUOUS
 10
3.062840
 20
4.615160
  0
VERTEX
  8
0
  6
CONTINUOUS
 10
3.092320
 20
4.643320
  0
VERTEX
  8
0
  6
CONTINUOUS
 10
3.118280
 20
4.676320
  0
VERTEX
  8
0
  6
CONTINUOUS
 10
3.140280
 20
4.712400
  0
VERTEX
  8
0
  6
CONTINUOUS
 10
3.157880
 20
4.750680
  0
VERTEX
  8
0
  6
CONTINUOUS
 10
3.184280
 20
4.829440
  0
VERTEX
  8
0
  6
CONTINUOUS
 10
3.203200
 20
4.869040
  0
VERTEX
  8
0
  6
CONTINUOUS
 10
3.226520
 20
4.907320
  0
VERTEX
  8
0
  6
CONTINUOUS
 10
3.252480
 20
4.942520
  0
VERTEX
  8
0
  6
CONTINUOUS
 10
3.280200
 20
4.973320
  0
VERTEX
  8
0
  6
CONTINUOUS
 10
3.308360
 20
4.998400
  0
VERTEX
  8
0
  6
CONTINUOUS
 10
3.336080
 20
5.016000
  0
VERTEX
  8
0
  6
CONTINUOUS
 10
3.355000
 20
5.023480
  0
VERTEX
  8
0
  6
CONTINUOUS
 10
3.385800
 20
5.027880
  0
VERTEX
  8
0
  6
CONTINUOUS
 10
3.411320
 20
5.029640
  0
VERTEX
  8
0
  6
CONTINUOUS
 10
3.449600
 20
5.027440
  0
VERTEX
  8
0
  6
CONTINUOUS
 10
3.472920
 20
5.023040
  0
VERTEX
  8
0
  6
CONTINUOUS
 10
3.494040
 20
5.015120
  0
VERTEX
  8
0
  6
CONTINUOUS
 10
3.503720
 20
5.010280
  0
VERTEX
  8
0
  6
CONTINUOUS
 10
3.519120
 20
4.997080
  0
VERTEX
  8
0
  6
CONTINUOUS
 10
3.524840
 20
4.989160
  0
VERTEX
  8
0
  6
CONTINUOUS
 10
3.529240
 20
4.979920
  0
VERTEX
  8
0
  6
CONTINUOUS
 10
3.551680
 20
4.979920
  0
VERTEX
  8
0
  6
CONTINUOUS
 10
3.570600
 20
5.158560
  0
VERTEX
  8
0
  6
CONTINUOUS
 10
4.478760
 20
5.151960
  0
VERTEX
  8
0
  6
CONTINUOUS
 10
4.513960
 20
5.095640
  0
VERTEX
  8
0
  6
CONTINUOUS
 10
4.537720
 20
5.061760
  0
VERTEX
  8
0
  6
CONTINUOUS
 10
4.567640
 20
5.027440
  0
VERTEX
  8
0
  6
CONTINUOUS
 10
4.584360
 20
5.011160
  0
VERTEX
  8
0
  6
CONTINUOUS
 10
4.623520
 20
4.981680
  0
VERTEX
  8
0
  6
CONTINUOUS
 10
4.657840
 20
4.963200
  0
VERTEX
  8
0
  6
CONTINUOUS
 10
4.696120
 20
4.949560
  0
VERTEX
  8
0
  6
CONTINUOUS
 10
4.724720
 20
4.943400
  0
VERTEX
  8
0
  6
CONTINUOUS
 10
4.755080
 20
4.940320
  0
VERTEX
  8
0
  6
CONTINUOUS
 10
5.178360
 20
4.930200
  0
VERTEX
  8
0
  6
CONTINUOUS
 10
5.226320
 20
4.924040
  0
VERTEX
  8
0
  6
CONTINUOUS
 10
5.254480
 20
4.916560
  0
VERTEX
  8
0
  6
CONTINUOUS
 10
5.280440
 20
4.905560
  0
VERTEX
  8
0
  6
CONTINUOUS
 10
5.304200
 20
4.890160
  0
VERTEX
  8
0
  6
CONTINUOUS
 10
5.326640
 20
4.869480
  0
VERTEX
  8
0
  6
CONTINUOUS
 10
5.349080
 20
4.842640
  0
VERTEX
  8
0
  6
CONTINUOUS
 10
5.392200
 20
4.775760
  0
VERTEX
  8
0
  6
CONTINUOUS
 10
5.411560
 20
4.751560
  0
VERTEX
  8
0
  6
CONTINUOUS
 10
5.430040
 20
4.734400
  0
VERTEX
  8
0
  6
CONTINUOUS
 10
5.448080
 20
4.722960
  0
VERTEX
  8
0
  6
CONTINUOUS
 10
5.467000
 20
4.716800
  0
VERTEX
  8
0
  6
CONTINUOUS
 10
5.487680
 20
4.713280
  0
VERTEX
  8
0
  6
CONTINUOUS
 10
5.537840
 20
4.711520
  0
VERTEX
  8
0
  6
CONTINUOUS
 10
6.446880
 20
4.700960
  0
VERTEX
  8
0
  6
CONTINUOUS
 10
6.449080
 20
4.614720
  0
VERTEX
  8
0
  6
CONTINUOUS
 10
6.479880
 20
4.615160
  0
VERTEX
  8
0
  6
CONTINUOUS
 10
6.513320
 20
4.630560
  0
VERTEX
  8
0
  6
CONTINUOUS
 10
6.528720
 20
4.635400
  0
VERTEX
  8
0
  6
CONTINUOUS
 10
6.543680
 20
4.638040
  0
VERTEX
  8
0
  6
CONTINUOUS
 10
6.558200
 20
4.638480
  0
VERTEX
  8
0
  6
CONTINUOUS
 10
6.572280
 20
4.637160
  0
VERTEX
  8
0
  6
CONTINUOUS
 10
6.600000
 20
4.629680
  0
VERTEX
  8
0
  6
CONTINUOUS
 10
6.628160
 20
4.615600
  0
VERTEX
  8
0
  6
CONTINUOUS
 10
6.674360
 20
4.585240
  0
VERTEX
  8
0
  6
CONTINUOUS
 10
6.749600
 20
4.530240
  0
VERTEX
  8
0
  6
CONTINUOUS
 10
6.812080
 20
4.490640
  0
VERTEX
  8
0
  6
CONTINUOUS
 10
6.854760
 20
4.467760
  0
VERTEX
  8
0
  6
CONTINUOUS
 10
6.897880
 20
4.447960
  0
VERTEX
  8
0
  6
CONTINUOUS
 10
6.941880
 20
4.432560
  0
VERTEX
  8
0
  6
CONTINUOUS
 10
6.985440
 20
4.421560
  0
VERTEX
  8
0
  6
CONTINUOUS
 10
7.028560
 20
4.415400
  0
VERTEX
  8
0
  6
CONTINUOUS
 10
7.071680
 20
4.414960
  0
VERTEX
  8
0
  6
CONTINUOUS
 10
7.071680
 20
4.281200
  0
VERTEX
  8
0
  6
CONTINUOUS
 10
2.948880
 20
4.281200
  0
VERTEX
  8
0
  6
CONTINUOUS
 10
2.948880
 20
4.567200
  0
VERTEX
  8
0
  6
CONTINUOUS
 10
2.953720
 20
4.567200
  0
SEQEND
  8
0
  0
ENDSEC
  0
EOF
