  0
SECTION
  2
HEADER
  9
$ACADVER
  1
AC1006
  9
$EXTMIN
 10
4.082760
 20
0.457600
  9
$EXTMAX
 10
6.833200
 20
2.829200
  9
$LTSCALE
 40
0.044000
  9
$PDMODE
 70
    35
  9
$PDSIZE
 40
0.035200
  0
ENDSEC
  0
SECTION
  2
TABLES
  0
TABLE
  2
LTYPE
 70
     9
  0
LTYPE
  2
CONTINUOUS
 70
    64
  3
Solid line
 72
    65
 73
     0
 40
0.000000
  0
LTYPE
  2
DASHED
 70
    64
  3
__ __ __ __ __ __ __ __ __ __ __ __ __ __ __
 72
    65
 73
     2
 40
0.000330
 49
0.000220
 49
-0.000110
  0
LTYPE
  2
HIDDEN
 70
    64
  3
 _ _ _ _ _ _ _ _ _ _ _ _ _ _ _ _ _ _ _ _ _ _
 72
    65
 73
     2
 40
0.000165
 49
0.000110
 49
-0.000055
  0
LTYPE
  2
CENTER
 70
    64
  3
____ _ ____ _ ____ _ ____ _ ____ _ ____ _ ____
 72
    65
 73
     4
 40
0.000880
 49
0.000550
 49
-0.000110
 49
0.000110
 49
-0.000110
  0
LTYPE
  2
PHANTOM
 70
    64
  3
_____ _ _ _____ _ _ _____ _ _ _____ _ _ ____
 72
    65
 73
     6
 40
0.001100
 49
0.000550
 49
-0.000110
 49
0.000110
 49
-0.000110
 49
0.000110
 49
-0.000110
  0
LTYPE
  2
DOT
 70
    64
  3
...............................................
 72
    65
 73
     2
 40
0.000110
 49
0.000000
 49
-0.000110
  0
LTYPE
  2
DASHDOT
 70
    64
  3
__ . __ . __ . __ . __ . __ . __ . __ . __ . __
 72
    65
 73
     4
 40
0.000440
 49
0.000220
 49
-0.000110
 49
0.000000
 49
-0.000110
  0
LTYPE
  2
BORDER
 70
    64
  3
__ __ . __ __ . __ __ . __ __ . __ __ . __ __
 72
    65
 73
     6
 40
0.000770
 49
0.000220
 49
-0.000110
 49
0.000220
 49
-0.000110
 49
0.000000
 49
-0.000110
  0
LTYPE
  2
DIVIDE
 70
    64
  3
__ . . __ . . __ . . __ . . __ . . __ . . __
 72
    65
 73
     6
 40
0.000550
 49
0.000220
 49
-0.000110
 49
0.000000
 49
-0.000110
 49
0.000000
 49
-0.000110
  0
LTYPE
  2
DOTDOT
 70
    64
  3
 . .  . .  . .  . .  . .  . . 
 72
    65
 73
     5
 40
0.000242
 49
-0.000110
 49
0.000000
 49
-0.000110
 49
0.000000
 49
-0.000110
  0
ENDTAB
  0
TABLE
  2
STYLE
 70
     2
  0
STYLE
 70
     0
  2
SN0
 40
0.000000
 41
0.000440
 50
0.000000
 71
     0
 42
0.000000
  3
ROMAND
  0
STYLE
 70
    68
  2
SV0
 40
0.000000
 41
0.000440
 50
0.000000
 71
     0
 42
0.000000
  3
ROMAND
  0
ENDTAB
  0
TABLE
  2
LAYER
 70
     3
  0
LAYER
  2
FOREGROUND
 70
    64
 62
     7
  6
CONTINUOUS
  0
LAYER
  2
BACKGROUND
 70
    65
 62
    -7
  6
CONTINUOUS
  0
LAYER
  2
0
 70
    64
 62
     7
  6
CONTINUOUS
  0
ENDTAB
  0
ENDSEC
  0
SECTION
  2
ENTITIES
  0
POLYLINE
  8
FOREGROUND
  6
CONTINUOUS
 66
     1
 40
0.000000
 41
0.000000
  0
VERTEX
  8
FOREGROUND
  6
CONTINUOUS
 10
0.000000
 20
3.286800
  0
VERTEX
  8
FOREGROUND
  6
CONTINUOUS
 10
8.499920
 20
3.286800
  0
VERTEX
  8
FOREGROUND
  6
CONTINUOUS
 10
8.499920
 20
-7.713200
  0
VERTEX
  8
FOREGROUND
  6
CONTINUOUS
 10
0.000000
 20
-7.713200
  0
VERTEX
  8
FOREGROUND
  6
CONTINUOUS
 10
0.000000
 20
3.286800
  0
SEQEND
  8
0
  0
POLYLINE
  8
FOREGROUND
  6
CONTINUOUS
 66
     1
 40
0.000000
 41
0.000000
  0
VERTEX
  8
FOREGROUND
  6
CONTINUOUS
 10
0.000000
 20
3.286800
  0
VERTEX
  8
FOREGROUND
  6
CONTINUOUS
 10
8.499920
 20
3.286800
  0
VERTEX
  8
FOREGROUND
  6
CONTINUOUS
 10
8.499920
 20
-7.713200
  0
VERTEX
  8
FOREGROUND
  6
CONTINUOUS
 10
0.000000
 20
-7.713200
  0
VERTEX
  8
FOREGROUND
  6
CONTINUOUS
 10
0.000000
 20
3.286800
  0
SEQEND
  8
0
  0
SOLID
  8
0
 62
     7
 10
4.477000
 20
1.765280
 11
5.118960
 21
2.134880
 12
4.485800
 22
1.740200
 13
5.128200
 23
2.109360
  0
POLYLINE
  8
0
  6
CONTINUOUS
 66
     1
 40
0.000000
 41
0.000000
  0
VERTEX
  8
0
  6
CONTINUOUS
 10
4.477000
 20
1.765280
  0
VERTEX
  8
0
  6
CONTINUOUS
 10
5.118960
 20
2.134880
  0
VERTEX
  8
0
  6
CONTINUOUS
 10
5.128200
 20
2.109360
  0
VERTEX
  8
0
  6
CONTINUOUS
 10
4.485800
 20
1.740200
  0
VERTEX
  8
0
  6
CONTINUOUS
 10
4.477000
 20
1.765280
  0
SEQEND
  8
0
  0
SOLID
  8
0
 62
     7
 10
4.287360
 20
2.393160
 11
4.929320
 21
2.762320
 12
4.294840
 22
2.363680
 13
4.936800
 23
2.733280
  0
POLYLINE
  8
0
  6
CONTINUOUS
 66
     1
 40
0.000000
 41
0.000000
  0
VERTEX
  8
0
  6
CONTINUOUS
 10
4.287360
 20
2.393160
  0
VERTEX
  8
0
  6
CONTINUOUS
 10
4.929320
 20
2.762320
  0
VERTEX
  8
0
  6
CONTINUOUS
 10
4.936800
 20
2.733280
  0
VERTEX
  8
0
  6
CONTINUOUS
 10
4.294840
 20
2.363680
  0
VERTEX
  8
0
  6
CONTINUOUS
 10
4.287360
 20
2.393160
  0
SEQEND
  8
0
  0
SOLID
  8
0
 62
     7
 10
4.294840
 20
2.363680
 11
4.936800
 21
2.733280
 12
4.308040
 22
2.337280
 13
4.950000
 23
2.706440
  0
POLYLINE
  8
0
  6
CONTINUOUS
 66
     1
 40
0.000000
 41
0.000000
  0
VERTEX
  8
0
  6
CONTINUOUS
 10
4.294840
 20
2.363680
  0
VERTEX
  8
0
  6
CONTINUOUS
 10
4.936800
 20
2.733280
  0
VERTEX
  8
0
  6
CONTINUOUS
 10
4.950000
 20
2.706440
  0
VERTEX
  8
0
  6
CONTINUOUS
 10
4.308040
 20
2.337280
  0
VERTEX
  8
0
  6
CONTINUOUS
 10
4.294840
 20
2.363680
  0
SEQEND
  8
0
  0
SOLID
  8
0
 62
     7
 10
4.308040
 20
2.337280
 11
4.950000
 21
2.706440
 12
4.328280
 22
2.313080
 13
4.970680
 23
2.682680
  0
POLYLINE
  8
0
  6
CONTINUOUS
 66
     1
 40
0.000000
 41
0.000000
  0
VERTEX
  8
0
  6
CONTINUOUS
 10
4.308040
 20
2.337280
  0
VERTEX
  8
0
  6
CONTINUOUS
 10
4.950000
 20
2.706440
  0
VERTEX
  8
0
  6
CONTINUOUS
 10
4.970680
 20
2.682680
  0
VERTEX
  8
0
  6
CONTINUOUS
 10
4.328280
 20
2.313080
  0
VERTEX
  8
0
  6
CONTINUOUS
 10
4.308040
 20
2.337280
  0
SEQEND
  8
0
  0
SOLID
  8
0
 62
     7
 10
4.328280
 20
2.313080
 11
4.970680
 21
2.682680
 12
4.357320
 22
2.292400
 13
4.999720
 23
2.661560
  0
POLYLINE
  8
0
  6
CONTINUOUS
 66
     1
 40
0.000000
 41
0.000000
  0
VERTEX
  8
0
  6
CONTINUOUS
 10
4.328280
 20
2.313080
  0
VERTEX
  8
0
  6
CONTINUOUS
 10
4.970680
 20
2.682680
  0
VERTEX
  8
0
  6
CONTINUOUS
 10
4.999720
 20
2.661560
  0
VERTEX
  8
0
  6
CONTINUOUS
 10
4.357320
 20
2.292400
  0
VERTEX
  8
0
  6
CONTINUOUS
 10
4.328280
 20
2.313080
  0
SEQEND
  8
0
  0
SOLID
  8
0
 62
    15
 10
4.357320
 20
2.292400
 11
4.999720
 21
2.661560
 12
4.396480
 22
2.274800
 13
5.038440
 23
2.644400
  0
POLYLINE
  8
0
  6
CONTINUOUS
 66
     1
 40
0.000000
 41
0.000000
  0
VERTEX
  8
0
  6
CONTINUOUS
 10
4.357320
 20
2.292400
  0
VERTEX
  8
0
  6
CONTINUOUS
 10
4.999720
 20
2.661560
  0
VERTEX
  8
0
  6
CONTINUOUS
 10
5.038440
 20
2.644400
  0
VERTEX
  8
0
  6
CONTINUOUS
 10
4.396480
 20
2.274800
  0
VERTEX
  8
0
  6
CONTINUOUS
 10
4.357320
 20
2.292400
  0
SEQEND
  8
0
  0
SOLID
  8
0
 62
    15
 10
4.396480
 20
2.274800
 11
5.038440
 21
2.644400
 12
4.446640
 22
2.261600
 13
5.089040
 23
2.631200
  0
POLYLINE
  8
0
  6
CONTINUOUS
 66
     1
 40
0.000000
 41
0.000000
  0
VERTEX
  8
0
  6
CONTINUOUS
 10
4.396480
 20
2.274800
  0
VERTEX
  8
0
  6
CONTINUOUS
 10
5.038440
 20
2.644400
  0
VERTEX
  8
0
  6
CONTINUOUS
 10
5.089040
 20
2.631200
  0
VERTEX
  8
0
  6
CONTINUOUS
 10
4.446640
 20
2.261600
  0
VERTEX
  8
0
  6
CONTINUOUS
 10
4.396480
 20
2.274800
  0
SEQEND
  8
0
  0
SOLID
  8
0
 62
    15
 10
4.446640
 20
2.261600
 11
5.089040
 21
2.631200
 12
4.446640
 22
2.134880
 13
5.089040
 23
2.504040
  0
POLYLINE
  8
0
  6
CONTINUOUS
 66
     1
 40
0.000000
 41
0.000000
  0
VERTEX
  8
0
  6
CONTINUOUS
 10
4.446640
 20
2.261600
  0
VERTEX
  8
0
  6
CONTINUOUS
 10
5.089040
 20
2.631200
  0
VERTEX
  8
0
  6
CONTINUOUS
 10
5.089040
 20
2.504040
  0
VERTEX
  8
0
  6
CONTINUOUS
 10
4.446640
 20
2.134880
  0
VERTEX
  8
0
  6
CONTINUOUS
 10
4.446640
 20
2.261600
  0
SEQEND
  8
0
  0
SOLID
  8
0
 62
    15
 10
4.446640
 20
2.134880
 11
5.089040
 21
2.504040
 12
4.478760
 22
2.132240
 13
5.121160
 23
2.501840
  0
POLYLINE
  8
0
  6
CONTINUOUS
 66
     1
 40
0.000000
 41
0.000000
  0
VERTEX
  8
0
  6
CONTINUOUS
 10
4.446640
 20
2.134880
  0
VERTEX
  8
0
  6
CONTINUOUS
 10
5.089040
 20
2.504040
  0
VERTEX
  8
0
  6
CONTINUOUS
 10
5.121160
 20
2.501840
  0
VERTEX
  8
0
  6
CONTINUOUS
 10
4.478760
 20
2.132240
  0
VERTEX
  8
0
  6
CONTINUOUS
 10
4.446640
 20
2.134880
  0
SEQEND
  8
0
  0
SOLID
  8
0
 62
    15
 10
4.478760
 20
2.132240
 11
5.121160
 21
2.501840
 12
4.509560
 22
2.125640
 13
5.151520
 23
2.494800
  0
POLYLINE
  8
0
  6
CONTINUOUS
 66
     1
 40
0.000000
 41
0.000000
  0
VERTEX
  8
0
  6
CONTINUOUS
 10
4.478760
 20
2.132240
  0
VERTEX
  8
0
  6
CONTINUOUS
 10
5.121160
 20
2.501840
  0
VERTEX
  8
0
  6
CONTINUOUS
 10
5.151520
 20
2.494800
  0
VERTEX
  8
0
  6
CONTINUOUS
 10
4.509560
 20
2.125640
  0
VERTEX
  8
0
  6
CONTINUOUS
 10
4.478760
 20
2.132240
  0
SEQEND
  8
0
  0
SOLID
  8
0
 62
    15
 10
4.509560
 20
2.125640
 11
5.151520
 21
2.494800
 12
4.564120
 22
2.101000
 13
5.206520
 23
2.470600
  0
POLYLINE
  8
0
  6
CONTINUOUS
 66
     1
 40
0.000000
 41
0.000000
  0
VERTEX
  8
0
  6
CONTINUOUS
 10
4.509560
 20
2.125640
  0
VERTEX
  8
0
  6
CONTINUOUS
 10
5.151520
 20
2.494800
  0
VERTEX
  8
0
  6
CONTINUOUS
 10
5.206520
 20
2.470600
  0
VERTEX
  8
0
  6
CONTINUOUS
 10
4.564120
 20
2.101000
  0
VERTEX
  8
0
  6
CONTINUOUS
 10
4.509560
 20
2.125640
  0
SEQEND
  8
0
  0
SOLID
  8
0
 62
     7
 10
4.564120
 20
2.101000
 11
5.206520
 21
2.470600
 12
4.587440
 22
2.084280
 13
5.229400
 23
2.453880
  0
POLYLINE
  8
0
  6
CONTINUOUS
 66
     1
 40
0.000000
 41
0.000000
  0
VERTEX
  8
0
  6
CONTINUOUS
 10
4.564120
 20
2.101000
  0
VERTEX
  8
0
  6
CONTINUOUS
 10
5.206520
 20
2.470600
  0
VERTEX
  8
0
  6
CONTINUOUS
 10
5.229400
 20
2.453880
  0
VERTEX
  8
0
  6
CONTINUOUS
 10
4.587440
 20
2.084280
  0
VERTEX
  8
0
  6
CONTINUOUS
 10
4.564120
 20
2.101000
  0
SEQEND
  8
0
  0
SOLID
  8
0
 62
     7
 10
4.587440
 20
2.084280
 11
5.229400
 21
2.453880
 12
4.606360
 22
2.064920
 13
5.248760
 23
2.434520
  0
POLYLINE
  8
0
  6
CONTINUOUS
 66
     1
 40
0.000000
 41
0.000000
  0
VERTEX
  8
0
  6
CONTINUOUS
 10
4.587440
 20
2.084280
  0
VERTEX
  8
0
  6
CONTINUOUS
 10
5.229400
 20
2.453880
  0
VERTEX
  8
0
  6
CONTINUOUS
 10
5.248760
 20
2.434520
  0
VERTEX
  8
0
  6
CONTINUOUS
 10
4.606360
 20
2.064920
  0
VERTEX
  8
0
  6
CONTINUOUS
 10
4.587440
 20
2.084280
  0
SEQEND
  8
0
  0
SOLID
  8
0
 62
     7
 10
4.606360
 20
2.064920
 11
5.248760
 21
2.434520
 12
4.621760
 22
2.043800
 13
5.263720
 23
2.413400
  0
POLYLINE
  8
0
  6
CONTINUOUS
 66
     1
 40
0.000000
 41
0.000000
  0
VERTEX
  8
0
  6
CONTINUOUS
 10
4.606360
 20
2.064920
  0
VERTEX
  8
0
  6
CONTINUOUS
 10
5.248760
 20
2.434520
  0
VERTEX
  8
0
  6
CONTINUOUS
 10
5.263720
 20
2.413400
  0
VERTEX
  8
0
  6
CONTINUOUS
 10
4.621760
 20
2.043800
  0
VERTEX
  8
0
  6
CONTINUOUS
 10
4.606360
 20
2.064920
  0
SEQEND
  8
0
  0
SOLID
  8
0
 62
     7
 10
4.621760
 20
2.043800
 11
5.263720
 21
2.413400
 12
4.631880
 22
2.020920
 13
5.274280
 23
2.390520
  0
POLYLINE
  8
0
  6
CONTINUOUS
 66
     1
 40
0.000000
 41
0.000000
  0
VERTEX
  8
0
  6
CONTINUOUS
 10
4.621760
 20
2.043800
  0
VERTEX
  8
0
  6
CONTINUOUS
 10
5.263720
 20
2.413400
  0
VERTEX
  8
0
  6
CONTINUOUS
 10
5.274280
 20
2.390520
  0
VERTEX
  8
0
  6
CONTINUOUS
 10
4.631880
 20
2.020920
  0
VERTEX
  8
0
  6
CONTINUOUS
 10
4.621760
 20
2.043800
  0
SEQEND
  8
0
  0
SOLID
  8
0
 62
    15
 10
4.631880
 20
2.020920
 11
5.274280
 21
2.390520
 12
4.637160
 22
1.997160
 13
5.279120
 23
2.366320
  0
POLYLINE
  8
0
  6
CONTINUOUS
 66
     1
 40
0.000000
 41
0.000000
  0
VERTEX
  8
0
  6
CONTINUOUS
 10
4.631880
 20
2.020920
  0
VERTEX
  8
0
  6
CONTINUOUS
 10
5.274280
 20
2.390520
  0
VERTEX
  8
0
  6
CONTINUOUS
 10
5.279120
 20
2.366320
  0
VERTEX
  8
0
  6
CONTINUOUS
 10
4.637160
 20
1.997160
  0
VERTEX
  8
0
  6
CONTINUOUS
 10
4.631880
 20
2.020920
  0
SEQEND
  8
0
  0
SOLID
  8
0
 62
    15
 10
4.637160
 20
1.997160
 11
5.279120
 21
2.366320
 12
4.636280
 22
1.972520
 13
5.278240
 23
2.341680
  0
POLYLINE
  8
0
  6
CONTINUOUS
 66
     1
 40
0.000000
 41
0.000000
  0
VERTEX
  8
0
  6
CONTINUOUS
 10
4.637160
 20
1.997160
  0
VERTEX
  8
0
  6
CONTINUOUS
 10
5.279120
 20
2.366320
  0
VERTEX
  8
0
  6
CONTINUOUS
 10
5.278240
 20
2.341680
  0
VERTEX
  8
0
  6
CONTINUOUS
 10
4.636280
 20
1.972520
  0
VERTEX
  8
0
  6
CONTINUOUS
 10
4.637160
 20
1.997160
  0
SEQEND
  8
0
  0
SOLID
  8
0
 62
    15
 10
4.636280
 20
1.972520
 11
5.278240
 21
2.341680
 12
4.628800
 22
1.947440
 13
5.270760
 23
2.317040
  0
POLYLINE
  8
0
  6
CONTINUOUS
 66
     1
 40
0.000000
 41
0.000000
  0
VERTEX
  8
0
  6
CONTINUOUS
 10
4.636280
 20
1.972520
  0
VERTEX
  8
0
  6
CONTINUOUS
 10
5.278240
 20
2.341680
  0
VERTEX
  8
0
  6
CONTINUOUS
 10
5.270760
 20
2.317040
  0
VERTEX
  8
0
  6
CONTINUOUS
 10
4.628800
 20
1.947440
  0
VERTEX
  8
0
  6
CONTINUOUS
 10
4.636280
 20
1.972520
  0
SEQEND
  8
0
  0
SOLID
  8
0
 62
    15
 10
4.628800
 20
1.947440
 11
5.270760
 21
2.317040
 12
4.614280
 22
1.922800
 13
5.256680
 23
2.292400
  0
POLYLINE
  8
0
  6
CONTINUOUS
 66
     1
 40
0.000000
 41
0.000000
  0
VERTEX
  8
0
  6
CONTINUOUS
 10
4.628800
 20
1.947440
  0
VERTEX
  8
0
  6
CONTINUOUS
 10
5.270760
 20
2.317040
  0
VERTEX
  8
0
  6
CONTINUOUS
 10
5.256680
 20
2.292400
  0
VERTEX
  8
0
  6
CONTINUOUS
 10
4.614280
 20
1.922800
  0
VERTEX
  8
0
  6
CONTINUOUS
 10
4.628800
 20
1.947440
  0
SEQEND
  8
0
  0
SOLID
  8
0
 62
    15
 10
4.476120
 20
1.835240
 11
5.118520
 21
2.204400
 12
4.472160
 22
1.812800
 13
5.114560
 23
2.182400
  0
POLYLINE
  8
0
  6
CONTINUOUS
 66
     1
 40
0.000000
 41
0.000000
  0
VERTEX
  8
0
  6
CONTINUOUS
 10
4.476120
 20
1.835240
  0
VERTEX
  8
0
  6
CONTINUOUS
 10
5.118520
 20
2.204400
  0
VERTEX
  8
0
  6
CONTINUOUS
 10
5.114560
 20
2.182400
  0
VERTEX
  8
0
  6
CONTINUOUS
 10
4.472160
 20
1.812800
  0
VERTEX
  8
0
  6
CONTINUOUS
 10
4.476120
 20
1.835240
  0
SEQEND
  8
0
  0
SOLID
  8
0
 62
    15
 10
4.592720
 20
1.898600
 11
5.234680
 21
2.268200
 12
4.562800
 22
1.875720
 13
5.204760
 23
2.245320
  0
POLYLINE
  8
0
  6
CONTINUOUS
 66
     1
 40
0.000000
 41
0.000000
  0
VERTEX
  8
0
  6
CONTINUOUS
 10
4.592720
 20
1.898600
  0
VERTEX
  8
0
  6
CONTINUOUS
 10
5.234680
 20
2.268200
  0
VERTEX
  8
0
  6
CONTINUOUS
 10
5.204760
 20
2.245320
  0
VERTEX
  8
0
  6
CONTINUOUS
 10
4.562800
 20
1.875720
  0
VERTEX
  8
0
  6
CONTINUOUS
 10
4.592720
 20
1.898600
  0
SEQEND
  8
0
  0
SOLID
  8
0
 62
    15
 10
4.614280
 20
1.922800
 11
5.256680
 21
2.292400
 12
4.592720
 22
1.898600
 13
5.234680
 23
2.268200
  0
POLYLINE
  8
0
  6
CONTINUOUS
 66
     1
 40
0.000000
 41
0.000000
  0
VERTEX
  8
0
  6
CONTINUOUS
 10
4.614280
 20
1.922800
  0
VERTEX
  8
0
  6
CONTINUOUS
 10
5.256680
 20
2.292400
  0
VERTEX
  8
0
  6
CONTINUOUS
 10
5.234680
 20
2.268200
  0
VERTEX
  8
0
  6
CONTINUOUS
 10
4.592720
 20
1.898600
  0
VERTEX
  8
0
  6
CONTINUOUS
 10
4.614280
 20
1.922800
  0
SEQEND
  8
0
  0
SOLID
  8
0
 62
    15
 10
4.472160
 20
1.812800
 11
5.114560
 21
2.182400
 12
4.472600
 22
1.789480
 13
5.114560
 23
2.159080
  0
POLYLINE
  8
0
  6
CONTINUOUS
 66
     1
 40
0.000000
 41
0.000000
  0
VERTEX
  8
0
  6
CONTINUOUS
 10
4.472160
 20
1.812800
  0
VERTEX
  8
0
  6
CONTINUOUS
 10
5.114560
 20
2.182400
  0
VERTEX
  8
0
  6
CONTINUOUS
 10
5.114560
 20
2.159080
  0
VERTEX
  8
0
  6
CONTINUOUS
 10
4.472600
 20
1.789480
  0
VERTEX
  8
0
  6
CONTINUOUS
 10
4.472160
 20
1.812800
  0
SEQEND
  8
0
  0
SOLID
  8
0
 62
    15
 10
4.472600
 20
1.789480
 11
5.114560
 21
2.159080
 12
4.477000
 22
1.765280
 13
5.118960
 23
2.134880
  0
POLYLINE
  8
0
  6
CONTINUOUS
 66
     1
 40
0.000000
 41
0.000000
  0
VERTEX
  8
0
  6
CONTINUOUS
 10
4.472600
 20
1.789480
  0
VERTEX
  8
0
  6
CONTINUOUS
 10
5.114560
 20
2.159080
  0
VERTEX
  8
0
  6
CONTINUOUS
 10
5.118960
 20
2.134880
  0
VERTEX
  8
0
  6
CONTINUOUS
 10
4.477000
 20
1.765280
  0
VERTEX
  8
0
  6
CONTINUOUS
 10
4.472600
 20
1.789480
  0
SEQEND
  8
0
  0
SOLID
  8
0
 62
    15
 10
4.284280
 20
2.456520
 11
4.926240
 21
2.826120
 12
4.287360
 22
2.393160
 13
4.929320
 23
2.762320
  0
POLYLINE
  8
0
  6
CONTINUOUS
 66
     1
 40
0.000000
 41
0.000000
  0
VERTEX
  8
0
  6
CONTINUOUS
 10
4.284280
 20
2.456520
  0
VERTEX
  8
0
  6
CONTINUOUS
 10
4.926240
 20
2.826120
  0
VERTEX
  8
0
  6
CONTINUOUS
 10
4.929320
 20
2.762320
  0
VERTEX
  8
0
  6
CONTINUOUS
 10
4.287360
 20
2.393160
  0
VERTEX
  8
0
  6
CONTINUOUS
 10
4.284280
 20
2.456520
  0
SEQEND
  8
0
  0
SOLID
  8
0
 62
     7
 10
4.485800
 20
1.740200
 11
5.128200
 21
2.109360
 12
4.499880
 22
1.714240
 13
5.141840
 23
2.083400
  0
POLYLINE
  8
0
  6
CONTINUOUS
 66
     1
 40
0.000000
 41
0.000000
  0
VERTEX
  8
0
  6
CONTINUOUS
 10
4.485800
 20
1.740200
  0
VERTEX
  8
0
  6
CONTINUOUS
 10
5.128200
 20
2.109360
  0
VERTEX
  8
0
  6
CONTINUOUS
 10
5.141840
 20
2.083400
  0
VERTEX
  8
0
  6
CONTINUOUS
 10
4.499880
 20
1.714240
  0
VERTEX
  8
0
  6
CONTINUOUS
 10
4.485800
 20
1.740200
  0
SEQEND
  8
0
  0
SOLID
  8
0
 62
     7
 10
4.499880
 20
1.714240
 11
5.141840
 21
2.083400
 12
4.518800
 22
1.687400
 13
5.161200
 23
2.057000
  0
POLYLINE
  8
0
  6
CONTINUOUS
 66
     1
 40
0.000000
 41
0.000000
  0
VERTEX
  8
0
  6
CONTINUOUS
 10
4.499880
 20
1.714240
  0
VERTEX
  8
0
  6
CONTINUOUS
 10
5.141840
 20
2.083400
  0
VERTEX
  8
0
  6
CONTINUOUS
 10
5.161200
 20
2.057000
  0
VERTEX
  8
0
  6
CONTINUOUS
 10
4.518800
 20
1.687400
  0
VERTEX
  8
0
  6
CONTINUOUS
 10
4.499880
 20
1.714240
  0
SEQEND
  8
0
  0
SOLID
  8
0
 62
     7
 10
4.518800
 20
1.687400
 11
5.161200
 21
2.057000
 12
4.543440
 22
1.660560
 13
5.185400
 23
2.029720
  0
POLYLINE
  8
0
  6
CONTINUOUS
 66
     1
 40
0.000000
 41
0.000000
  0
VERTEX
  8
0
  6
CONTINUOUS
 10
4.518800
 20
1.687400
  0
VERTEX
  8
0
  6
CONTINUOUS
 10
5.161200
 20
2.057000
  0
VERTEX
  8
0
  6
CONTINUOUS
 10
5.185400
 20
2.029720
  0
VERTEX
  8
0
  6
CONTINUOUS
 10
4.543440
 20
1.660560
  0
VERTEX
  8
0
  6
CONTINUOUS
 10
4.518800
 20
1.687400
  0
SEQEND
  8
0
  0
SOLID
  8
0
 62
     7
 10
4.543440
 20
1.660560
 11
5.185400
 21
2.029720
 12
4.573800
 22
1.632840
 13
5.215760
 23
2.002440
  0
POLYLINE
  8
0
  6
CONTINUOUS
 66
     1
 40
0.000000
 41
0.000000
  0
VERTEX
  8
0
  6
CONTINUOUS
 10
4.543440
 20
1.660560
  0
VERTEX
  8
0
  6
CONTINUOUS
 10
5.185400
 20
2.029720
  0
VERTEX
  8
0
  6
CONTINUOUS
 10
5.215760
 20
2.002440
  0
VERTEX
  8
0
  6
CONTINUOUS
 10
4.573800
 20
1.632840
  0
VERTEX
  8
0
  6
CONTINUOUS
 10
4.543440
 20
1.660560
  0
SEQEND
  8
0
  0
SOLID
  8
0
 62
     7
 10
4.573800
 20
1.632840
 11
5.215760
 21
2.002440
 12
4.614720
 22
1.602920
 13
5.257120
 23
1.972520
  0
POLYLINE
  8
0
  6
CONTINUOUS
 66
     1
 40
0.000000
 41
0.000000
  0
VERTEX
  8
0
  6
CONTINUOUS
 10
4.573800
 20
1.632840
  0
VERTEX
  8
0
  6
CONTINUOUS
 10
5.215760
 20
2.002440
  0
VERTEX
  8
0
  6
CONTINUOUS
 10
5.257120
 20
1.972520
  0
VERTEX
  8
0
  6
CONTINUOUS
 10
4.614720
 20
1.602920
  0
VERTEX
  8
0
  6
CONTINUOUS
 10
4.573800
 20
1.632840
  0
SEQEND
  8
0
  0
SOLID
  8
0
 62
     7
 10
4.614720
 20
1.602920
 11
5.257120
 21
1.972520
 12
4.668840
 22
1.569040
 13
5.311240
 23
1.938640
  0
POLYLINE
  8
0
  6
CONTINUOUS
 66
     1
 40
0.000000
 41
0.000000
  0
VERTEX
  8
0
  6
CONTINUOUS
 10
4.614720
 20
1.602920
  0
VERTEX
  8
0
  6
CONTINUOUS
 10
5.257120
 20
1.972520
  0
VERTEX
  8
0
  6
CONTINUOUS
 10
5.311240
 20
1.938640
  0
VERTEX
  8
0
  6
CONTINUOUS
 10
4.668840
 20
1.569040
  0
VERTEX
  8
0
  6
CONTINUOUS
 10
4.614720
 20
1.602920
  0
SEQEND
  8
0
  0
SOLID
  8
0
 62
     7
 10
4.668840
 20
1.569040
 11
5.311240
 21
1.938640
 12
4.699200
 22
1.550560
 13
5.341160
 23
1.920160
  0
POLYLINE
  8
0
  6
CONTINUOUS
 66
     1
 40
0.000000
 41
0.000000
  0
VERTEX
  8
0
  6
CONTINUOUS
 10
4.668840
 20
1.569040
  0
VERTEX
  8
0
  6
CONTINUOUS
 10
5.311240
 20
1.938640
  0
VERTEX
  8
0
  6
CONTINUOUS
 10
5.341160
 20
1.920160
  0
VERTEX
  8
0
  6
CONTINUOUS
 10
4.699200
 20
1.550560
  0
VERTEX
  8
0
  6
CONTINUOUS
 10
4.668840
 20
1.569040
  0
SEQEND
  8
0
  0
SOLID
  8
0
 62
     7
 10
4.699200
 20
1.550560
 11
5.341160
 21
1.920160
 12
4.730440
 22
1.531200
 13
5.372840
 23
1.900800
  0
POLYLINE
  8
0
  6
CONTINUOUS
 66
     1
 40
0.000000
 41
0.000000
  0
VERTEX
  8
0
  6
CONTINUOUS
 10
4.699200
 20
1.550560
  0
VERTEX
  8
0
  6
CONTINUOUS
 10
5.341160
 20
1.920160
  0
VERTEX
  8
0
  6
CONTINUOUS
 10
5.372840
 20
1.900800
  0
VERTEX
  8
0
  6
CONTINUOUS
 10
4.730440
 20
1.531200
  0
VERTEX
  8
0
  6
CONTINUOUS
 10
4.699200
 20
1.550560
  0
SEQEND
  8
0
  0
SOLID
  8
0
 62
     7
 10
4.730440
 20
1.531200
 11
5.372840
 21
1.900800
 12
4.795120
 22
1.489840
 13
5.437520
 23
1.859440
  0
POLYLINE
  8
0
  6
CONTINUOUS
 66
     1
 40
0.000000
 41
0.000000
  0
VERTEX
  8
0
  6
CONTINUOUS
 10
4.730440
 20
1.531200
  0
VERTEX
  8
0
  6
CONTINUOUS
 10
5.372840
 20
1.900800
  0
VERTEX
  8
0
  6
CONTINUOUS
 10
5.437520
 20
1.859440
  0
VERTEX
  8
0
  6
CONTINUOUS
 10
4.795120
 20
1.489840
  0
VERTEX
  8
0
  6
CONTINUOUS
 10
4.730440
 20
1.531200
  0
SEQEND
  8
0
  0
SOLID
  8
0
 62
     7
 10
4.795120
 20
1.489840
 11
5.437520
 21
1.859440
 12
4.857600
 22
1.445400
 13
5.499560
 23
1.815000
  0
POLYLINE
  8
0
  6
CONTINUOUS
 66
     1
 40
0.000000
 41
0.000000
  0
VERTEX
  8
0
  6
CONTINUOUS
 10
4.795120
 20
1.489840
  0
VERTEX
  8
0
  6
CONTINUOUS
 10
5.437520
 20
1.859440
  0
VERTEX
  8
0
  6
CONTINUOUS
 10
5.499560
 20
1.815000
  0
VERTEX
  8
0
  6
CONTINUOUS
 10
4.857600
 20
1.445400
  0
VERTEX
  8
0
  6
CONTINUOUS
 10
4.795120
 20
1.489840
  0
SEQEND
  8
0
  0
SOLID
  8
0
 62
     7
 10
4.857600
 20
1.445400
 11
5.499560
 21
1.815000
 12
4.912600
 22
1.398320
 13
5.554560
 23
1.767480
  0
POLYLINE
  8
0
  6
CONTINUOUS
 66
     1
 40
0.000000
 41
0.000000
  0
VERTEX
  8
0
  6
CONTINUOUS
 10
4.857600
 20
1.445400
  0
VERTEX
  8
0
  6
CONTINUOUS
 10
5.499560
 20
1.815000
  0
VERTEX
  8
0
  6
CONTINUOUS
 10
5.554560
 20
1.767480
  0
VERTEX
  8
0
  6
CONTINUOUS
 10
4.912600
 20
1.398320
  0
VERTEX
  8
0
  6
CONTINUOUS
 10
4.857600
 20
1.445400
  0
SEQEND
  8
0
  0
SOLID
  8
0
 62
     7
 10
4.912600
 20
1.398320
 11
5.554560
 21
1.767480
 12
4.955280
 22
1.348160
 13
5.597680
 23
1.717760
  0
POLYLINE
  8
0
  6
CONTINUOUS
 66
     1
 40
0.000000
 41
0.000000
  0
VERTEX
  8
0
  6
CONTINUOUS
 10
4.912600
 20
1.398320
  0
VERTEX
  8
0
  6
CONTINUOUS
 10
5.554560
 20
1.767480
  0
VERTEX
  8
0
  6
CONTINUOUS
 10
5.597680
 20
1.717760
  0
VERTEX
  8
0
  6
CONTINUOUS
 10
4.955280
 20
1.348160
  0
VERTEX
  8
0
  6
CONTINUOUS
 10
4.912600
 20
1.398320
  0
SEQEND
  8
0
  0
SOLID
  8
0
 62
     7
 10
4.955280
 20
1.348160
 11
5.597680
 21
1.717760
 12
4.970680
 22
1.322640
 13
5.613080
 23
1.691800
  0
POLYLINE
  8
0
  6
CONTINUOUS
 66
     1
 40
0.000000
 41
0.000000
  0
VERTEX
  8
0
  6
CONTINUOUS
 10
4.955280
 20
1.348160
  0
VERTEX
  8
0
  6
CONTINUOUS
 10
5.597680
 20
1.717760
  0
VERTEX
  8
0
  6
CONTINUOUS
 10
5.613080
 20
1.691800
  0
VERTEX
  8
0
  6
CONTINUOUS
 10
4.970680
 20
1.322640
  0
VERTEX
  8
0
  6
CONTINUOUS
 10
4.955280
 20
1.348160
  0
SEQEND
  8
0
  0
SOLID
  8
0
 62
    15
 10
4.970680
 20
1.322640
 11
5.613080
 21
1.691800
 12
4.981240
 22
1.296240
 13
5.623200
 23
1.665840
  0
POLYLINE
  8
0
  6
CONTINUOUS
 66
     1
 40
0.000000
 41
0.000000
  0
VERTEX
  8
0
  6
CONTINUOUS
 10
4.970680
 20
1.322640
  0
VERTEX
  8
0
  6
CONTINUOUS
 10
5.613080
 20
1.691800
  0
VERTEX
  8
0
  6
CONTINUOUS
 10
5.623200
 20
1.665840
  0
VERTEX
  8
0
  6
CONTINUOUS
 10
4.981240
 20
1.296240
  0
VERTEX
  8
0
  6
CONTINUOUS
 10
4.970680
 20
1.322640
  0
SEQEND
  8
0
  0
SOLID
  8
0
 62
    15
 10
4.981240
 20
1.296240
 11
5.623200
 21
1.665840
 12
4.991360
 22
1.244320
 13
5.633760
 23
1.613920
  0
POLYLINE
  8
0
  6
CONTINUOUS
 66
     1
 40
0.000000
 41
0.000000
  0
VERTEX
  8
0
  6
CONTINUOUS
 10
4.981240
 20
1.296240
  0
VERTEX
  8
0
  6
CONTINUOUS
 10
5.623200
 20
1.665840
  0
VERTEX
  8
0
  6
CONTINUOUS
 10
5.633760
 20
1.613920
  0
VERTEX
  8
0
  6
CONTINUOUS
 10
4.991360
 20
1.244320
  0
VERTEX
  8
0
  6
CONTINUOUS
 10
4.981240
 20
1.296240
  0
SEQEND
  8
0
  0
SOLID
  8
0
 62
    15
 10
4.991360
 20
1.244320
 11
5.633760
 21
1.613920
 12
4.991800
 22
1.196360
 13
5.633760
 23
1.565520
  0
POLYLINE
  8
0
  6
CONTINUOUS
 66
     1
 40
0.000000
 41
0.000000
  0
VERTEX
  8
0
  6
CONTINUOUS
 10
4.991360
 20
1.244320
  0
VERTEX
  8
0
  6
CONTINUOUS
 10
5.633760
 20
1.613920
  0
VERTEX
  8
0
  6
CONTINUOUS
 10
5.633760
 20
1.565520
  0
VERTEX
  8
0
  6
CONTINUOUS
 10
4.991800
 20
1.196360
  0
VERTEX
  8
0
  6
CONTINUOUS
 10
4.991360
 20
1.244320
  0
SEQEND
  8
0
  0
SOLID
  8
0
 62
    15
 10
4.991800
 20
1.196360
 11
5.633760
 21
1.565520
 12
4.983000
 22
1.152800
 13
5.624960
 23
1.521960
  0
POLYLINE
  8
0
  6
CONTINUOUS
 66
     1
 40
0.000000
 41
0.000000
  0
VERTEX
  8
0
  6
CONTINUOUS
 10
4.991800
 20
1.196360
  0
VERTEX
  8
0
  6
CONTINUOUS
 10
5.633760
 20
1.565520
  0
VERTEX
  8
0
  6
CONTINUOUS
 10
5.624960
 20
1.521960
  0
VERTEX
  8
0
  6
CONTINUOUS
 10
4.983000
 20
1.152800
  0
VERTEX
  8
0
  6
CONTINUOUS
 10
4.991800
 20
1.196360
  0
SEQEND
  8
0
  0
SOLID
  8
0
 62
    15
 10
4.830760
 20
1.039280
 11
5.472720
 21
1.408880
 12
4.830760
 22
0.935880
 13
5.472720
 23
1.305480
  0
POLYLINE
  8
0
  6
CONTINUOUS
 66
     1
 40
0.000000
 41
0.000000
  0
VERTEX
  8
0
  6
CONTINUOUS
 10
4.830760
 20
1.039280
  0
VERTEX
  8
0
  6
CONTINUOUS
 10
5.472720
 20
1.408880
  0
VERTEX
  8
0
  6
CONTINUOUS
 10
5.472720
 20
1.305480
  0
VERTEX
  8
0
  6
CONTINUOUS
 10
4.830760
 20
0.935880
  0
VERTEX
  8
0
  6
CONTINUOUS
 10
4.830760
 20
1.039280
  0
SEQEND
  8
0
  0
SOLID
  8
0
 62
    15
 10
4.965840
 20
1.114520
 11
5.607800
 21
1.484120
 12
4.941200
 22
1.083280
 13
5.583160
 23
1.452880
  0
POLYLINE
  8
0
  6
CONTINUOUS
 66
     1
 40
0.000000
 41
0.000000
  0
VERTEX
  8
0
  6
CONTINUOUS
 10
4.965840
 20
1.114520
  0
VERTEX
  8
0
  6
CONTINUOUS
 10
5.607800
 20
1.484120
  0
VERTEX
  8
0
  6
CONTINUOUS
 10
5.583160
 20
1.452880
  0
VERTEX
  8
0
  6
CONTINUOUS
 10
4.941200
 20
1.083280
  0
VERTEX
  8
0
  6
CONTINUOUS
 10
4.965840
 20
1.114520
  0
SEQEND
  8
0
  0
SOLID
  8
0
 62
    15
 10
4.941200
 20
1.083280
 11
5.583160
 21
1.452880
 12
4.909960
 22
1.059520
 13
5.551920
 23
1.429120
  0
POLYLINE
  8
0
  6
CONTINUOUS
 66
     1
 40
0.000000
 41
0.000000
  0
VERTEX
  8
0
  6
CONTINUOUS
 10
4.941200
 20
1.083280
  0
VERTEX
  8
0
  6
CONTINUOUS
 10
5.583160
 20
1.452880
  0
VERTEX
  8
0
  6
CONTINUOUS
 10
5.551920
 20
1.429120
  0
VERTEX
  8
0
  6
CONTINUOUS
 10
4.909960
 20
1.059520
  0
VERTEX
  8
0
  6
CONTINUOUS
 10
4.941200
 20
1.083280
  0
SEQEND
  8
0
  0
SOLID
  8
0
 62
    15
 10
4.983000
 20
1.152800
 11
5.624960
 21
1.521960
 12
4.965840
 22
1.114520
 13
5.607800
 23
1.484120
  0
POLYLINE
  8
0
  6
CONTINUOUS
 66
     1
 40
0.000000
 41
0.000000
  0
VERTEX
  8
0
  6
CONTINUOUS
 10
4.983000
 20
1.152800
  0
VERTEX
  8
0
  6
CONTINUOUS
 10
5.624960
 20
1.521960
  0
VERTEX
  8
0
  6
CONTINUOUS
 10
5.607800
 20
1.484120
  0
VERTEX
  8
0
  6
CONTINUOUS
 10
4.965840
 20
1.114520
  0
VERTEX
  8
0
  6
CONTINUOUS
 10
4.983000
 20
1.152800
  0
SEQEND
  8
0
  0
SOLID
  8
0
 62
    15
 10
4.083640
 20
2.458720
 11
4.725600
 21
2.828320
 12
4.284280
 22
2.458720
 13
4.926240
 23
2.828320
  0
POLYLINE
  8
0
  6
CONTINUOUS
 66
     1
 40
0.000000
 41
0.000000
  0
VERTEX
  8
0
  6
CONTINUOUS
 10
4.083640
 20
2.458720
  0
VERTEX
  8
0
  6
CONTINUOUS
 10
4.725600
 20
2.828320
  0
VERTEX
  8
0
  6
CONTINUOUS
 10
4.926240
 20
2.828320
  0
VERTEX
  8
0
  6
CONTINUOUS
 10
4.284280
 20
2.458720
  0
VERTEX
  8
0
  6
CONTINUOUS
 10
4.083640
 20
2.458720
  0
SEQEND
  8
0
  0
SOLID
  8
0
 62
    15
 10
4.284280
 20
2.458720
 11
4.926240
 21
2.828320
 12
4.284280
 22
2.456520
 13
4.926240
 23
2.826120
  0
POLYLINE
  8
0
  6
CONTINUOUS
 66
     1
 40
0.000000
 41
0.000000
  0
VERTEX
  8
0
  6
CONTINUOUS
 10
4.284280
 20
2.458720
  0
VERTEX
  8
0
  6
CONTINUOUS
 10
4.926240
 20
2.828320
  0
VERTEX
  8
0
  6
CONTINUOUS
 10
4.926240
 20
2.826120
  0
VERTEX
  8
0
  6
CONTINUOUS
 10
4.284280
 20
2.456520
  0
VERTEX
  8
0
  6
CONTINUOUS
 10
4.284280
 20
2.458720
  0
SEQEND
  8
0
  0
POLYLINE
  8
0
  6
CONTINUOUS
 66
     1
 40
0.000000
 41
0.000000
  0
VERTEX
  8
0
  6
CONTINUOUS
 10
4.284280
 20
2.456520
  0
VERTEX
  8
0
  6
CONTINUOUS
 10
4.287360
 20
2.393160
  0
VERTEX
  8
0
  6
CONTINUOUS
 10
4.294840
 20
2.363680
  0
VERTEX
  8
0
  6
CONTINUOUS
 10
4.308040
 20
2.337280
  0
VERTEX
  8
0
  6
CONTINUOUS
 10
4.328280
 20
2.313080
  0
VERTEX
  8
0
  6
CONTINUOUS
 10
4.357320
 20
2.292400
  0
VERTEX
  8
0
  6
CONTINUOUS
 10
4.396480
 20
2.274800
  0
VERTEX
  8
0
  6
CONTINUOUS
 10
4.446640
 20
2.261600
  0
VERTEX
  8
0
  6
CONTINUOUS
 10
4.446640
 20
2.134880
  0
VERTEX
  8
0
  6
CONTINUOUS
 10
4.478760
 20
2.132240
  0
VERTEX
  8
0
  6
CONTINUOUS
 10
4.509560
 20
2.125640
  0
VERTEX
  8
0
  6
CONTINUOUS
 10
4.564120
 20
2.101000
  0
VERTEX
  8
0
  6
CONTINUOUS
 10
4.587440
 20
2.084280
  0
VERTEX
  8
0
  6
CONTINUOUS
 10
4.606360
 20
2.064920
  0
VERTEX
  8
0
  6
CONTINUOUS
 10
4.621760
 20
2.043800
  0
VERTEX
  8
0
  6
CONTINUOUS
 10
4.631880
 20
2.020920
  0
VERTEX
  8
0
  6
CONTINUOUS
 10
4.637160
 20
1.997160
  0
VERTEX
  8
0
  6
CONTINUOUS
 10
4.636280
 20
1.972520
  0
VERTEX
  8
0
  6
CONTINUOUS
 10
4.628800
 20
1.947440
  0
VERTEX
  8
0
  6
CONTINUOUS
 10
4.614280
 20
1.922800
  0
VERTEX
  8
0
  6
CONTINUOUS
 10
4.592720
 20
1.898600
  0
VERTEX
  8
0
  6
CONTINUOUS
 10
4.562800
 20
1.875720
  0
VERTEX
  8
0
  6
CONTINUOUS
 10
4.524080
 20
1.854600
  0
VERTEX
  8
0
  6
CONTINUOUS
 10
4.476120
 20
1.835240
  0
VERTEX
  8
0
  6
CONTINUOUS
 10
4.472160
 20
1.812800
  0
VERTEX
  8
0
  6
CONTINUOUS
 10
4.472600
 20
1.789480
  0
VERTEX
  8
0
  6
CONTINUOUS
 10
4.477000
 20
1.765280
  0
VERTEX
  8
0
  6
CONTINUOUS
 10
4.485800
 20
1.740200
  0
VERTEX
  8
0
  6
CONTINUOUS
 10
4.499880
 20
1.714240
  0
VERTEX
  8
0
  6
CONTINUOUS
 10
4.518800
 20
1.687400
  0
VERTEX
  8
0
  6
CONTINUOUS
 10
4.543440
 20
1.660560
  0
VERTEX
  8
0
  6
CONTINUOUS
 10
4.573800
 20
1.632840
  0
VERTEX
  8
0
  6
CONTINUOUS
 10
4.614720
 20
1.602920
  0
VERTEX
  8
0
  6
CONTINUOUS
 10
4.795120
 20
1.489840
  0
VERTEX
  8
0
  6
CONTINUOUS
 10
4.857600
 20
1.445400
  0
VERTEX
  8
0
  6
CONTINUOUS
 10
4.912600
 20
1.398320
  0
VERTEX
  8
0
  6
CONTINUOUS
 10
4.955280
 20
1.348160
  0
VERTEX
  8
0
  6
CONTINUOUS
 10
4.970680
 20
1.322640
  0
VERTEX
  8
0
  6
CONTINUOUS
 10
4.981240
 20
1.296240
  0
VERTEX
  8
0
  6
CONTINUOUS
 10
4.991360
 20
1.244320
  0
VERTEX
  8
0
  6
CONTINUOUS
 10
4.991800
 20
1.196360
  0
VERTEX
  8
0
  6
CONTINUOUS
 10
4.983000
 20
1.152800
  0
VERTEX
  8
0
  6
CONTINUOUS
 10
4.965840
 20
1.114520
  0
VERTEX
  8
0
  6
CONTINUOUS
 10
4.941200
 20
1.083280
  0
VERTEX
  8
0
  6
CONTINUOUS
 10
4.909960
 20
1.059520
  0
VERTEX
  8
0
  6
CONTINUOUS
 10
4.872560
 20
1.044560
  0
VERTEX
  8
0
  6
CONTINUOUS
 10
4.830760
 20
1.039280
  0
VERTEX
  8
0
  6
CONTINUOUS
 10
4.830760
 20
0.935880
  0
VERTEX
  8
0
  6
CONTINUOUS
 10
4.083640
 20
0.935880
  0
VERTEX
  8
0
  6
CONTINUOUS
 10
4.083640
 20
2.458720
  0
VERTEX
  8
0
  6
CONTINUOUS
 10
4.284280
 20
2.458720
  0
VERTEX
  8
0
  6
CONTINUOUS
 10
4.284280
 20
2.456520
  0
SEQEND
  8
0
  0
TEXT
  8
0
 10
4.562360
 20
0.692560
 40
0.138043
  1
BA  752
 41
1.000000
  7
SN0
 71
     0
 72
     5
 11
5.151917
 21
0.692560
  0
TEXT
  8
0
 10
4.406160
 20
0.500720
 40
0.138043
  1
7/8" x 1-1/2"
 41
1.000000
  7
SN0
 71
     0
 72
     5
 11
5.305691
 21
0.500720
  0
POLYLINE
  8
0
  6
CONTINUOUS
 66
     1
 40
0.014080
 41
0.014080
  0
VERTEX
  8
0
  6
CONTINUOUS
 10
6.117760
 20
2.730640
  0
VERTEX
  8
0
  6
CONTINUOUS
 10
6.117760
 20
2.698080
  0
VERTEX
  8
0
  6
CONTINUOUS
 10
6.120840
 20
2.666840
  0
VERTEX
  8
0
  6
CONTINUOUS
 10
6.128320
 20
2.637800
  0
VERTEX
  8
0
  6
CONTINUOUS
 10
6.134040
 20
2.624160
  0
VERTEX
  8
0
  6
CONTINUOUS
 10
6.141520
 20
2.610960
  0
VERTEX
  8
0
  6
CONTINUOUS
 10
6.150760
 20
2.598640
  0
VERTEX
  8
0
  6
CONTINUOUS
 10
6.174960
 20
2.576200
  0
VERTEX
  8
0
  6
CONTINUOUS
 10
6.199600
 20
2.561680
  0
VERTEX
  8
0
  6
CONTINUOUS
 10
6.229960
 20
2.548920
  0
VERTEX
  8
0
  6
CONTINUOUS
 10
6.266480
 20
2.538800
  0
VERTEX
  8
0
  6
CONTINUOUS
 10
6.280120
 20
2.535720
  0
VERTEX
  8
0
  6
CONTINUOUS
 10
6.280120
 20
2.408560
  0
VERTEX
  8
0
  6
CONTINUOUS
 10
6.312240
 20
2.405920
  0
VERTEX
  8
0
  6
CONTINUOUS
 10
6.343040
 20
2.399320
  0
VERTEX
  8
0
  6
CONTINUOUS
 10
6.371640
 20
2.388760
  0
VERTEX
  8
0
  6
CONTINUOUS
 10
6.397600
 20
2.375120
  0
VERTEX
  8
0
  6
CONTINUOUS
 10
6.420920
 20
2.357960
  0
VERTEX
  8
0
  6
CONTINUOUS
 10
6.439840
 20
2.339040
  0
VERTEX
  8
0
  6
CONTINUOUS
 10
6.455240
 20
2.317480
  0
VERTEX
  8
0
  6
CONTINUOUS
 10
6.465360
 20
2.295040
  0
VERTEX
  8
0
  6
CONTINUOUS
 10
6.468880
 20
2.283160
  0
VERTEX
  8
0
  6
CONTINUOUS
 10
6.470640
 20
2.270840
  0
VERTEX
  8
0
  6
CONTINUOUS
 10
6.469760
 20
2.246200
  0
VERTEX
  8
0
  6
CONTINUOUS
 10
6.462280
 20
2.221560
  0
VERTEX
  8
0
  6
CONTINUOUS
 10
6.456120
 20
2.209240
  0
VERTEX
  8
0
  6
CONTINUOUS
 10
6.438080
 20
2.184600
  0
VERTEX
  8
0
  6
CONTINUOUS
 10
6.412120
 20
2.161280
  0
VERTEX
  8
0
  6
CONTINUOUS
 10
6.377800
 20
2.138840
  0
VERTEX
  8
0
  6
CONTINUOUS
 10
6.334680
 20
2.118160
  0
VERTEX
  8
0
  6
CONTINUOUS
 10
6.309600
 20
2.108920
  0
VERTEX
  8
0
  6
CONTINUOUS
 10
6.305640
 20
2.086920
  0
VERTEX
  8
0
  6
CONTINUOUS
 10
6.305200
 20
2.075040
  0
VERTEX
  8
0
  6
CONTINUOUS
 10
6.307400
 20
2.051280
  0
VERTEX
  8
0
  6
CONTINUOUS
 10
6.314000
 20
2.026640
  0
VERTEX
  8
0
  6
CONTINUOUS
 10
6.325440
 20
2.001120
  0
VERTEX
  8
0
  6
CONTINUOUS
 10
6.342160
 20
1.974720
  0
VERTEX
  8
0
  6
CONTINUOUS
 10
6.376480
 20
1.934240
  0
VERTEX
  8
0
  6
CONTINUOUS
 10
6.415640
 20
1.899920
  0
VERTEX
  8
0
  6
CONTINUOUS
 10
6.460520
 20
1.869120
  0
VERTEX
  8
0
  6
CONTINUOUS
 10
6.628600
 20
1.763960
  0
VERTEX
  8
0
  6
CONTINUOUS
 10
6.691080
 20
1.719520
  0
VERTEX
  8
0
  6
CONTINUOUS
 10
6.746080
 20
1.672440
  0
VERTEX
  8
0
  6
CONTINUOUS
 10
6.769400
 20
1.647800
  0
VERTEX
  8
0
  6
CONTINUOUS
 10
6.797120
 20
1.609520
  0
VERTEX
  8
0
  6
CONTINUOUS
 10
6.810320
 20
1.583560
  0
VERTEX
  8
0
  6
CONTINUOUS
 10
6.821320
 20
1.543960
  0
VERTEX
  8
0
  6
CONTINUOUS
 10
6.825720
 20
1.506120
  0
VERTEX
  8
0
  6
CONTINUOUS
 10
6.826160
 20
1.481920
  0
VERTEX
  8
0
  6
CONTINUOUS
 10
6.821760
 20
1.447600
  0
VERTEX
  8
0
  6
CONTINUOUS
 10
6.812960
 20
1.416360
  0
VERTEX
  8
0
  6
CONTINUOUS
 10
6.799320
 20
1.388640
  0
VERTEX
  8
0
  6
CONTINUOUS
 10
6.787880
 20
1.371920
  0
VERTEX
  8
0
  6
CONTINUOUS
 10
6.767200
 20
1.350360
  0
VERTEX
  8
0
  6
CONTINUOUS
 10
6.743000
 20
1.333640
  0
VERTEX
  8
0
  6
CONTINUOUS
 10
6.715720
 20
1.321320
  0
VERTEX
  8
0
  6
CONTINUOUS
 10
6.685360
 20
1.314720
  0
VERTEX
  8
0
  6
CONTINUOUS
 10
6.663800
 20
1.313400
  0
VERTEX
  8
0
  6
CONTINUOUS
 10
6.663800
 20
1.210000
  0
VERTEX
  8
0
  6
CONTINUOUS
 10
5.916680
 20
1.210000
  0
VERTEX
  8
0
  6
CONTINUOUS
 10
5.916680
 20
2.732840
  0
VERTEX
  8
0
  6
CONTINUOUS
 10
6.117760
 20
2.732840
  0
VERTEX
  8
0
  6
CONTINUOUS
 10
6.117760
 20
2.730640
  0
SEQEND
  8
0
  0
ENDSEC
  0
EOF
