  0
SECTION
  2
HEADER
  9
$ACADVER
  1
AC1006
  9
$EXTMIN
 10
4.577320
 20
0.571560
  9
$EXTMAX
 10
7.269680
 20
2.907080
  9
$LTSCALE
 40
0.044000
  9
$PDMODE
 70
    35
  9
$PDSIZE
 40
0.035200
  0
ENDSEC
  0
SECTION
  2
TABLES
  0
TABLE
  2
LTYPE
 70
     9
  0
LTYPE
  2
CONTINUOUS
 70
    64
  3
Solid line
 72
    65
 73
     0
 40
0.000000
  0
LTYPE
  2
DASHED
 70
    64
  3
__ __ __ __ __ __ __ __ __ __ __ __ __ __ __
 72
    65
 73
     2
 40
0.000330
 49
0.000220
 49
-0.000110
  0
LTYPE
  2
HIDDEN
 70
    64
  3
 _ _ _ _ _ _ _ _ _ _ _ _ _ _ _ _ _ _ _ _ _ _
 72
    65
 73
     2
 40
0.000165
 49
0.000110
 49
-0.000055
  0
LTYPE
  2
CENTER
 70
    64
  3
____ _ ____ _ ____ _ ____ _ ____ _ ____ _ ____
 72
    65
 73
     4
 40
0.000880
 49
0.000550
 49
-0.000110
 49
0.000110
 49
-0.000110
  0
LTYPE
  2
PHANTOM
 70
    64
  3
_____ _ _ _____ _ _ _____ _ _ _____ _ _ ____
 72
    65
 73
     6
 40
0.001100
 49
0.000550
 49
-0.000110
 49
0.000110
 49
-0.000110
 49
0.000110
 49
-0.000110
  0
LTYPE
  2
DOT
 70
    64
  3
...............................................
 72
    65
 73
     2
 40
0.000110
 49
0.000000
 49
-0.000110
  0
LTYPE
  2
DASHDOT
 70
    64
  3
__ . __ . __ . __ . __ . __ . __ . __ . __ . __
 72
    65
 73
     4
 40
0.000440
 49
0.000220
 49
-0.000110
 49
0.000000
 49
-0.000110
  0
LTYPE
  2
BORDER
 70
    64
  3
__ __ . __ __ . __ __ . __ __ . __ __ . __ __
 72
    65
 73
     6
 40
0.000770
 49
0.000220
 49
-0.000110
 49
0.000220
 49
-0.000110
 49
0.000000
 49
-0.000110
  0
LTYPE
  2
DIVIDE
 70
    64
  3
__ . . __ . . __ . . __ . . __ . . __ . . __
 72
    65
 73
     6
 40
0.000550
 49
0.000220
 49
-0.000110
 49
0.000000
 49
-0.000110
 49
0.000000
 49
-0.000110
  0
LTYPE
  2
DOTDOT
 70
    64
  3
 . .  . .  . .  . .  . .  . . 
 72
    65
 73
     5
 40
0.000242
 49
-0.000110
 49
0.000000
 49
-0.000110
 49
0.000000
 49
-0.000110
  0
ENDTAB
  0
TABLE
  2
STYLE
 70
     2
  0
STYLE
 70
     0
  2
SN0
 40
0.000000
 41
0.000440
 50
0.000000
 71
     0
 42
0.000000
  3
ROMAND
  0
STYLE
 70
    68
  2
SV0
 40
0.000000
 41
0.000440
 50
0.000000
 71
     0
 42
0.000000
  3
ROMAND
  0
ENDTAB
  0
TABLE
  2
LAYER
 70
     3
  0
LAYER
  2
FOREGROUND
 70
    64
 62
     7
  6
CONTINUOUS
  0
LAYER
  2
BACKGROUND
 70
    65
 62
    -7
  6
CONTINUOUS
  0
LAYER
  2
0
 70
    64
 62
     7
  6
CONTINUOUS
  0
ENDTAB
  0
ENDSEC
  0
SECTION
  2
ENTITIES
  0
POLYLINE
  8
FOREGROUND
  6
CONTINUOUS
 66
     1
 40
0.000000
 41
0.000000
  0
VERTEX
  8
FOREGROUND
  6
CONTINUOUS
 10
0.000000
 20
3.478640
  0
VERTEX
  8
FOREGROUND
  6
CONTINUOUS
 10
8.499920
 20
3.478640
  0
VERTEX
  8
FOREGROUND
  6
CONTINUOUS
 10
8.499920
 20
-7.521360
  0
VERTEX
  8
FOREGROUND
  6
CONTINUOUS
 10
0.000000
 20
-7.521360
  0
VERTEX
  8
FOREGROUND
  6
CONTINUOUS
 10
0.000000
 20
3.478640
  0
SEQEND
  8
0
  0
POLYLINE
  8
FOREGROUND
  6
CONTINUOUS
 66
     1
 40
0.000000
 41
0.000000
  0
VERTEX
  8
FOREGROUND
  6
CONTINUOUS
 10
0.000000
 20
3.478640
  0
VERTEX
  8
FOREGROUND
  6
CONTINUOUS
 10
8.499920
 20
3.478640
  0
VERTEX
  8
FOREGROUND
  6
CONTINUOUS
 10
8.499920
 20
-7.521360
  0
VERTEX
  8
FOREGROUND
  6
CONTINUOUS
 10
0.000000
 20
-7.521360
  0
VERTEX
  8
FOREGROUND
  6
CONTINUOUS
 10
0.000000
 20
3.478640
  0
SEQEND
  8
0
  0
SOLID
  8
0
 62
     7
 10
5.190240
 20
2.042920
 11
5.845840
 21
2.414720
 12
5.231600
 22
2.023560
 13
5.887200
 23
2.395360
  0
POLYLINE
  8
0
  6
CONTINUOUS
 66
     1
 40
0.000000
 41
0.000000
  0
VERTEX
  8
0
  6
CONTINUOUS
 10
5.190240
 20
2.042920
  0
VERTEX
  8
0
  6
CONTINUOUS
 10
5.845840
 20
2.414720
  0
VERTEX
  8
0
  6
CONTINUOUS
 10
5.887200
 20
2.395360
  0
VERTEX
  8
0
  6
CONTINUOUS
 10
5.231600
 20
2.023560
  0
VERTEX
  8
0
  6
CONTINUOUS
 10
5.190240
 20
2.042920
  0
SEQEND
  8
0
  0
SOLID
  8
0
 62
    15
 10
5.291440
 20
1.640320
 11
5.947040
 21
2.012120
 12
5.430040
 22
1.617000
 13
6.085640
 23
1.988800
  0
POLYLINE
  8
0
  6
CONTINUOUS
 66
     1
 40
0.000000
 41
0.000000
  0
VERTEX
  8
0
  6
CONTINUOUS
 10
5.291440
 20
1.640320
  0
VERTEX
  8
0
  6
CONTINUOUS
 10
5.947040
 20
2.012120
  0
VERTEX
  8
0
  6
CONTINUOUS
 10
6.085640
 20
1.988800
  0
VERTEX
  8
0
  6
CONTINUOUS
 10
5.430040
 20
1.617000
  0
VERTEX
  8
0
  6
CONTINUOUS
 10
5.291440
 20
1.640320
  0
SEQEND
  8
0
  0
SOLID
  8
0
 62
    15
 10
5.430040
 20
1.617000
 11
6.085640
 21
1.988800
 12
5.430040
 22
1.031800
 13
6.085640
 23
1.403160
  0
POLYLINE
  8
0
  6
CONTINUOUS
 66
     1
 40
0.000000
 41
0.000000
  0
VERTEX
  8
0
  6
CONTINUOUS
 10
5.430040
 20
1.617000
  0
VERTEX
  8
0
  6
CONTINUOUS
 10
6.085640
 20
1.988800
  0
VERTEX
  8
0
  6
CONTINUOUS
 10
6.085640
 20
1.403160
  0
VERTEX
  8
0
  6
CONTINUOUS
 10
5.430040
 20
1.031800
  0
VERTEX
  8
0
  6
CONTINUOUS
 10
5.430040
 20
1.617000
  0
SEQEND
  8
0
  0
SOLID
  8
0
 62
    15
 10
4.578200
 20
2.534840
 11
5.233800
 21
2.906200
 12
4.890600
 22
2.534840
 13
5.546200
 23
2.906200
  0
POLYLINE
  8
0
  6
CONTINUOUS
 66
     1
 40
0.000000
 41
0.000000
  0
VERTEX
  8
0
  6
CONTINUOUS
 10
4.578200
 20
2.534840
  0
VERTEX
  8
0
  6
CONTINUOUS
 10
5.233800
 20
2.906200
  0
VERTEX
  8
0
  6
CONTINUOUS
 10
5.546200
 20
2.906200
  0
VERTEX
  8
0
  6
CONTINUOUS
 10
4.890600
 20
2.534840
  0
VERTEX
  8
0
  6
CONTINUOUS
 10
4.578200
 20
2.534840
  0
SEQEND
  8
0
  0
SOLID
  8
0
 62
    15
 10
4.890600
 20
2.534840
 11
5.546200
 21
2.906200
 12
4.886640
 22
2.483360
 13
5.542240
 23
2.854720
  0
POLYLINE
  8
0
  6
CONTINUOUS
 66
     1
 40
0.000000
 41
0.000000
  0
VERTEX
  8
0
  6
CONTINUOUS
 10
4.890600
 20
2.534840
  0
VERTEX
  8
0
  6
CONTINUOUS
 10
5.546200
 20
2.906200
  0
VERTEX
  8
0
  6
CONTINUOUS
 10
5.542240
 20
2.854720
  0
VERTEX
  8
0
  6
CONTINUOUS
 10
4.886640
 20
2.483360
  0
VERTEX
  8
0
  6
CONTINUOUS
 10
4.890600
 20
2.534840
  0
SEQEND
  8
0
  0
SOLID
  8
0
 62
     7
 10
4.886640
 20
2.483360
 11
5.542240
 21
2.854720
 12
4.885760
 22
2.435840
 13
5.541360
 23
2.807200
  0
POLYLINE
  8
0
  6
CONTINUOUS
 66
     1
 40
0.000000
 41
0.000000
  0
VERTEX
  8
0
  6
CONTINUOUS
 10
4.886640
 20
2.483360
  0
VERTEX
  8
0
  6
CONTINUOUS
 10
5.542240
 20
2.854720
  0
VERTEX
  8
0
  6
CONTINUOUS
 10
5.541360
 20
2.807200
  0
VERTEX
  8
0
  6
CONTINUOUS
 10
4.885760
 20
2.435840
  0
VERTEX
  8
0
  6
CONTINUOUS
 10
4.886640
 20
2.483360
  0
SEQEND
  8
0
  0
SOLID
  8
0
 62
     7
 10
4.885760
 20
2.435840
 11
5.541360
 21
2.807200
 12
4.887960
 22
2.391840
 13
5.543560
 23
2.763200
  0
POLYLINE
  8
0
  6
CONTINUOUS
 66
     1
 40
0.000000
 41
0.000000
  0
VERTEX
  8
0
  6
CONTINUOUS
 10
4.885760
 20
2.435840
  0
VERTEX
  8
0
  6
CONTINUOUS
 10
5.541360
 20
2.807200
  0
VERTEX
  8
0
  6
CONTINUOUS
 10
5.543560
 20
2.763200
  0
VERTEX
  8
0
  6
CONTINUOUS
 10
4.887960
 20
2.391840
  0
VERTEX
  8
0
  6
CONTINUOUS
 10
4.885760
 20
2.435840
  0
SEQEND
  8
0
  0
SOLID
  8
0
 62
     7
 10
4.887960
 20
2.391840
 11
5.543560
 21
2.763200
 12
4.892800
 22
2.351360
 13
5.548400
 23
2.722720
  0
POLYLINE
  8
0
  6
CONTINUOUS
 66
     1
 40
0.000000
 41
0.000000
  0
VERTEX
  8
0
  6
CONTINUOUS
 10
4.887960
 20
2.391840
  0
VERTEX
  8
0
  6
CONTINUOUS
 10
5.543560
 20
2.763200
  0
VERTEX
  8
0
  6
CONTINUOUS
 10
5.548400
 20
2.722720
  0
VERTEX
  8
0
  6
CONTINUOUS
 10
4.892800
 20
2.351360
  0
VERTEX
  8
0
  6
CONTINUOUS
 10
4.887960
 20
2.391840
  0
SEQEND
  8
0
  0
SOLID
  8
0
 62
     7
 10
4.892800
 20
2.351360
 11
5.548400
 21
2.722720
 12
4.900720
 22
2.313960
 13
5.556320
 23
2.685320
  0
POLYLINE
  8
0
  6
CONTINUOUS
 66
     1
 40
0.000000
 41
0.000000
  0
VERTEX
  8
0
  6
CONTINUOUS
 10
4.892800
 20
2.351360
  0
VERTEX
  8
0
  6
CONTINUOUS
 10
5.548400
 20
2.722720
  0
VERTEX
  8
0
  6
CONTINUOUS
 10
5.556320
 20
2.685320
  0
VERTEX
  8
0
  6
CONTINUOUS
 10
4.900720
 20
2.313960
  0
VERTEX
  8
0
  6
CONTINUOUS
 10
4.892800
 20
2.351360
  0
SEQEND
  8
0
  0
SOLID
  8
0
 62
     7
 10
4.900720
 20
2.313960
 11
5.556320
 21
2.685320
 12
4.911720
 22
2.279200
 13
5.567760
 23
2.651000
  0
POLYLINE
  8
0
  6
CONTINUOUS
 66
     1
 40
0.000000
 41
0.000000
  0
VERTEX
  8
0
  6
CONTINUOUS
 10
4.900720
 20
2.313960
  0
VERTEX
  8
0
  6
CONTINUOUS
 10
5.556320
 20
2.685320
  0
VERTEX
  8
0
  6
CONTINUOUS
 10
5.567760
 20
2.651000
  0
VERTEX
  8
0
  6
CONTINUOUS
 10
4.911720
 20
2.279200
  0
VERTEX
  8
0
  6
CONTINUOUS
 10
4.900720
 20
2.313960
  0
SEQEND
  8
0
  0
SOLID
  8
0
 62
     7
 10
4.911720
 20
2.279200
 11
5.567760
 21
2.651000
 12
4.942960
 22
2.218040
 13
5.598560
 23
2.589840
  0
POLYLINE
  8
0
  6
CONTINUOUS
 66
     1
 40
0.000000
 41
0.000000
  0
VERTEX
  8
0
  6
CONTINUOUS
 10
4.911720
 20
2.279200
  0
VERTEX
  8
0
  6
CONTINUOUS
 10
5.567760
 20
2.651000
  0
VERTEX
  8
0
  6
CONTINUOUS
 10
5.598560
 20
2.589840
  0
VERTEX
  8
0
  6
CONTINUOUS
 10
4.942960
 20
2.218040
  0
VERTEX
  8
0
  6
CONTINUOUS
 10
4.911720
 20
2.279200
  0
SEQEND
  8
0
  0
SOLID
  8
0
 62
     7
 10
4.942960
 20
2.218040
 11
5.598560
 21
2.589840
 12
4.986080
 22
2.165680
 13
5.641680
 23
2.537040
  0
POLYLINE
  8
0
  6
CONTINUOUS
 66
     1
 40
0.000000
 41
0.000000
  0
VERTEX
  8
0
  6
CONTINUOUS
 10
4.942960
 20
2.218040
  0
VERTEX
  8
0
  6
CONTINUOUS
 10
5.598560
 20
2.589840
  0
VERTEX
  8
0
  6
CONTINUOUS
 10
5.641680
 20
2.537040
  0
VERTEX
  8
0
  6
CONTINUOUS
 10
4.986080
 20
2.165680
  0
VERTEX
  8
0
  6
CONTINUOUS
 10
4.942960
 20
2.218040
  0
SEQEND
  8
0
  0
SOLID
  8
0
 62
     7
 10
4.986080
 20
2.165680
 11
5.641680
 21
2.537040
 12
5.041520
 22
2.120360
 13
5.697560
 23
2.491720
  0
POLYLINE
  8
0
  6
CONTINUOUS
 66
     1
 40
0.000000
 41
0.000000
  0
VERTEX
  8
0
  6
CONTINUOUS
 10
4.986080
 20
2.165680
  0
VERTEX
  8
0
  6
CONTINUOUS
 10
5.641680
 20
2.537040
  0
VERTEX
  8
0
  6
CONTINUOUS
 10
5.697560
 20
2.491720
  0
VERTEX
  8
0
  6
CONTINUOUS
 10
5.041520
 20
2.120360
  0
VERTEX
  8
0
  6
CONTINUOUS
 10
4.986080
 20
2.165680
  0
SEQEND
  8
0
  0
SOLID
  8
0
 62
     7
 10
5.041520
 20
2.120360
 11
5.697560
 21
2.491720
 12
5.109720
 22
2.079880
 13
5.765320
 23
2.451680
  0
POLYLINE
  8
0
  6
CONTINUOUS
 66
     1
 40
0.000000
 41
0.000000
  0
VERTEX
  8
0
  6
CONTINUOUS
 10
5.041520
 20
2.120360
  0
VERTEX
  8
0
  6
CONTINUOUS
 10
5.697560
 20
2.491720
  0
VERTEX
  8
0
  6
CONTINUOUS
 10
5.765320
 20
2.451680
  0
VERTEX
  8
0
  6
CONTINUOUS
 10
5.109720
 20
2.079880
  0
VERTEX
  8
0
  6
CONTINUOUS
 10
5.041520
 20
2.120360
  0
SEQEND
  8
0
  0
SOLID
  8
0
 62
     7
 10
5.109720
 20
2.079880
 11
5.765320
 21
2.451680
 12
5.190240
 22
2.042920
 13
5.845840
 23
2.414720
  0
POLYLINE
  8
0
  6
CONTINUOUS
 66
     1
 40
0.000000
 41
0.000000
  0
VERTEX
  8
0
  6
CONTINUOUS
 10
5.109720
 20
2.079880
  0
VERTEX
  8
0
  6
CONTINUOUS
 10
5.765320
 20
2.451680
  0
VERTEX
  8
0
  6
CONTINUOUS
 10
5.845840
 20
2.414720
  0
VERTEX
  8
0
  6
CONTINUOUS
 10
5.190240
 20
2.042920
  0
VERTEX
  8
0
  6
CONTINUOUS
 10
5.109720
 20
2.079880
  0
SEQEND
  8
0
  0
SOLID
  8
0
 62
    15
 10
5.291440
 20
1.678160
 11
5.947040
 21
2.049520
 12
5.291440
 22
1.640320
 13
5.947040
 23
2.012120
  0
POLYLINE
  8
0
  6
CONTINUOUS
 66
     1
 40
0.000000
 41
0.000000
  0
VERTEX
  8
0
  6
CONTINUOUS
 10
5.291440
 20
1.678160
  0
VERTEX
  8
0
  6
CONTINUOUS
 10
5.947040
 20
2.049520
  0
VERTEX
  8
0
  6
CONTINUOUS
 10
5.947040
 20
2.012120
  0
VERTEX
  8
0
  6
CONTINUOUS
 10
5.291440
 20
1.640320
  0
VERTEX
  8
0
  6
CONTINUOUS
 10
5.291440
 20
1.678160
  0
SEQEND
  8
0
  0
SOLID
  8
0
 62
     7
 10
5.231600
 20
2.023560
 11
5.887200
 21
2.395360
 12
5.269000
 22
2.002000
 13
5.924600
 23
2.373360
  0
POLYLINE
  8
0
  6
CONTINUOUS
 66
     1
 40
0.000000
 41
0.000000
  0
VERTEX
  8
0
  6
CONTINUOUS
 10
5.231600
 20
2.023560
  0
VERTEX
  8
0
  6
CONTINUOUS
 10
5.887200
 20
2.395360
  0
VERTEX
  8
0
  6
CONTINUOUS
 10
5.924600
 20
2.373360
  0
VERTEX
  8
0
  6
CONTINUOUS
 10
5.269000
 20
2.002000
  0
VERTEX
  8
0
  6
CONTINUOUS
 10
5.231600
 20
2.023560
  0
SEQEND
  8
0
  0
SOLID
  8
0
 62
     7
 10
5.269000
 20
2.002000
 11
5.924600
 21
2.373360
 12
5.301560
 22
1.978240
 13
5.957160
 23
2.349600
  0
POLYLINE
  8
0
  6
CONTINUOUS
 66
     1
 40
0.000000
 41
0.000000
  0
VERTEX
  8
0
  6
CONTINUOUS
 10
5.269000
 20
2.002000
  0
VERTEX
  8
0
  6
CONTINUOUS
 10
5.924600
 20
2.373360
  0
VERTEX
  8
0
  6
CONTINUOUS
 10
5.957160
 20
2.349600
  0
VERTEX
  8
0
  6
CONTINUOUS
 10
5.301560
 20
1.978240
  0
VERTEX
  8
0
  6
CONTINUOUS
 10
5.269000
 20
2.002000
  0
SEQEND
  8
0
  0
SOLID
  8
0
 62
     7
 10
5.301560
 20
1.978240
 11
5.957160
 21
2.349600
 12
5.329720
 22
1.952720
 13
5.985320
 23
2.324520
  0
POLYLINE
  8
0
  6
CONTINUOUS
 66
     1
 40
0.000000
 41
0.000000
  0
VERTEX
  8
0
  6
CONTINUOUS
 10
5.301560
 20
1.978240
  0
VERTEX
  8
0
  6
CONTINUOUS
 10
5.957160
 20
2.349600
  0
VERTEX
  8
0
  6
CONTINUOUS
 10
5.985320
 20
2.324520
  0
VERTEX
  8
0
  6
CONTINUOUS
 10
5.329720
 20
1.952720
  0
VERTEX
  8
0
  6
CONTINUOUS
 10
5.301560
 20
1.978240
  0
SEQEND
  8
0
  0
SOLID
  8
0
 62
     7
 10
5.329720
 20
1.952720
 11
5.985320
 21
2.324520
 12
5.353480
 22
1.926320
 13
6.009080
 23
2.298120
  0
POLYLINE
  8
0
  6
CONTINUOUS
 66
     1
 40
0.000000
 41
0.000000
  0
VERTEX
  8
0
  6
CONTINUOUS
 10
5.329720
 20
1.952720
  0
VERTEX
  8
0
  6
CONTINUOUS
 10
5.985320
 20
2.324520
  0
VERTEX
  8
0
  6
CONTINUOUS
 10
6.009080
 20
2.298120
  0
VERTEX
  8
0
  6
CONTINUOUS
 10
5.353480
 20
1.926320
  0
VERTEX
  8
0
  6
CONTINUOUS
 10
5.329720
 20
1.952720
  0
SEQEND
  8
0
  0
SOLID
  8
0
 62
     7
 10
5.353480
 20
1.926320
 11
6.009080
 21
2.298120
 12
5.372400
 22
1.899480
 13
6.028000
 23
2.270840
  0
POLYLINE
  8
0
  6
CONTINUOUS
 66
     1
 40
0.000000
 41
0.000000
  0
VERTEX
  8
0
  6
CONTINUOUS
 10
5.353480
 20
1.926320
  0
VERTEX
  8
0
  6
CONTINUOUS
 10
6.009080
 20
2.298120
  0
VERTEX
  8
0
  6
CONTINUOUS
 10
6.028000
 20
2.270840
  0
VERTEX
  8
0
  6
CONTINUOUS
 10
5.372400
 20
1.899480
  0
VERTEX
  8
0
  6
CONTINUOUS
 10
5.353480
 20
1.926320
  0
SEQEND
  8
0
  0
SOLID
  8
0
 62
     7
 10
5.372400
 20
1.899480
 11
6.028000
 21
2.270840
 12
5.386920
 22
1.871760
 13
6.042520
 23
2.243120
  0
POLYLINE
  8
0
  6
CONTINUOUS
 66
     1
 40
0.000000
 41
0.000000
  0
VERTEX
  8
0
  6
CONTINUOUS
 10
5.372400
 20
1.899480
  0
VERTEX
  8
0
  6
CONTINUOUS
 10
6.028000
 20
2.270840
  0
VERTEX
  8
0
  6
CONTINUOUS
 10
6.042520
 20
2.243120
  0
VERTEX
  8
0
  6
CONTINUOUS
 10
5.386920
 20
1.871760
  0
VERTEX
  8
0
  6
CONTINUOUS
 10
5.372400
 20
1.899480
  0
SEQEND
  8
0
  0
SOLID
  8
0
 62
     7
 10
5.386920
 20
1.871760
 11
6.042520
 21
2.243120
 12
5.396160
 22
1.844480
 13
6.052200
 23
2.215840
  0
POLYLINE
  8
0
  6
CONTINUOUS
 66
     1
 40
0.000000
 41
0.000000
  0
VERTEX
  8
0
  6
CONTINUOUS
 10
5.386920
 20
1.871760
  0
VERTEX
  8
0
  6
CONTINUOUS
 10
6.042520
 20
2.243120
  0
VERTEX
  8
0
  6
CONTINUOUS
 10
6.052200
 20
2.215840
  0
VERTEX
  8
0
  6
CONTINUOUS
 10
5.396160
 20
1.844480
  0
VERTEX
  8
0
  6
CONTINUOUS
 10
5.386920
 20
1.871760
  0
SEQEND
  8
0
  0
SOLID
  8
0
 62
     7
 10
5.396160
 20
1.844480
 11
6.052200
 21
2.215840
 12
5.401000
 22
1.817200
 13
6.056600
 23
2.189000
  0
POLYLINE
  8
0
  6
CONTINUOUS
 66
     1
 40
0.000000
 41
0.000000
  0
VERTEX
  8
0
  6
CONTINUOUS
 10
5.396160
 20
1.844480
  0
VERTEX
  8
0
  6
CONTINUOUS
 10
6.052200
 20
2.215840
  0
VERTEX
  8
0
  6
CONTINUOUS
 10
6.056600
 20
2.189000
  0
VERTEX
  8
0
  6
CONTINUOUS
 10
5.401000
 20
1.817200
  0
VERTEX
  8
0
  6
CONTINUOUS
 10
5.396160
 20
1.844480
  0
SEQEND
  8
0
  0
SOLID
  8
0
 62
    15
 10
5.401000
 20
1.817200
 11
6.056600
 21
2.189000
 12
5.400560
 22
1.791240
 13
6.056160
 23
2.163040
  0
POLYLINE
  8
0
  6
CONTINUOUS
 66
     1
 40
0.000000
 41
0.000000
  0
VERTEX
  8
0
  6
CONTINUOUS
 10
5.401000
 20
1.817200
  0
VERTEX
  8
0
  6
CONTINUOUS
 10
6.056600
 20
2.189000
  0
VERTEX
  8
0
  6
CONTINUOUS
 10
6.056160
 20
2.163040
  0
VERTEX
  8
0
  6
CONTINUOUS
 10
5.400560
 20
1.791240
  0
VERTEX
  8
0
  6
CONTINUOUS
 10
5.401000
 20
1.817200
  0
SEQEND
  8
0
  0
SOLID
  8
0
 62
    15
 10
5.400560
 20
1.791240
 11
6.056160
 21
2.163040
 12
5.395280
 22
1.766600
 13
6.050880
 23
2.138400
  0
POLYLINE
  8
0
  6
CONTINUOUS
 66
     1
 40
0.000000
 41
0.000000
  0
VERTEX
  8
0
  6
CONTINUOUS
 10
5.400560
 20
1.791240
  0
VERTEX
  8
0
  6
CONTINUOUS
 10
6.056160
 20
2.163040
  0
VERTEX
  8
0
  6
CONTINUOUS
 10
6.050880
 20
2.138400
  0
VERTEX
  8
0
  6
CONTINUOUS
 10
5.395280
 20
1.766600
  0
VERTEX
  8
0
  6
CONTINUOUS
 10
5.400560
 20
1.791240
  0
SEQEND
  8
0
  0
SOLID
  8
0
 62
    15
 10
5.395280
 20
1.766600
 11
6.050880
 21
2.138400
 12
5.384720
 22
1.743720
 13
6.040320
 23
2.115520
  0
POLYLINE
  8
0
  6
CONTINUOUS
 66
     1
 40
0.000000
 41
0.000000
  0
VERTEX
  8
0
  6
CONTINUOUS
 10
5.395280
 20
1.766600
  0
VERTEX
  8
0
  6
CONTINUOUS
 10
6.050880
 20
2.138400
  0
VERTEX
  8
0
  6
CONTINUOUS
 10
6.040320
 20
2.115520
  0
VERTEX
  8
0
  6
CONTINUOUS
 10
5.384720
 20
1.743720
  0
VERTEX
  8
0
  6
CONTINUOUS
 10
5.395280
 20
1.766600
  0
SEQEND
  8
0
  0
SOLID
  8
0
 62
    15
 10
5.289240
 20
1.678160
 11
5.944840
 21
2.049520
 12
5.291440
 22
1.678160
 13
5.947040
 23
2.049520
  0
POLYLINE
  8
0
  6
CONTINUOUS
 66
     1
 40
0.000000
 41
0.000000
  0
VERTEX
  8
0
  6
CONTINUOUS
 10
5.289240
 20
1.678160
  0
VERTEX
  8
0
  6
CONTINUOUS
 10
5.944840
 20
2.049520
  0
VERTEX
  8
0
  6
CONTINUOUS
 10
5.947040
 20
2.049520
  0
VERTEX
  8
0
  6
CONTINUOUS
 10
5.291440
 20
1.678160
  0
VERTEX
  8
0
  6
CONTINUOUS
 10
5.289240
 20
1.678160
  0
SEQEND
  8
0
  0
SOLID
  8
0
 62
    15
 10
5.347760
 20
1.705000
 11
6.003360
 21
2.076360
 12
5.321360
 22
1.690040
 13
5.976960
 23
2.061400
  0
POLYLINE
  8
0
  6
CONTINUOUS
 66
     1
 40
0.000000
 41
0.000000
  0
VERTEX
  8
0
  6
CONTINUOUS
 10
5.347760
 20
1.705000
  0
VERTEX
  8
0
  6
CONTINUOUS
 10
6.003360
 20
2.076360
  0
VERTEX
  8
0
  6
CONTINUOUS
 10
5.976960
 20
2.061400
  0
VERTEX
  8
0
  6
CONTINUOUS
 10
5.321360
 20
1.690040
  0
VERTEX
  8
0
  6
CONTINUOUS
 10
5.347760
 20
1.705000
  0
SEQEND
  8
0
  0
SOLID
  8
0
 62
    15
 10
5.368880
 20
1.723040
 11
6.024480
 21
2.094840
 12
5.347760
 22
1.705000
 13
6.003360
 23
2.076360
  0
POLYLINE
  8
0
  6
CONTINUOUS
 66
     1
 40
0.000000
 41
0.000000
  0
VERTEX
  8
0
  6
CONTINUOUS
 10
5.368880
 20
1.723040
  0
VERTEX
  8
0
  6
CONTINUOUS
 10
6.024480
 20
2.094840
  0
VERTEX
  8
0
  6
CONTINUOUS
 10
6.003360
 20
2.076360
  0
VERTEX
  8
0
  6
CONTINUOUS
 10
5.347760
 20
1.705000
  0
VERTEX
  8
0
  6
CONTINUOUS
 10
5.368880
 20
1.723040
  0
SEQEND
  8
0
  0
SOLID
  8
0
 62
    15
 10
5.384720
 20
1.743720
 11
6.040320
 21
2.115520
 12
5.368880
 22
1.723040
 13
6.024480
 23
2.094840
  0
POLYLINE
  8
0
  6
CONTINUOUS
 66
     1
 40
0.000000
 41
0.000000
  0
VERTEX
  8
0
  6
CONTINUOUS
 10
5.384720
 20
1.743720
  0
VERTEX
  8
0
  6
CONTINUOUS
 10
6.040320
 20
2.115520
  0
VERTEX
  8
0
  6
CONTINUOUS
 10
6.024480
 20
2.094840
  0
VERTEX
  8
0
  6
CONTINUOUS
 10
5.368880
 20
1.723040
  0
VERTEX
  8
0
  6
CONTINUOUS
 10
5.384720
 20
1.743720
  0
SEQEND
  8
0
  0
POLYLINE
  8
0
  6
CONTINUOUS
 66
     1
 40
0.000000
 41
0.000000
  0
VERTEX
  8
0
  6
CONTINUOUS
 10
5.291440
 20
1.678160
  0
VERTEX
  8
0
  6
CONTINUOUS
 10
5.291440
 20
1.640320
  0
VERTEX
  8
0
  6
CONTINUOUS
 10
5.430040
 20
1.617000
  0
VERTEX
  8
0
  6
CONTINUOUS
 10
5.430040
 20
1.031800
  0
VERTEX
  8
0
  6
CONTINUOUS
 10
4.578200
 20
1.031800
  0
VERTEX
  8
0
  6
CONTINUOUS
 10
4.578200
 20
2.534840
  0
VERTEX
  8
0
  6
CONTINUOUS
 10
4.890600
 20
2.534840
  0
VERTEX
  8
0
  6
CONTINUOUS
 10
4.886640
 20
2.483360
  0
VERTEX
  8
0
  6
CONTINUOUS
 10
4.885760
 20
2.435840
  0
VERTEX
  8
0
  6
CONTINUOUS
 10
4.887960
 20
2.391840
  0
VERTEX
  8
0
  6
CONTINUOUS
 10
4.892800
 20
2.351360
  0
VERTEX
  8
0
  6
CONTINUOUS
 10
4.900720
 20
2.313960
  0
VERTEX
  8
0
  6
CONTINUOUS
 10
4.911720
 20
2.279200
  0
VERTEX
  8
0
  6
CONTINUOUS
 10
4.942960
 20
2.218040
  0
VERTEX
  8
0
  6
CONTINUOUS
 10
4.986080
 20
2.165680
  0
VERTEX
  8
0
  6
CONTINUOUS
 10
5.041520
 20
2.120360
  0
VERTEX
  8
0
  6
CONTINUOUS
 10
5.109720
 20
2.079880
  0
VERTEX
  8
0
  6
CONTINUOUS
 10
5.190240
 20
2.042920
  0
VERTEX
  8
0
  6
CONTINUOUS
 10
5.231600
 20
2.023560
  0
VERTEX
  8
0
  6
CONTINUOUS
 10
5.269000
 20
2.002000
  0
VERTEX
  8
0
  6
CONTINUOUS
 10
5.301560
 20
1.978240
  0
VERTEX
  8
0
  6
CONTINUOUS
 10
5.329720
 20
1.952720
  0
VERTEX
  8
0
  6
CONTINUOUS
 10
5.353480
 20
1.926320
  0
VERTEX
  8
0
  6
CONTINUOUS
 10
5.372400
 20
1.899480
  0
VERTEX
  8
0
  6
CONTINUOUS
 10
5.386920
 20
1.871760
  0
VERTEX
  8
0
  6
CONTINUOUS
 10
5.396160
 20
1.844480
  0
VERTEX
  8
0
  6
CONTINUOUS
 10
5.401000
 20
1.817200
  0
VERTEX
  8
0
  6
CONTINUOUS
 10
5.400560
 20
1.791240
  0
VERTEX
  8
0
  6
CONTINUOUS
 10
5.395280
 20
1.766600
  0
VERTEX
  8
0
  6
CONTINUOUS
 10
5.384720
 20
1.743720
  0
VERTEX
  8
0
  6
CONTINUOUS
 10
5.368880
 20
1.723040
  0
VERTEX
  8
0
  6
CONTINUOUS
 10
5.347760
 20
1.705000
  0
VERTEX
  8
0
  6
CONTINUOUS
 10
5.321360
 20
1.690040
  0
VERTEX
  8
0
  6
CONTINUOUS
 10
5.289240
 20
1.678160
  0
VERTEX
  8
0
  6
CONTINUOUS
 10
5.291440
 20
1.678160
  0
SEQEND
  8
0
  0
TEXT
  8
0
 10
5.036240
 20
0.806960
 40
0.138089
  1
BA  747
 41
1.000000
  7
SN0
 71
     0
 72
     5
 11
5.625463
 21
0.806960
  0
TEXT
  8
0
 10
4.880480
 20
0.615560
 40
0.138089
  1
7/8" x 1-1/2"
 41
1.000000
  7
SN0
 71
     0
 72
     5
 11
5.779594
 21
0.615560
  0
POLYLINE
  8
0
  6
CONTINUOUS
 66
     1
 40
0.014080
 41
0.014080
  0
VERTEX
  8
0
  6
CONTINUOUS
 10
7.124040
 20
1.999800
  0
VERTEX
  8
0
  6
CONTINUOUS
 10
7.124040
 20
1.962400
  0
VERTEX
  8
0
  6
CONTINUOUS
 10
7.262200
 20
1.939080
  0
VERTEX
  8
0
  6
CONTINUOUS
 10
7.262200
 20
1.353440
  0
VERTEX
  8
0
  6
CONTINUOUS
 10
6.410360
 20
1.353440
  0
VERTEX
  8
0
  6
CONTINUOUS
 10
6.410360
 20
2.856480
  0
VERTEX
  8
0
  6
CONTINUOUS
 10
6.722760
 20
2.856480
  0
VERTEX
  8
0
  6
CONTINUOUS
 10
6.718800
 20
2.805000
  0
VERTEX
  8
0
  6
CONTINUOUS
 10
6.718800
 20
2.735040
  0
VERTEX
  8
0
  6
CONTINUOUS
 10
6.722320
 20
2.692800
  0
VERTEX
  8
0
  6
CONTINUOUS
 10
6.728920
 20
2.654080
  0
VERTEX
  8
0
  6
CONTINUOUS
 10
6.738600
 20
2.618000
  0
VERTEX
  8
0
  6
CONTINUOUS
 10
6.750920
 20
2.585000
  0
VERTEX
  8
0
  6
CONTINUOUS
 10
6.766760
 20
2.554200
  0
VERTEX
  8
0
  6
CONTINUOUS
 10
6.785240
 20
2.526040
  0
VERTEX
  8
0
  6
CONTINUOUS
 10
6.806800
 20
2.499640
  0
VERTEX
  8
0
  6
CONTINUOUS
 10
6.845080
 20
2.464000
  0
VERTEX
  8
0
  6
CONTINUOUS
 10
6.889960
 20
2.431440
  0
VERTEX
  8
0
  6
CONTINUOUS
 10
6.942320
 20
2.401960
  0
VERTEX
  8
0
  6
CONTINUOUS
 10
7.001280
 20
2.373800
  0
VERTEX
  8
0
  6
CONTINUOUS
 10
7.043960
 20
2.355760
  0
VERTEX
  8
0
  6
CONTINUOUS
 10
7.083120
 20
2.335080
  0
VERTEX
  8
0
  6
CONTINUOUS
 10
7.118320
 20
2.312200
  0
VERTEX
  8
0
  6
CONTINUOUS
 10
7.148680
 20
2.287560
  0
VERTEX
  8
0
  6
CONTINUOUS
 10
7.174640
 20
2.261600
  0
VERTEX
  8
0
  6
CONTINUOUS
 10
7.195760
 20
2.234760
  0
VERTEX
  8
0
  6
CONTINUOUS
 10
7.212480
 20
2.207480
  0
VERTEX
  8
0
  6
CONTINUOUS
 10
7.224800
 20
2.179760
  0
VERTEX
  8
0
  6
CONTINUOUS
 10
7.231840
 20
2.152480
  0
VERTEX
  8
0
  6
CONTINUOUS
 10
7.234040
 20
2.126080
  0
VERTEX
  8
0
  6
CONTINUOUS
 10
7.230960
 20
2.100560
  0
VERTEX
  8
0
  6
CONTINUOUS
 10
7.227880
 20
2.088680
  0
VERTEX
  8
0
  6
CONTINUOUS
 10
7.217320
 20
2.065800
  0
VERTEX
  8
0
  6
CONTINUOUS
 10
7.201480
 20
2.044680
  0
VERTEX
  8
0
  6
CONTINUOUS
 10
7.180360
 20
2.026640
  0
VERTEX
  8
0
  6
CONTINUOUS
 10
7.153960
 20
2.011680
  0
VERTEX
  8
0
  6
CONTINUOUS
 10
7.138560
 20
2.005080
  0
VERTEX
  8
0
  6
CONTINUOUS
 10
7.121840
 20
1.999800
  0
VERTEX
  8
0
  6
CONTINUOUS
 10
7.124040
 20
1.999800
  0
SEQEND
  8
0
  0
ENDSEC
  0
EOF
