  0
SECTION
  2
HEADER
  9
$ACADVER
  1
AC1006
  9
$EXTMIN
 10
4.378000
 20
0.578600
  9
$EXTMAX
 10
7.097640
 20
3.169320
  9
$LTSCALE
 40
0.044000
  9
$PDMODE
 70
    35
  9
$PDSIZE
 40
0.035200
  0
ENDSEC
  0
SECTION
  2
TABLES
  0
TABLE
  2
LTYPE
 70
     9
  0
LTYPE
  2
CONTINUOUS
 70
    64
  3
Solid line
 72
    65
 73
     0
 40
0.000000
  0
LTYPE
  2
DASHED
 70
    64
  3
__ __ __ __ __ __ __ __ __ __ __ __ __ __ __
 72
    65
 73
     2
 40
0.000330
 49
0.000220
 49
-0.000110
  0
LTYPE
  2
HIDDEN
 70
    64
  3
 _ _ _ _ _ _ _ _ _ _ _ _ _ _ _ _ _ _ _ _ _ _
 72
    65
 73
     2
 40
0.000165
 49
0.000110
 49
-0.000055
  0
LTYPE
  2
CENTER
 70
    64
  3
____ _ ____ _ ____ _ ____ _ ____ _ ____ _ ____
 72
    65
 73
     4
 40
0.000880
 49
0.000550
 49
-0.000110
 49
0.000110
 49
-0.000110
  0
LTYPE
  2
PHANTOM
 70
    64
  3
_____ _ _ _____ _ _ _____ _ _ _____ _ _ ____
 72
    65
 73
     6
 40
0.001100
 49
0.000550
 49
-0.000110
 49
0.000110
 49
-0.000110
 49
0.000110
 49
-0.000110
  0
LTYPE
  2
DOT
 70
    64
  3
...............................................
 72
    65
 73
     2
 40
0.000110
 49
0.000000
 49
-0.000110
  0
LTYPE
  2
DASHDOT
 70
    64
  3
__ . __ . __ . __ . __ . __ . __ . __ . __ . __
 72
    65
 73
     4
 40
0.000440
 49
0.000220
 49
-0.000110
 49
0.000000
 49
-0.000110
  0
LTYPE
  2
BORDER
 70
    64
  3
__ __ . __ __ . __ __ . __ __ . __ __ . __ __
 72
    65
 73
     6
 40
0.000770
 49
0.000220
 49
-0.000110
 49
0.000220
 49
-0.000110
 49
0.000000
 49
-0.000110
  0
LTYPE
  2
DIVIDE
 70
    64
  3
__ . . __ . . __ . . __ . . __ . . __ . . __
 72
    65
 73
     6
 40
0.000550
 49
0.000220
 49
-0.000110
 49
0.000000
 49
-0.000110
 49
0.000000
 49
-0.000110
  0
LTYPE
  2
DOTDOT
 70
    64
  3
 . .  . .  . .  . .  . .  . . 
 72
    65
 73
     5
 40
0.000242
 49
-0.000110
 49
0.000000
 49
-0.000110
 49
0.000000
 49
-0.000110
  0
ENDTAB
  0
TABLE
  2
STYLE
 70
     2
  0
STYLE
 70
     0
  2
SN0
 40
0.000000
 41
0.000440
 50
0.000000
 71
     0
 42
0.000000
  3
ROMAND
  0
STYLE
 70
    68
  2
SV0
 40
0.000000
 41
0.000440
 50
0.000000
 71
     0
 42
0.000000
  3
ROMAND
  0
ENDTAB
  0
TABLE
  2
LAYER
 70
     3
  0
LAYER
  2
FOREGROUND
 70
    64
 62
     7
  6
CONTINUOUS
  0
LAYER
  2
BACKGROUND
 70
    65
 62
    -7
  6
CONTINUOUS
  0
LAYER
  2
0
 70
    64
 62
     7
  6
CONTINUOUS
  0
ENDTAB
  0
ENDSEC
  0
SECTION
  2
ENTITIES
  0
POLYLINE
  8
FOREGROUND
  6
CONTINUOUS
 66
     1
 40
0.000000
 41
0.000000
  0
VERTEX
  8
FOREGROUND
  6
CONTINUOUS
 10
0.000000
 20
3.747920
  0
VERTEX
  8
FOREGROUND
  6
CONTINUOUS
 10
8.499920
 20
3.747920
  0
VERTEX
  8
FOREGROUND
  6
CONTINUOUS
 10
8.499920
 20
-7.252080
  0
VERTEX
  8
FOREGROUND
  6
CONTINUOUS
 10
0.000000
 20
-7.252080
  0
VERTEX
  8
FOREGROUND
  6
CONTINUOUS
 10
0.000000
 20
3.747920
  0
SEQEND
  8
0
  0
POLYLINE
  8
FOREGROUND
  6
CONTINUOUS
 66
     1
 40
0.000000
 41
0.000000
  0
VERTEX
  8
FOREGROUND
  6
CONTINUOUS
 10
0.000000
 20
3.747920
  0
VERTEX
  8
FOREGROUND
  6
CONTINUOUS
 10
8.499920
 20
3.747920
  0
VERTEX
  8
FOREGROUND
  6
CONTINUOUS
 10
8.499920
 20
-7.252080
  0
VERTEX
  8
FOREGROUND
  6
CONTINUOUS
 10
0.000000
 20
-7.252080
  0
VERTEX
  8
FOREGROUND
  6
CONTINUOUS
 10
0.000000
 20
3.747920
  0
SEQEND
  8
0
  0
POLYLINE
  8
0
  6
CONTINUOUS
 66
     1
 40
0.014080
 41
0.014080
  0
VERTEX
  8
0
  6
CONTINUOUS
 10
6.469760
 20
2.613600
  0
VERTEX
  8
0
  6
CONTINUOUS
 10
6.469760
 20
2.645720
  0
VERTEX
  8
0
  6
CONTINUOUS
 10
6.472840
 20
2.676960
  0
VERTEX
  8
0
  6
CONTINUOUS
 10
6.482520
 20
2.720960
  0
VERTEX
  8
0
  6
CONTINUOUS
 10
6.498360
 20
2.761440
  0
VERTEX
  8
0
  6
CONTINUOUS
 10
6.519040
 20
2.798840
  0
VERTEX
  8
0
  6
CONTINUOUS
 10
6.544560
 20
2.832720
  0
VERTEX
  8
0
  6
CONTINUOUS
 10
6.563480
 20
2.853400
  0
VERTEX
  8
0
  6
CONTINUOUS
 10
6.606600
 20
2.889040
  0
VERTEX
  8
0
  6
CONTINUOUS
 10
6.629920
 20
2.904440
  0
VERTEX
  8
0
  6
CONTINUOUS
 10
6.654560
 20
2.917640
  0
VERTEX
  8
0
  6
CONTINUOUS
 10
6.679640
 20
2.929080
  0
VERTEX
  8
0
  6
CONTINUOUS
 10
6.705600
 20
2.938320
  0
VERTEX
  8
0
  6
CONTINUOUS
 10
6.732440
 20
2.945800
  0
VERTEX
  8
0
  6
CONTINUOUS
 10
6.759280
 20
2.951080
  0
VERTEX
  8
0
  6
CONTINUOUS
 10
6.786120
 20
2.954160
  0
VERTEX
  8
0
  6
CONTINUOUS
 10
6.813400
 20
2.955480
  0
VERTEX
  8
0
  6
CONTINUOUS
 10
6.839800
 20
2.954160
  0
VERTEX
  8
0
  6
CONTINUOUS
 10
6.879400
 20
2.948000
  0
VERTEX
  8
0
  6
CONTINUOUS
 10
6.917240
 20
2.936120
  0
VERTEX
  8
0
  6
CONTINUOUS
 10
6.941440
 20
2.925560
  0
VERTEX
  8
0
  6
CONTINUOUS
 10
6.975760
 20
2.904440
  0
VERTEX
  8
0
  6
CONTINUOUS
 10
6.996880
 20
2.887280
  0
VERTEX
  8
0
  6
CONTINUOUS
 10
7.025480
 20
2.856480
  0
VERTEX
  8
0
  6
CONTINUOUS
 10
7.042200
 20
2.832720
  0
VERTEX
  8
0
  6
CONTINUOUS
 10
7.063760
 20
2.791360
  0
VERTEX
  8
0
  6
CONTINUOUS
 10
7.075200
 20
2.760560
  0
VERTEX
  8
0
  6
CONTINUOUS
 10
7.084000
 20
2.727120
  0
VERTEX
  8
0
  6
CONTINUOUS
 10
7.088840
 20
2.691480
  0
VERTEX
  8
0
  6
CONTINUOUS
 10
7.090160
 20
2.653200
  0
VERTEX
  8
0
  6
CONTINUOUS
 10
7.088400
 20
2.613600
  0
VERTEX
  8
0
  6
CONTINUOUS
 10
7.083120
 20
2.572680
  0
VERTEX
  8
0
  6
CONTINUOUS
 10
7.069480
 20
2.510200
  0
VERTEX
  8
0
  6
CONTINUOUS
 10
7.049680
 20
2.448600
  0
VERTEX
  8
0
  6
CONTINUOUS
 10
7.024600
 20
2.389640
  0
VERTEX
  8
0
  6
CONTINUOUS
 10
7.005240
 20
2.352680
  0
VERTEX
  8
0
  6
CONTINUOUS
 10
6.972240
 20
2.302520
  0
VERTEX
  8
0
  6
CONTINUOUS
 10
6.935720
 20
2.260280
  0
VERTEX
  8
0
  6
CONTINUOUS
 10
6.909760
 20
2.236960
  0
VERTEX
  8
0
  6
CONTINUOUS
 10
6.882480
 20
2.218920
  0
VERTEX
  8
0
  6
CONTINUOUS
 10
6.854320
 20
2.206600
  0
VERTEX
  8
0
  6
CONTINUOUS
 10
6.854320
 20
2.054360
  0
VERTEX
  8
0
  6
CONTINUOUS
 10
6.794040
 20
2.041600
  0
VERTEX
  8
0
  6
CONTINUOUS
 10
6.761920
 20
2.031040
  0
VERTEX
  8
0
  6
CONTINUOUS
 10
6.735960
 20
2.015640
  0
VERTEX
  8
0
  6
CONTINUOUS
 10
6.720120
 20
1.999360
  0
VERTEX
  8
0
  6
CONTINUOUS
 10
6.707800
 20
1.977360
  0
VERTEX
  8
0
  6
CONTINUOUS
 10
6.698120
 20
1.948760
  0
VERTEX
  8
0
  6
CONTINUOUS
 10
6.691520
 20
1.912240
  0
VERTEX
  8
0
  6
CONTINUOUS
 10
6.687560
 20
1.866920
  0
VERTEX
  8
0
  6
CONTINUOUS
 10
6.686240
 20
1.811480
  0
VERTEX
  8
0
  6
CONTINUOUS
 10
6.692840
 20
1.451120
  0
VERTEX
  8
0
  6
CONTINUOUS
 10
6.667320
 20
1.446720
  0
VERTEX
  8
0
  6
CONTINUOUS
 10
6.638280
 20
1.437480
  0
VERTEX
  8
0
  6
CONTINUOUS
 10
6.622880
 20
1.430880
  0
VERTEX
  8
0
  6
CONTINUOUS
 10
6.592520
 20
1.411520
  0
VERTEX
  8
0
  6
CONTINUOUS
 10
6.577560
 20
1.398760
  0
VERTEX
  8
0
  6
CONTINUOUS
 10
6.556440
 20
1.375880
  0
VERTEX
  8
0
  6
CONTINUOUS
 10
6.537960
 20
1.347280
  0
VERTEX
  8
0
  6
CONTINUOUS
 10
6.522120
 20
1.312960
  0
VERTEX
  8
0
  6
CONTINUOUS
 10
6.510680
 20
1.271600
  0
VERTEX
  8
0
  6
CONTINUOUS
 10
6.504080
 20
1.223200
  0
VERTEX
  8
0
  6
CONTINUOUS
 10
6.503200
 20
1.205600
  0
VERTEX
  8
0
  6
CONTINUOUS
 10
6.335120
 20
1.204280
  0
VERTEX
  8
0
  6
CONTINUOUS
 10
6.336880
 20
2.611840
  0
VERTEX
  8
0
  6
CONTINUOUS
 10
6.469760
 20
2.611840
  0
VERTEX
  8
0
  6
CONTINUOUS
 10
6.469760
 20
2.613600
  0
SEQEND
  8
0
  0
SOLID
  8
0
 62
    15
 10
4.855840
 20
2.259840
 11
5.491200
 21
1.897720
 12
4.820640
 22
2.251040
 13
5.456000
 23
1.888480
  0
POLYLINE
  8
0
  6
CONTINUOUS
 66
     1
 40
0.000000
 41
0.000000
  0
VERTEX
  8
0
  6
CONTINUOUS
 10
4.855840
 20
2.259840
  0
VERTEX
  8
0
  6
CONTINUOUS
 10
5.491200
 20
1.897720
  0
VERTEX
  8
0
  6
CONTINUOUS
 10
5.456000
 20
1.888480
  0
VERTEX
  8
0
  6
CONTINUOUS
 10
4.820640
 20
2.251040
  0
VERTEX
  8
0
  6
CONTINUOUS
 10
4.855840
 20
2.259840
  0
SEQEND
  8
0
  0
SOLID
  8
0
 62
    15
 10
4.984760
 20
3.139400
 11
5.620560
 21
2.777280
 12
5.029640
 22
3.110360
 13
5.665440
 23
2.748240
  0
POLYLINE
  8
0
  6
CONTINUOUS
 66
     1
 40
0.000000
 41
0.000000
  0
VERTEX
  8
0
  6
CONTINUOUS
 10
4.984760
 20
3.139400
  0
VERTEX
  8
0
  6
CONTINUOUS
 10
5.620560
 20
2.777280
  0
VERTEX
  8
0
  6
CONTINUOUS
 10
5.665440
 20
2.748240
  0
VERTEX
  8
0
  6
CONTINUOUS
 10
5.029640
 20
3.110360
  0
VERTEX
  8
0
  6
CONTINUOUS
 10
4.984760
 20
3.139400
  0
SEQEND
  8
0
  0
SOLID
  8
0
 62
    15
 10
5.068800
 20
3.070760
 11
5.704600
 21
2.708640
 12
5.100480
 22
3.020160
 13
5.736280
 23
2.657600
  0
POLYLINE
  8
0
  6
CONTINUOUS
 66
     1
 40
0.000000
 41
0.000000
  0
VERTEX
  8
0
  6
CONTINUOUS
 10
5.068800
 20
3.070760
  0
VERTEX
  8
0
  6
CONTINUOUS
 10
5.704600
 20
2.708640
  0
VERTEX
  8
0
  6
CONTINUOUS
 10
5.736280
 20
2.657600
  0
VERTEX
  8
0
  6
CONTINUOUS
 10
5.100480
 20
3.020160
  0
VERTEX
  8
0
  6
CONTINUOUS
 10
5.068800
 20
3.070760
  0
SEQEND
  8
0
  0
SOLID
  8
0
 62
    15
 10
5.100480
 20
3.020160
 11
5.736280
 21
2.657600
 12
5.113240
 22
2.990240
 13
5.749040
 23
2.628120
  0
POLYLINE
  8
0
  6
CONTINUOUS
 66
     1
 40
0.000000
 41
0.000000
  0
VERTEX
  8
0
  6
CONTINUOUS
 10
5.100480
 20
3.020160
  0
VERTEX
  8
0
  6
CONTINUOUS
 10
5.736280
 20
2.657600
  0
VERTEX
  8
0
  6
CONTINUOUS
 10
5.749040
 20
2.628120
  0
VERTEX
  8
0
  6
CONTINUOUS
 10
5.113240
 20
2.990240
  0
VERTEX
  8
0
  6
CONTINUOUS
 10
5.100480
 20
3.020160
  0
SEQEND
  8
0
  0
SOLID
  8
0
 62
    15
 10
5.113240
 20
2.990240
 11
5.749040
 21
2.628120
 12
5.123800
 22
2.958120
 13
5.759160
 23
2.596000
  0
POLYLINE
  8
0
  6
CONTINUOUS
 66
     1
 40
0.000000
 41
0.000000
  0
VERTEX
  8
0
  6
CONTINUOUS
 10
5.113240
 20
2.990240
  0
VERTEX
  8
0
  6
CONTINUOUS
 10
5.749040
 20
2.628120
  0
VERTEX
  8
0
  6
CONTINUOUS
 10
5.759160
 20
2.596000
  0
VERTEX
  8
0
  6
CONTINUOUS
 10
5.123800
 20
2.958120
  0
VERTEX
  8
0
  6
CONTINUOUS
 10
5.113240
 20
2.990240
  0
SEQEND
  8
0
  0
SOLID
  8
0
 62
    15
 10
5.123800
 20
2.958120
 11
5.759160
 21
2.596000
 12
5.130400
 22
2.923800
 13
5.766200
 23
2.561680
  0
POLYLINE
  8
0
  6
CONTINUOUS
 66
     1
 40
0.000000
 41
0.000000
  0
VERTEX
  8
0
  6
CONTINUOUS
 10
5.123800
 20
2.958120
  0
VERTEX
  8
0
  6
CONTINUOUS
 10
5.759160
 20
2.596000
  0
VERTEX
  8
0
  6
CONTINUOUS
 10
5.766200
 20
2.561680
  0
VERTEX
  8
0
  6
CONTINUOUS
 10
5.130400
 20
2.923800
  0
VERTEX
  8
0
  6
CONTINUOUS
 10
5.123800
 20
2.958120
  0
SEQEND
  8
0
  0
SOLID
  8
0
 62
    15
 10
5.130400
 20
2.923800
 11
5.766200
 21
2.561680
 12
5.133480
 22
2.886840
 13
5.769280
 23
2.524280
  0
POLYLINE
  8
0
  6
CONTINUOUS
 66
     1
 40
0.000000
 41
0.000000
  0
VERTEX
  8
0
  6
CONTINUOUS
 10
5.130400
 20
2.923800
  0
VERTEX
  8
0
  6
CONTINUOUS
 10
5.766200
 20
2.561680
  0
VERTEX
  8
0
  6
CONTINUOUS
 10
5.769280
 20
2.524280
  0
VERTEX
  8
0
  6
CONTINUOUS
 10
5.133480
 20
2.886840
  0
VERTEX
  8
0
  6
CONTINUOUS
 10
5.130400
 20
2.923800
  0
SEQEND
  8
0
  0
SOLID
  8
0
 62
    15
 10
5.133480
 20
2.886840
 11
5.769280
 21
2.524280
 12
5.133040
 22
2.847680
 13
5.768840
 23
2.485560
  0
POLYLINE
  8
0
  6
CONTINUOUS
 66
     1
 40
0.000000
 41
0.000000
  0
VERTEX
  8
0
  6
CONTINUOUS
 10
5.133480
 20
2.886840
  0
VERTEX
  8
0
  6
CONTINUOUS
 10
5.769280
 20
2.524280
  0
VERTEX
  8
0
  6
CONTINUOUS
 10
5.768840
 20
2.485560
  0
VERTEX
  8
0
  6
CONTINUOUS
 10
5.133040
 20
2.847680
  0
VERTEX
  8
0
  6
CONTINUOUS
 10
5.133480
 20
2.886840
  0
SEQEND
  8
0
  0
SOLID
  8
0
 62
    15
 10
5.133040
 20
2.847680
 11
5.768840
 21
2.485560
 12
5.129520
 22
2.807200
 13
5.765320
 23
2.445080
  0
POLYLINE
  8
0
  6
CONTINUOUS
 66
     1
 40
0.000000
 41
0.000000
  0
VERTEX
  8
0
  6
CONTINUOUS
 10
5.133040
 20
2.847680
  0
VERTEX
  8
0
  6
CONTINUOUS
 10
5.768840
 20
2.485560
  0
VERTEX
  8
0
  6
CONTINUOUS
 10
5.765320
 20
2.445080
  0
VERTEX
  8
0
  6
CONTINUOUS
 10
5.129520
 20
2.807200
  0
VERTEX
  8
0
  6
CONTINUOUS
 10
5.133040
 20
2.847680
  0
SEQEND
  8
0
  0
SOLID
  8
0
 62
    15
 10
5.129520
 20
2.807200
 11
5.765320
 21
2.445080
 12
5.112800
 22
2.724480
 13
5.748600
 23
2.362360
  0
POLYLINE
  8
0
  6
CONTINUOUS
 66
     1
 40
0.000000
 41
0.000000
  0
VERTEX
  8
0
  6
CONTINUOUS
 10
5.129520
 20
2.807200
  0
VERTEX
  8
0
  6
CONTINUOUS
 10
5.765320
 20
2.445080
  0
VERTEX
  8
0
  6
CONTINUOUS
 10
5.748600
 20
2.362360
  0
VERTEX
  8
0
  6
CONTINUOUS
 10
5.112800
 20
2.724480
  0
VERTEX
  8
0
  6
CONTINUOUS
 10
5.129520
 20
2.807200
  0
SEQEND
  8
0
  0
SOLID
  8
0
 62
    15
 10
5.112800
 20
2.724480
 11
5.748600
 21
2.362360
 12
5.085520
 22
2.643080
 13
5.720880
 23
2.280520
  0
POLYLINE
  8
0
  6
CONTINUOUS
 66
     1
 40
0.000000
 41
0.000000
  0
VERTEX
  8
0
  6
CONTINUOUS
 10
5.112800
 20
2.724480
  0
VERTEX
  8
0
  6
CONTINUOUS
 10
5.748600
 20
2.362360
  0
VERTEX
  8
0
  6
CONTINUOUS
 10
5.720880
 20
2.280520
  0
VERTEX
  8
0
  6
CONTINUOUS
 10
5.085520
 20
2.643080
  0
VERTEX
  8
0
  6
CONTINUOUS
 10
5.112800
 20
2.724480
  0
SEQEND
  8
0
  0
SOLID
  8
0
 62
    15
 10
5.085520
 20
2.643080
 11
5.720880
 21
2.280520
 12
5.048560
 22
2.566960
 13
5.683920
 23
2.204840
  0
POLYLINE
  8
0
  6
CONTINUOUS
 66
     1
 40
0.000000
 41
0.000000
  0
VERTEX
  8
0
  6
CONTINUOUS
 10
5.085520
 20
2.643080
  0
VERTEX
  8
0
  6
CONTINUOUS
 10
5.720880
 20
2.280520
  0
VERTEX
  8
0
  6
CONTINUOUS
 10
5.683920
 20
2.204840
  0
VERTEX
  8
0
  6
CONTINUOUS
 10
5.048560
 20
2.566960
  0
VERTEX
  8
0
  6
CONTINUOUS
 10
5.085520
 20
2.643080
  0
SEQEND
  8
0
  0
SOLID
  8
0
 62
    15
 10
5.048560
 20
2.566960
 11
5.683920
 21
2.204840
 12
5.027000
 22
2.532640
 13
5.662800
 23
2.170520
  0
POLYLINE
  8
0
  6
CONTINUOUS
 66
     1
 40
0.000000
 41
0.000000
  0
VERTEX
  8
0
  6
CONTINUOUS
 10
5.048560
 20
2.566960
  0
VERTEX
  8
0
  6
CONTINUOUS
 10
5.683920
 20
2.204840
  0
VERTEX
  8
0
  6
CONTINUOUS
 10
5.662800
 20
2.170520
  0
VERTEX
  8
0
  6
CONTINUOUS
 10
5.027000
 20
2.532640
  0
VERTEX
  8
0
  6
CONTINUOUS
 10
5.048560
 20
2.566960
  0
SEQEND
  8
0
  0
SOLID
  8
0
 62
    15
 10
5.027000
 20
2.532640
 11
5.662800
 21
2.170520
 12
5.003680
 22
2.501840
 13
5.639480
 23
2.139720
  0
POLYLINE
  8
0
  6
CONTINUOUS
 66
     1
 40
0.000000
 41
0.000000
  0
VERTEX
  8
0
  6
CONTINUOUS
 10
5.027000
 20
2.532640
  0
VERTEX
  8
0
  6
CONTINUOUS
 10
5.662800
 20
2.170520
  0
VERTEX
  8
0
  6
CONTINUOUS
 10
5.639480
 20
2.139720
  0
VERTEX
  8
0
  6
CONTINUOUS
 10
5.003680
 20
2.501840
  0
VERTEX
  8
0
  6
CONTINUOUS
 10
5.027000
 20
2.532640
  0
SEQEND
  8
0
  0
SOLID
  8
0
 62
    15
 10
5.003680
 20
2.501840
 11
5.639480
 21
2.139720
 12
4.979040
 22
2.474560
 13
5.614840
 23
2.112440
  0
POLYLINE
  8
0
  6
CONTINUOUS
 66
     1
 40
0.000000
 41
0.000000
  0
VERTEX
  8
0
  6
CONTINUOUS
 10
5.003680
 20
2.501840
  0
VERTEX
  8
0
  6
CONTINUOUS
 10
5.639480
 20
2.139720
  0
VERTEX
  8
0
  6
CONTINUOUS
 10
5.614840
 20
2.112440
  0
VERTEX
  8
0
  6
CONTINUOUS
 10
4.979040
 20
2.474560
  0
VERTEX
  8
0
  6
CONTINUOUS
 10
5.003680
 20
2.501840
  0
SEQEND
  8
0
  0
SOLID
  8
0
 62
    15
 10
4.979040
 20
2.474560
 11
5.614840
 21
2.112440
 12
4.953080
 22
2.451680
 13
5.588440
 23
2.089120
  0
POLYLINE
  8
0
  6
CONTINUOUS
 66
     1
 40
0.000000
 41
0.000000
  0
VERTEX
  8
0
  6
CONTINUOUS
 10
4.979040
 20
2.474560
  0
VERTEX
  8
0
  6
CONTINUOUS
 10
5.614840
 20
2.112440
  0
VERTEX
  8
0
  6
CONTINUOUS
 10
5.588440
 20
2.089120
  0
VERTEX
  8
0
  6
CONTINUOUS
 10
4.953080
 20
2.451680
  0
VERTEX
  8
0
  6
CONTINUOUS
 10
4.979040
 20
2.474560
  0
SEQEND
  8
0
  0
SOLID
  8
0
 62
    15
 10
4.953080
 20
2.451680
 11
5.588440
 21
2.089120
 12
4.925800
 22
2.433640
 13
5.561160
 23
2.071520
  0
POLYLINE
  8
0
  6
CONTINUOUS
 66
     1
 40
0.000000
 41
0.000000
  0
VERTEX
  8
0
  6
CONTINUOUS
 10
4.953080
 20
2.451680
  0
VERTEX
  8
0
  6
CONTINUOUS
 10
5.588440
 20
2.089120
  0
VERTEX
  8
0
  6
CONTINUOUS
 10
5.561160
 20
2.071520
  0
VERTEX
  8
0
  6
CONTINUOUS
 10
4.925800
 20
2.433640
  0
VERTEX
  8
0
  6
CONTINUOUS
 10
4.953080
 20
2.451680
  0
SEQEND
  8
0
  0
SOLID
  8
0
 62
    15
 10
4.925800
 20
2.433640
 11
5.561160
 21
2.071520
 12
4.897640
 22
2.420880
 13
5.533000
 23
2.058760
  0
POLYLINE
  8
0
  6
CONTINUOUS
 66
     1
 40
0.000000
 41
0.000000
  0
VERTEX
  8
0
  6
CONTINUOUS
 10
4.925800
 20
2.433640
  0
VERTEX
  8
0
  6
CONTINUOUS
 10
5.561160
 20
2.071520
  0
VERTEX
  8
0
  6
CONTINUOUS
 10
5.533000
 20
2.058760
  0
VERTEX
  8
0
  6
CONTINUOUS
 10
4.897640
 20
2.420880
  0
VERTEX
  8
0
  6
CONTINUOUS
 10
4.925800
 20
2.433640
  0
SEQEND
  8
0
  0
SOLID
  8
0
 62
    15
 10
4.897640
 20
2.420880
 11
5.533000
 21
2.058760
 12
4.897640
 22
2.268640
 13
5.533000
 23
1.906080
  0
POLYLINE
  8
0
  6
CONTINUOUS
 66
     1
 40
0.000000
 41
0.000000
  0
VERTEX
  8
0
  6
CONTINUOUS
 10
4.897640
 20
2.420880
  0
VERTEX
  8
0
  6
CONTINUOUS
 10
5.533000
 20
2.058760
  0
VERTEX
  8
0
  6
CONTINUOUS
 10
5.533000
 20
1.906080
  0
VERTEX
  8
0
  6
CONTINUOUS
 10
4.897640
 20
2.268640
  0
VERTEX
  8
0
  6
CONTINUOUS
 10
4.897640
 20
2.420880
  0
SEQEND
  8
0
  0
SOLID
  8
0
 62
    15
 10
4.897640
 20
2.268640
 11
5.533000
 21
1.906080
 12
4.875640
 22
2.264240
 13
5.511440
 23
1.902120
  0
POLYLINE
  8
0
  6
CONTINUOUS
 66
     1
 40
0.000000
 41
0.000000
  0
VERTEX
  8
0
  6
CONTINUOUS
 10
4.897640
 20
2.268640
  0
VERTEX
  8
0
  6
CONTINUOUS
 10
5.533000
 20
1.906080
  0
VERTEX
  8
0
  6
CONTINUOUS
 10
5.511440
 20
1.902120
  0
VERTEX
  8
0
  6
CONTINUOUS
 10
4.875640
 20
2.264240
  0
VERTEX
  8
0
  6
CONTINUOUS
 10
4.897640
 20
2.268640
  0
SEQEND
  8
0
  0
SOLID
  8
0
 62
    15
 10
4.875640
 20
2.264240
 11
5.511440
 21
1.902120
 12
4.855840
 22
2.259840
 13
5.491200
 23
1.897720
  0
POLYLINE
  8
0
  6
CONTINUOUS
 66
     1
 40
0.000000
 41
0.000000
  0
VERTEX
  8
0
  6
CONTINUOUS
 10
4.875640
 20
2.264240
  0
VERTEX
  8
0
  6
CONTINUOUS
 10
5.511440
 20
1.902120
  0
VERTEX
  8
0
  6
CONTINUOUS
 10
5.491200
 20
1.897720
  0
VERTEX
  8
0
  6
CONTINUOUS
 10
4.855840
 20
2.259840
  0
VERTEX
  8
0
  6
CONTINUOUS
 10
4.875640
 20
2.264240
  0
SEQEND
  8
0
  0
SOLID
  8
0
 62
    15
 10
5.029640
 20
3.110360
 11
5.665440
 21
2.748240
 12
5.068800
 22
3.070760
 13
5.704600
 23
2.708640
  0
POLYLINE
  8
0
  6
CONTINUOUS
 66
     1
 40
0.000000
 41
0.000000
  0
VERTEX
  8
0
  6
CONTINUOUS
 10
5.029640
 20
3.110360
  0
VERTEX
  8
0
  6
CONTINUOUS
 10
5.665440
 20
2.748240
  0
VERTEX
  8
0
  6
CONTINUOUS
 10
5.704600
 20
2.708640
  0
VERTEX
  8
0
  6
CONTINUOUS
 10
5.068800
 20
3.070760
  0
VERTEX
  8
0
  6
CONTINUOUS
 10
5.029640
 20
3.110360
  0
SEQEND
  8
0
  0
SOLID
  8
0
 62
    15
 10
4.820640
 20
2.251040
 11
5.456000
 21
1.888480
 12
4.791600
 22
2.238280
 13
5.427400
 23
1.876160
  0
POLYLINE
  8
0
  6
CONTINUOUS
 66
     1
 40
0.000000
 41
0.000000
  0
VERTEX
  8
0
  6
CONTINUOUS
 10
4.820640
 20
2.251040
  0
VERTEX
  8
0
  6
CONTINUOUS
 10
5.456000
 20
1.888480
  0
VERTEX
  8
0
  6
CONTINUOUS
 10
5.427400
 20
1.876160
  0
VERTEX
  8
0
  6
CONTINUOUS
 10
4.791600
 20
2.238280
  0
VERTEX
  8
0
  6
CONTINUOUS
 10
4.820640
 20
2.251040
  0
SEQEND
  8
0
  0
SOLID
  8
0
 62
    15
 10
4.791600
 20
2.238280
 11
5.427400
 21
1.876160
 12
4.768720
 22
2.219360
 13
5.404080
 23
1.857240
  0
POLYLINE
  8
0
  6
CONTINUOUS
 66
     1
 40
0.000000
 41
0.000000
  0
VERTEX
  8
0
  6
CONTINUOUS
 10
4.791600
 20
2.238280
  0
VERTEX
  8
0
  6
CONTINUOUS
 10
5.427400
 20
1.876160
  0
VERTEX
  8
0
  6
CONTINUOUS
 10
5.404080
 20
1.857240
  0
VERTEX
  8
0
  6
CONTINUOUS
 10
4.768720
 20
2.219360
  0
VERTEX
  8
0
  6
CONTINUOUS
 10
4.791600
 20
2.238280
  0
SEQEND
  8
0
  0
SOLID
  8
0
 62
    15
 10
4.768720
 20
2.219360
 11
5.404080
 21
1.857240
 12
4.751120
 22
2.191640
 13
5.386920
 23
1.829520
  0
POLYLINE
  8
0
  6
CONTINUOUS
 66
     1
 40
0.000000
 41
0.000000
  0
VERTEX
  8
0
  6
CONTINUOUS
 10
4.768720
 20
2.219360
  0
VERTEX
  8
0
  6
CONTINUOUS
 10
5.404080
 20
1.857240
  0
VERTEX
  8
0
  6
CONTINUOUS
 10
5.386920
 20
1.829520
  0
VERTEX
  8
0
  6
CONTINUOUS
 10
4.751120
 20
2.191640
  0
VERTEX
  8
0
  6
CONTINUOUS
 10
4.768720
 20
2.219360
  0
SEQEND
  8
0
  0
SOLID
  8
0
 62
    15
 10
4.751120
 20
2.191640
 11
5.386920
 21
1.829520
 12
4.744520
 22
2.173160
 13
5.380320
 23
1.811040
  0
POLYLINE
  8
0
  6
CONTINUOUS
 66
     1
 40
0.000000
 41
0.000000
  0
VERTEX
  8
0
  6
CONTINUOUS
 10
4.751120
 20
2.191640
  0
VERTEX
  8
0
  6
CONTINUOUS
 10
5.386920
 20
1.829520
  0
VERTEX
  8
0
  6
CONTINUOUS
 10
5.380320
 20
1.811040
  0
VERTEX
  8
0
  6
CONTINUOUS
 10
4.744520
 20
2.173160
  0
VERTEX
  8
0
  6
CONTINUOUS
 10
4.751120
 20
2.191640
  0
SEQEND
  8
0
  0
SOLID
  8
0
 62
     7
 10
4.744520
 20
2.173160
 11
5.380320
 21
1.811040
 12
4.739240
 22
2.151600
 13
5.374600
 23
1.789480
  0
POLYLINE
  8
0
  6
CONTINUOUS
 66
     1
 40
0.000000
 41
0.000000
  0
VERTEX
  8
0
  6
CONTINUOUS
 10
4.744520
 20
2.173160
  0
VERTEX
  8
0
  6
CONTINUOUS
 10
5.380320
 20
1.811040
  0
VERTEX
  8
0
  6
CONTINUOUS
 10
5.374600
 20
1.789480
  0
VERTEX
  8
0
  6
CONTINUOUS
 10
4.739240
 20
2.151600
  0
VERTEX
  8
0
  6
CONTINUOUS
 10
4.744520
 20
2.173160
  0
SEQEND
  8
0
  0
SOLID
  8
0
 62
     7
 10
4.739240
 20
2.151600
 11
5.374600
 21
1.789480
 12
4.734840
 22
2.126520
 13
5.370640
 23
1.764400
  0
POLYLINE
  8
0
  6
CONTINUOUS
 66
     1
 40
0.000000
 41
0.000000
  0
VERTEX
  8
0
  6
CONTINUOUS
 10
4.739240
 20
2.151600
  0
VERTEX
  8
0
  6
CONTINUOUS
 10
5.374600
 20
1.789480
  0
VERTEX
  8
0
  6
CONTINUOUS
 10
5.370640
 20
1.764400
  0
VERTEX
  8
0
  6
CONTINUOUS
 10
4.734840
 20
2.126520
  0
VERTEX
  8
0
  6
CONTINUOUS
 10
4.739240
 20
2.151600
  0
SEQEND
  8
0
  0
SOLID
  8
0
 62
     7
 10
4.734840
 20
2.126520
 11
5.370640
 21
1.764400
 12
4.732200
 22
2.097480
 13
5.367560
 23
1.735360
  0
POLYLINE
  8
0
  6
CONTINUOUS
 66
     1
 40
0.000000
 41
0.000000
  0
VERTEX
  8
0
  6
CONTINUOUS
 10
4.734840
 20
2.126520
  0
VERTEX
  8
0
  6
CONTINUOUS
 10
5.370640
 20
1.764400
  0
VERTEX
  8
0
  6
CONTINUOUS
 10
5.367560
 20
1.735360
  0
VERTEX
  8
0
  6
CONTINUOUS
 10
4.732200
 20
2.097480
  0
VERTEX
  8
0
  6
CONTINUOUS
 10
4.734840
 20
2.126520
  0
SEQEND
  8
0
  0
SOLID
  8
0
 62
     7
 10
4.732200
 20
2.097480
 11
5.367560
 21
1.735360
 12
4.730440
 22
2.064040
 13
5.366240
 23
1.701920
  0
POLYLINE
  8
0
  6
CONTINUOUS
 66
     1
 40
0.000000
 41
0.000000
  0
VERTEX
  8
0
  6
CONTINUOUS
 10
4.732200
 20
2.097480
  0
VERTEX
  8
0
  6
CONTINUOUS
 10
5.367560
 20
1.735360
  0
VERTEX
  8
0
  6
CONTINUOUS
 10
5.366240
 20
1.701920
  0
VERTEX
  8
0
  6
CONTINUOUS
 10
4.730440
 20
2.064040
  0
VERTEX
  8
0
  6
CONTINUOUS
 10
4.732200
 20
2.097480
  0
SEQEND
  8
0
  0
SOLID
  8
0
 62
     7
 10
4.730440
 20
2.064040
 11
5.366240
 21
1.701920
 12
4.730000
 22
2.025760
 13
5.365360
 23
1.663640
  0
POLYLINE
  8
0
  6
CONTINUOUS
 66
     1
 40
0.000000
 41
0.000000
  0
VERTEX
  8
0
  6
CONTINUOUS
 10
4.730440
 20
2.064040
  0
VERTEX
  8
0
  6
CONTINUOUS
 10
5.366240
 20
1.701920
  0
VERTEX
  8
0
  6
CONTINUOUS
 10
5.365360
 20
1.663640
  0
VERTEX
  8
0
  6
CONTINUOUS
 10
4.730000
 20
2.025760
  0
VERTEX
  8
0
  6
CONTINUOUS
 10
4.730440
 20
2.064040
  0
SEQEND
  8
0
  0
SOLID
  8
0
 62
     7
 10
4.730000
 20
2.025760
 11
5.365360
 21
1.663640
 12
4.736160
 22
1.665400
 13
5.371960
 23
1.303280
  0
POLYLINE
  8
0
  6
CONTINUOUS
 66
     1
 40
0.000000
 41
0.000000
  0
VERTEX
  8
0
  6
CONTINUOUS
 10
4.730000
 20
2.025760
  0
VERTEX
  8
0
  6
CONTINUOUS
 10
5.365360
 20
1.663640
  0
VERTEX
  8
0
  6
CONTINUOUS
 10
5.371960
 20
1.303280
  0
VERTEX
  8
0
  6
CONTINUOUS
 10
4.736160
 20
1.665400
  0
VERTEX
  8
0
  6
CONTINUOUS
 10
4.730000
 20
2.025760
  0
SEQEND
  8
0
  0
SOLID
  8
0
 62
    15
 10
4.736160
 20
1.665400
 11
5.371960
 21
1.303280
 12
4.711080
 22
1.661000
 13
5.346440
 23
1.298880
  0
POLYLINE
  8
0
  6
CONTINUOUS
 66
     1
 40
0.000000
 41
0.000000
  0
VERTEX
  8
0
  6
CONTINUOUS
 10
4.736160
 20
1.665400
  0
VERTEX
  8
0
  6
CONTINUOUS
 10
5.371960
 20
1.303280
  0
VERTEX
  8
0
  6
CONTINUOUS
 10
5.346440
 20
1.298880
  0
VERTEX
  8
0
  6
CONTINUOUS
 10
4.711080
 20
1.661000
  0
VERTEX
  8
0
  6
CONTINUOUS
 10
4.736160
 20
1.665400
  0
SEQEND
  8
0
  0
SOLID
  8
0
 62
    15
 10
4.711080
 20
1.661000
 11
5.346440
 21
1.298880
 12
4.681600
 22
1.651760
 13
5.317400
 23
1.289640
  0
POLYLINE
  8
0
  6
CONTINUOUS
 66
     1
 40
0.000000
 41
0.000000
  0
VERTEX
  8
0
  6
CONTINUOUS
 10
4.711080
 20
1.661000
  0
VERTEX
  8
0
  6
CONTINUOUS
 10
5.346440
 20
1.298880
  0
VERTEX
  8
0
  6
CONTINUOUS
 10
5.317400
 20
1.289640
  0
VERTEX
  8
0
  6
CONTINUOUS
 10
4.681600
 20
1.651760
  0
VERTEX
  8
0
  6
CONTINUOUS
 10
4.711080
 20
1.661000
  0
SEQEND
  8
0
  0
SOLID
  8
0
 62
    15
 10
4.681600
 20
1.651760
 11
5.317400
 21
1.289640
 12
4.651240
 22
1.636360
 13
5.286600
 23
1.274240
  0
POLYLINE
  8
0
  6
CONTINUOUS
 66
     1
 40
0.000000
 41
0.000000
  0
VERTEX
  8
0
  6
CONTINUOUS
 10
4.681600
 20
1.651760
  0
VERTEX
  8
0
  6
CONTINUOUS
 10
5.317400
 20
1.289640
  0
VERTEX
  8
0
  6
CONTINUOUS
 10
5.286600
 20
1.274240
  0
VERTEX
  8
0
  6
CONTINUOUS
 10
4.651240
 20
1.636360
  0
VERTEX
  8
0
  6
CONTINUOUS
 10
4.681600
 20
1.651760
  0
SEQEND
  8
0
  0
SOLID
  8
0
 62
    15
 10
4.651240
 20
1.636360
 11
5.286600
 21
1.274240
 12
4.620880
 22
1.613040
 13
5.256680
 23
1.250920
  0
POLYLINE
  8
0
  6
CONTINUOUS
 66
     1
 40
0.000000
 41
0.000000
  0
VERTEX
  8
0
  6
CONTINUOUS
 10
4.651240
 20
1.636360
  0
VERTEX
  8
0
  6
CONTINUOUS
 10
5.286600
 20
1.274240
  0
VERTEX
  8
0
  6
CONTINUOUS
 10
5.256680
 20
1.250920
  0
VERTEX
  8
0
  6
CONTINUOUS
 10
4.620880
 20
1.613040
  0
VERTEX
  8
0
  6
CONTINUOUS
 10
4.651240
 20
1.636360
  0
SEQEND
  8
0
  0
SOLID
  8
0
 62
    15
 10
4.620880
 20
1.613040
 11
5.256680
 21
1.250920
 12
4.593160
 22
1.581360
 13
5.228960
 23
1.219240
  0
POLYLINE
  8
0
  6
CONTINUOUS
 66
     1
 40
0.000000
 41
0.000000
  0
VERTEX
  8
0
  6
CONTINUOUS
 10
4.620880
 20
1.613040
  0
VERTEX
  8
0
  6
CONTINUOUS
 10
5.256680
 20
1.250920
  0
VERTEX
  8
0
  6
CONTINUOUS
 10
5.228960
 20
1.219240
  0
VERTEX
  8
0
  6
CONTINUOUS
 10
4.593160
 20
1.581360
  0
VERTEX
  8
0
  6
CONTINUOUS
 10
4.620880
 20
1.613040
  0
SEQEND
  8
0
  0
SOLID
  8
0
 62
    15
 10
4.593160
 20
1.581360
 11
5.228960
 21
1.219240
 12
4.570280
 22
1.539120
 13
5.206080
 23
1.177000
  0
POLYLINE
  8
0
  6
CONTINUOUS
 66
     1
 40
0.000000
 41
0.000000
  0
VERTEX
  8
0
  6
CONTINUOUS
 10
4.593160
 20
1.581360
  0
VERTEX
  8
0
  6
CONTINUOUS
 10
5.228960
 20
1.219240
  0
VERTEX
  8
0
  6
CONTINUOUS
 10
5.206080
 20
1.177000
  0
VERTEX
  8
0
  6
CONTINUOUS
 10
4.570280
 20
1.539120
  0
VERTEX
  8
0
  6
CONTINUOUS
 10
4.593160
 20
1.581360
  0
SEQEND
  8
0
  0
SOLID
  8
0
 62
    15
 10
4.570280
 20
1.539120
 11
5.206080
 21
1.177000
 12
4.561040
 22
1.514040
 13
5.196840
 23
1.151920
  0
POLYLINE
  8
0
  6
CONTINUOUS
 66
     1
 40
0.000000
 41
0.000000
  0
VERTEX
  8
0
  6
CONTINUOUS
 10
4.570280
 20
1.539120
  0
VERTEX
  8
0
  6
CONTINUOUS
 10
5.206080
 20
1.177000
  0
VERTEX
  8
0
  6
CONTINUOUS
 10
5.196840
 20
1.151920
  0
VERTEX
  8
0
  6
CONTINUOUS
 10
4.561040
 20
1.514040
  0
VERTEX
  8
0
  6
CONTINUOUS
 10
4.570280
 20
1.539120
  0
SEQEND
  8
0
  0
SOLID
  8
0
 62
    15
 10
4.561040
 20
1.514040
 11
5.196840
 21
1.151920
 12
4.554000
 22
1.485880
 13
5.189800
 23
1.123760
  0
POLYLINE
  8
0
  6
CONTINUOUS
 66
     1
 40
0.000000
 41
0.000000
  0
VERTEX
  8
0
  6
CONTINUOUS
 10
4.561040
 20
1.514040
  0
VERTEX
  8
0
  6
CONTINUOUS
 10
5.196840
 20
1.151920
  0
VERTEX
  8
0
  6
CONTINUOUS
 10
5.189800
 20
1.123760
  0
VERTEX
  8
0
  6
CONTINUOUS
 10
4.554000
 20
1.485880
  0
VERTEX
  8
0
  6
CONTINUOUS
 10
4.561040
 20
1.514040
  0
SEQEND
  8
0
  0
SOLID
  8
0
 62
     7
 10
4.554000
 20
1.485880
 11
5.189800
 21
1.123760
 12
4.549160
 22
1.454640
 13
5.184520
 23
1.092520
  0
POLYLINE
  8
0
  6
CONTINUOUS
 66
     1
 40
0.000000
 41
0.000000
  0
VERTEX
  8
0
  6
CONTINUOUS
 10
4.554000
 20
1.485880
  0
VERTEX
  8
0
  6
CONTINUOUS
 10
5.189800
 20
1.123760
  0
VERTEX
  8
0
  6
CONTINUOUS
 10
5.184520
 20
1.092520
  0
VERTEX
  8
0
  6
CONTINUOUS
 10
4.549160
 20
1.454640
  0
VERTEX
  8
0
  6
CONTINUOUS
 10
4.554000
 20
1.485880
  0
SEQEND
  8
0
  0
SOLID
  8
0
 62
     7
 10
4.549160
 20
1.454640
 11
5.184520
 21
1.092520
 12
4.546520
 22
1.419880
 13
5.182320
 23
1.057760
  0
POLYLINE
  8
0
  6
CONTINUOUS
 66
     1
 40
0.000000
 41
0.000000
  0
VERTEX
  8
0
  6
CONTINUOUS
 10
4.549160
 20
1.454640
  0
VERTEX
  8
0
  6
CONTINUOUS
 10
5.184520
 20
1.092520
  0
VERTEX
  8
0
  6
CONTINUOUS
 10
5.182320
 20
1.057760
  0
VERTEX
  8
0
  6
CONTINUOUS
 10
4.546520
 20
1.419880
  0
VERTEX
  8
0
  6
CONTINUOUS
 10
4.549160
 20
1.454640
  0
SEQEND
  8
0
  0
SOLID
  8
0
 62
    15
 10
4.546520
 20
1.419880
 11
5.182320
 21
1.057760
 12
4.378440
 22
1.418120
 13
5.014240
 23
1.056000
  0
POLYLINE
  8
0
  6
CONTINUOUS
 66
     1
 40
0.000000
 41
0.000000
  0
VERTEX
  8
0
  6
CONTINUOUS
 10
4.546520
 20
1.419880
  0
VERTEX
  8
0
  6
CONTINUOUS
 10
5.182320
 20
1.057760
  0
VERTEX
  8
0
  6
CONTINUOUS
 10
5.014240
 20
1.056000
  0
VERTEX
  8
0
  6
CONTINUOUS
 10
4.378440
 20
1.418120
  0
VERTEX
  8
0
  6
CONTINUOUS
 10
4.546520
 20
1.419880
  0
SEQEND
  8
0
  0
POLYLINE
  8
0
  6
CONTINUOUS
 66
     1
 40
0.000000
 41
0.000000
  0
VERTEX
  8
0
  6
CONTINUOUS
 10
4.513080
 20
2.827880
  0
VERTEX
  8
0
  6
CONTINUOUS
 10
4.516160
 20
2.891240
  0
VERTEX
  8
0
  6
CONTINUOUS
 10
4.530680
 20
2.948880
  0
VERTEX
  8
0
  6
CONTINUOUS
 10
4.554880
 20
3.001240
  0
VERTEX
  8
0
  6
CONTINUOUS
 10
4.587880
 20
3.047000
  0
VERTEX
  8
0
  6
CONTINUOUS
 10
4.627920
 20
3.086160
  0
VERTEX
  8
0
  6
CONTINUOUS
 10
4.673240
 20
3.118280
  0
VERTEX
  8
0
  6
CONTINUOUS
 10
4.722960
 20
3.143360
  0
VERTEX
  8
0
  6
CONTINUOUS
 10
4.775760
 20
3.160080
  0
VERTEX
  8
0
  6
CONTINUOUS
 10
4.829440
 20
3.168440
  0
VERTEX
  8
0
  6
CONTINUOUS
 10
4.883560
 20
3.168000
  0
VERTEX
  8
0
  6
CONTINUOUS
 10
4.935480
 20
3.158760
  0
VERTEX
  8
0
  6
CONTINUOUS
 10
4.984760
 20
3.139400
  0
VERTEX
  8
0
  6
CONTINUOUS
 10
5.029640
 20
3.110360
  0
VERTEX
  8
0
  6
CONTINUOUS
 10
5.068800
 20
3.070760
  0
VERTEX
  8
0
  6
CONTINUOUS
 10
5.100480
 20
3.020160
  0
VERTEX
  8
0
  6
CONTINUOUS
 10
5.113240
 20
2.990240
  0
VERTEX
  8
0
  6
CONTINUOUS
 10
5.123800
 20
2.958120
  0
VERTEX
  8
0
  6
CONTINUOUS
 10
5.130400
 20
2.923800
  0
VERTEX
  8
0
  6
CONTINUOUS
 10
5.133480
 20
2.886840
  0
VERTEX
  8
0
  6
CONTINUOUS
 10
5.133040
 20
2.847680
  0
VERTEX
  8
0
  6
CONTINUOUS
 10
5.129520
 20
2.807200
  0
VERTEX
  8
0
  6
CONTINUOUS
 10
5.112800
 20
2.724480
  0
VERTEX
  8
0
  6
CONTINUOUS
 10
5.085520
 20
2.643080
  0
VERTEX
  8
0
  6
CONTINUOUS
 10
5.048560
 20
2.566960
  0
VERTEX
  8
0
  6
CONTINUOUS
 10
5.027000
 20
2.532640
  0
VERTEX
  8
0
  6
CONTINUOUS
 10
5.003680
 20
2.501840
  0
VERTEX
  8
0
  6
CONTINUOUS
 10
4.979040
 20
2.474560
  0
VERTEX
  8
0
  6
CONTINUOUS
 10
4.953080
 20
2.451680
  0
VERTEX
  8
0
  6
CONTINUOUS
 10
4.925800
 20
2.433640
  0
VERTEX
  8
0
  6
CONTINUOUS
 10
4.897640
 20
2.420880
  0
VERTEX
  8
0
  6
CONTINUOUS
 10
4.897640
 20
2.268640
  0
VERTEX
  8
0
  6
CONTINUOUS
 10
4.820640
 20
2.251040
  0
VERTEX
  8
0
  6
CONTINUOUS
 10
4.791600
 20
2.238280
  0
VERTEX
  8
0
  6
CONTINUOUS
 10
4.768720
 20
2.219360
  0
VERTEX
  8
0
  6
CONTINUOUS
 10
4.751120
 20
2.191640
  0
VERTEX
  8
0
  6
CONTINUOUS
 10
4.744520
 20
2.173160
  0
VERTEX
  8
0
  6
CONTINUOUS
 10
4.739240
 20
2.151600
  0
VERTEX
  8
0
  6
CONTINUOUS
 10
4.734840
 20
2.126520
  0
VERTEX
  8
0
  6
CONTINUOUS
 10
4.730440
 20
2.064040
  0
VERTEX
  8
0
  6
CONTINUOUS
 10
4.730000
 20
2.025760
  0
VERTEX
  8
0
  6
CONTINUOUS
 10
4.736160
 20
1.665400
  0
VERTEX
  8
0
  6
CONTINUOUS
 10
4.711080
 20
1.661000
  0
VERTEX
  8
0
  6
CONTINUOUS
 10
4.681600
 20
1.651760
  0
VERTEX
  8
0
  6
CONTINUOUS
 10
4.651240
 20
1.636360
  0
VERTEX
  8
0
  6
CONTINUOUS
 10
4.620880
 20
1.613040
  0
VERTEX
  8
0
  6
CONTINUOUS
 10
4.593160
 20
1.581360
  0
VERTEX
  8
0
  6
CONTINUOUS
 10
4.570280
 20
1.539120
  0
VERTEX
  8
0
  6
CONTINUOUS
 10
4.561040
 20
1.514040
  0
VERTEX
  8
0
  6
CONTINUOUS
 10
4.554000
 20
1.485880
  0
VERTEX
  8
0
  6
CONTINUOUS
 10
4.549160
 20
1.454640
  0
VERTEX
  8
0
  6
CONTINUOUS
 10
4.546520
 20
1.419880
  0
VERTEX
  8
0
  6
CONTINUOUS
 10
4.378440
 20
1.418120
  0
VERTEX
  8
0
  6
CONTINUOUS
 10
4.380200
 20
2.826120
  0
VERTEX
  8
0
  6
CONTINUOUS
 10
4.513080
 20
2.826120
  0
VERTEX
  8
0
  6
CONTINUOUS
 10
4.513080
 20
2.827880
  0
SEQEND
  8
0
  0
TEXT
  8
0
 10
4.778400
 20
0.813560
 40
0.138117
  1
BA  745
 41
1.000000
  7
SN0
 71
     0
 72
     5
 11
5.368154
 21
0.813560
  0
TEXT
  8
0
 10
4.622640
 20
0.622160
 40
0.138117
  1
3/4" x 1-3/4"
 41
1.000000
  7
SN0
 71
     0
 72
     5
 11
5.522433
 21
0.622160
  0
ENDSEC
  0
EOF
