  0
SECTION
  2
HEADER
  9
$ACADVER
  1
AC1006
  9
$EXTMIN
 10
0.740520
 20
0.442640
  9
$EXTMAX
 10
7.027240
 20
3.033800
  9
$LTSCALE
 40
0.044000
  9
$PDMODE
 70
    35
  9
$PDSIZE
 40
0.035200
  0
ENDSEC
  0
SECTION
  2
TABLES
  0
TABLE
  2
LTYPE
 70
     9
  0
LTYPE
  2
CONTINUOUS
 70
    64
  3
Solid line
 72
    65
 73
     0
 40
0.000000
  0
LTYPE
  2
DASHED
 70
    64
  3
__ __ __ __ __ __ __ __ __ __ __ __ __ __ __
 72
    65
 73
     2
 40
0.000330
 49
0.000220
 49
-0.000110
  0
LTYPE
  2
HIDDEN
 70
    64
  3
 _ _ _ _ _ _ _ _ _ _ _ _ _ _ _ _ _ _ _ _ _ _
 72
    65
 73
     2
 40
0.000165
 49
0.000110
 49
-0.000055
  0
LTYPE
  2
CENTER
 70
    64
  3
____ _ ____ _ ____ _ ____ _ ____ _ ____ _ ____
 72
    65
 73
     4
 40
0.000880
 49
0.000550
 49
-0.000110
 49
0.000110
 49
-0.000110
  0
LTYPE
  2
PHANTOM
 70
    64
  3
_____ _ _ _____ _ _ _____ _ _ _____ _ _ ____
 72
    65
 73
     6
 40
0.001100
 49
0.000550
 49
-0.000110
 49
0.000110
 49
-0.000110
 49
0.000110
 49
-0.000110
  0
LTYPE
  2
DOT
 70
    64
  3
...............................................
 72
    65
 73
     2
 40
0.000110
 49
0.000000
 49
-0.000110
  0
LTYPE
  2
DASHDOT
 70
    64
  3
__ . __ . __ . __ . __ . __ . __ . __ . __ . __
 72
    65
 73
     4
 40
0.000440
 49
0.000220
 49
-0.000110
 49
0.000000
 49
-0.000110
  0
LTYPE
  2
BORDER
 70
    64
  3
__ __ . __ __ . __ __ . __ __ . __ __ . __ __
 72
    65
 73
     6
 40
0.000770
 49
0.000220
 49
-0.000110
 49
0.000220
 49
-0.000110
 49
0.000000
 49
-0.000110
  0
LTYPE
  2
DIVIDE
 70
    64
  3
__ . . __ . . __ . . __ . . __ . . __ . . __
 72
    65
 73
     6
 40
0.000550
 49
0.000220
 49
-0.000110
 49
0.000000
 49
-0.000110
 49
0.000000
 49
-0.000110
  0
LTYPE
  2
DOTDOT
 70
    64
  3
 . .  . .  . .  . .  . .  . . 
 72
    65
 73
     5
 40
0.000242
 49
-0.000110
 49
0.000000
 49
-0.000110
 49
0.000000
 49
-0.000110
  0
ENDTAB
  0
TABLE
  2
STYLE
 70
     2
  0
STYLE
 70
     0
  2
SN0
 40
0.000000
 41
0.000440
 50
0.000000
 71
     0
 42
0.000000
  3
ROMAND
  0
STYLE
 70
    68
  2
SV0
 40
0.000000
 41
0.000440
 50
0.000000
 71
     0
 42
0.000000
  3
ROMAND
  0
ENDTAB
  0
TABLE
  2
LAYER
 70
     3
  0
LAYER
  2
FOREGROUND
 70
    64
 62
     7
  6
CONTINUOUS
  0
LAYER
  2
BACKGROUND
 70
    65
 62
    -7
  6
CONTINUOUS
  0
LAYER
  2
0
 70
    64
 62
     7
  6
CONTINUOUS
  0
ENDTAB
  0
ENDSEC
  0
SECTION
  2
ENTITIES
  0
POLYLINE
  8
FOREGROUND
  6
CONTINUOUS
 66
     1
 40
0.000000
 41
0.000000
  0
VERTEX
  8
FOREGROUND
  6
CONTINUOUS
 10
0.000000
 20
3.476440
  0
VERTEX
  8
FOREGROUND
  6
CONTINUOUS
 10
8.499920
 20
3.476440
  0
VERTEX
  8
FOREGROUND
  6
CONTINUOUS
 10
8.499920
 20
-7.523560
  0
VERTEX
  8
FOREGROUND
  6
CONTINUOUS
 10
0.000000
 20
-7.523560
  0
VERTEX
  8
FOREGROUND
  6
CONTINUOUS
 10
0.000000
 20
3.476440
  0
SEQEND
  8
0
  0
POLYLINE
  8
FOREGROUND
  6
CONTINUOUS
 66
     1
 40
0.000000
 41
0.000000
  0
VERTEX
  8
FOREGROUND
  6
CONTINUOUS
 10
0.000000
 20
3.476440
  0
VERTEX
  8
FOREGROUND
  6
CONTINUOUS
 10
8.499920
 20
3.476440
  0
VERTEX
  8
FOREGROUND
  6
CONTINUOUS
 10
8.499920
 20
-7.523560
  0
VERTEX
  8
FOREGROUND
  6
CONTINUOUS
 10
0.000000
 20
-7.523560
  0
VERTEX
  8
FOREGROUND
  6
CONTINUOUS
 10
0.000000
 20
3.476440
  0
SEQEND
  8
0
  0
SOLID
  8
0
 62
    15
 10
3.150400
 20
2.235200
 11
3.791920
 21
2.601720
 12
3.149520
 22
2.198680
 13
3.791040
 23
2.565200
  0
POLYLINE
  8
0
  6
CONTINUOUS
 66
     1
 40
0.000000
 41
0.000000
  0
VERTEX
  8
0
  6
CONTINUOUS
 10
3.150400
 20
2.235200
  0
VERTEX
  8
0
  6
CONTINUOUS
 10
3.791920
 20
2.601720
  0
VERTEX
  8
0
  6
CONTINUOUS
 10
3.791040
 20
2.565200
  0
VERTEX
  8
0
  6
CONTINUOUS
 10
3.149520
 20
2.198680
  0
VERTEX
  8
0
  6
CONTINUOUS
 10
3.150400
 20
2.235200
  0
SEQEND
  8
0
  0
SOLID
  8
0
 62
    15
 10
0.895400
 20
2.170960
 11
1.537360
 21
2.537480
 12
0.931480
 22
2.187680
 13
1.573000
 23
2.554200
  0
POLYLINE
  8
0
  6
CONTINUOUS
 66
     1
 40
0.000000
 41
0.000000
  0
VERTEX
  8
0
  6
CONTINUOUS
 10
0.895400
 20
2.170960
  0
VERTEX
  8
0
  6
CONTINUOUS
 10
1.537360
 20
2.537480
  0
VERTEX
  8
0
  6
CONTINUOUS
 10
1.573000
 20
2.554200
  0
VERTEX
  8
0
  6
CONTINUOUS
 10
0.931480
 20
2.187680
  0
VERTEX
  8
0
  6
CONTINUOUS
 10
0.895400
 20
2.170960
  0
SEQEND
  8
0
  0
SOLID
  8
0
 62
    15
 10
0.964040
 20
2.196920
 11
1.605560
 21
2.563000
 12
0.965360
 22
2.196920
 13
1.606880
 23
2.563000
  0
POLYLINE
  8
0
  6
CONTINUOUS
 66
     1
 40
0.000000
 41
0.000000
  0
VERTEX
  8
0
  6
CONTINUOUS
 10
0.964040
 20
2.196920
  0
VERTEX
  8
0
  6
CONTINUOUS
 10
1.605560
 20
2.563000
  0
VERTEX
  8
0
  6
CONTINUOUS
 10
1.606880
 20
2.563000
  0
VERTEX
  8
0
  6
CONTINUOUS
 10
0.965360
 20
2.196920
  0
VERTEX
  8
0
  6
CONTINUOUS
 10
0.964040
 20
2.196920
  0
SEQEND
  8
0
  0
SOLID
  8
0
 62
    15
 10
1.005400
 20
2.289760
 11
1.647360
 21
2.655840
 12
1.059520
 22
2.302080
 13
1.701040
 23
2.668600
  0
POLYLINE
  8
0
  6
CONTINUOUS
 66
     1
 40
0.000000
 41
0.000000
  0
VERTEX
  8
0
  6
CONTINUOUS
 10
1.005400
 20
2.289760
  0
VERTEX
  8
0
  6
CONTINUOUS
 10
1.647360
 20
2.655840
  0
VERTEX
  8
0
  6
CONTINUOUS
 10
1.701040
 20
2.668600
  0
VERTEX
  8
0
  6
CONTINUOUS
 10
1.059520
 20
2.302080
  0
VERTEX
  8
0
  6
CONTINUOUS
 10
1.005400
 20
2.289760
  0
SEQEND
  8
0
  0
SOLID
  8
0
 62
    15
 10
1.059520
 20
2.302080
 11
1.701040
 21
2.668600
 12
1.091640
 22
2.306480
 13
1.733160
 23
2.673000
  0
POLYLINE
  8
0
  6
CONTINUOUS
 66
     1
 40
0.000000
 41
0.000000
  0
VERTEX
  8
0
  6
CONTINUOUS
 10
1.059520
 20
2.302080
  0
VERTEX
  8
0
  6
CONTINUOUS
 10
1.701040
 20
2.668600
  0
VERTEX
  8
0
  6
CONTINUOUS
 10
1.733160
 20
2.673000
  0
VERTEX
  8
0
  6
CONTINUOUS
 10
1.091640
 20
2.306480
  0
VERTEX
  8
0
  6
CONTINUOUS
 10
1.059520
 20
2.302080
  0
SEQEND
  8
0
  0
SOLID
  8
0
 62
    15
 10
1.091640
 20
2.306480
 11
1.733160
 21
2.673000
 12
1.125960
 22
2.312200
 13
1.767480
 23
2.678720
  0
POLYLINE
  8
0
  6
CONTINUOUS
 66
     1
 40
0.000000
 41
0.000000
  0
VERTEX
  8
0
  6
CONTINUOUS
 10
1.091640
 20
2.306480
  0
VERTEX
  8
0
  6
CONTINUOUS
 10
1.733160
 20
2.673000
  0
VERTEX
  8
0
  6
CONTINUOUS
 10
1.767480
 20
2.678720
  0
VERTEX
  8
0
  6
CONTINUOUS
 10
1.125960
 20
2.312200
  0
VERTEX
  8
0
  6
CONTINUOUS
 10
1.091640
 20
2.306480
  0
SEQEND
  8
0
  0
SOLID
  8
0
 62
    15
 10
0.931480
 20
2.187680
 11
1.573000
 21
2.554200
 12
0.964040
 22
2.196920
 13
1.605560
 23
2.563000
  0
POLYLINE
  8
0
  6
CONTINUOUS
 66
     1
 40
0.000000
 41
0.000000
  0
VERTEX
  8
0
  6
CONTINUOUS
 10
0.931480
 20
2.187680
  0
VERTEX
  8
0
  6
CONTINUOUS
 10
1.573000
 20
2.554200
  0
VERTEX
  8
0
  6
CONTINUOUS
 10
1.605560
 20
2.563000
  0
VERTEX
  8
0
  6
CONTINUOUS
 10
0.964040
 20
2.196920
  0
VERTEX
  8
0
  6
CONTINUOUS
 10
0.931480
 20
2.187680
  0
SEQEND
  8
0
  0
SOLID
  8
0
 62
    15
 10
1.282600
 20
2.363680
 11
1.924120
 21
2.730200
 12
1.413280
 22
2.421760
 13
2.054800
 23
2.788280
  0
POLYLINE
  8
0
  6
CONTINUOUS
 66
     1
 40
0.000000
 41
0.000000
  0
VERTEX
  8
0
  6
CONTINUOUS
 10
1.282600
 20
2.363680
  0
VERTEX
  8
0
  6
CONTINUOUS
 10
1.924120
 20
2.730200
  0
VERTEX
  8
0
  6
CONTINUOUS
 10
2.054800
 20
2.788280
  0
VERTEX
  8
0
  6
CONTINUOUS
 10
1.413280
 20
2.421760
  0
VERTEX
  8
0
  6
CONTINUOUS
 10
1.282600
 20
2.363680
  0
SEQEND
  8
0
  0
SOLID
  8
0
 62
    15
 10
1.627120
 20
2.540120
 11
2.268640
 21
2.906200
 12
1.725240
 22
2.591600
 13
2.366760
 23
2.958120
  0
POLYLINE
  8
0
  6
CONTINUOUS
 66
     1
 40
0.000000
 41
0.000000
  0
VERTEX
  8
0
  6
CONTINUOUS
 10
1.627120
 20
2.540120
  0
VERTEX
  8
0
  6
CONTINUOUS
 10
2.268640
 20
2.906200
  0
VERTEX
  8
0
  6
CONTINUOUS
 10
2.366760
 20
2.958120
  0
VERTEX
  8
0
  6
CONTINUOUS
 10
1.725240
 20
2.591600
  0
VERTEX
  8
0
  6
CONTINUOUS
 10
1.627120
 20
2.540120
  0
SEQEND
  8
0
  0
SOLID
  8
0
 62
    15
 10
1.413280
 20
2.421760
 11
2.054800
 21
2.788280
 12
1.525480
 22
2.482040
 13
2.167000
 23
2.848120
  0
POLYLINE
  8
0
  6
CONTINUOUS
 66
     1
 40
0.000000
 41
0.000000
  0
VERTEX
  8
0
  6
CONTINUOUS
 10
1.413280
 20
2.421760
  0
VERTEX
  8
0
  6
CONTINUOUS
 10
2.054800
 20
2.788280
  0
VERTEX
  8
0
  6
CONTINUOUS
 10
2.167000
 20
2.848120
  0
VERTEX
  8
0
  6
CONTINUOUS
 10
1.525480
 20
2.482040
  0
VERTEX
  8
0
  6
CONTINUOUS
 10
1.413280
 20
2.421760
  0
SEQEND
  8
0
  0
SOLID
  8
0
 62
    15
 10
1.725240
 20
2.591600
 11
2.366760
 21
2.958120
 12
1.827760
 22
2.632520
 13
2.469280
 23
2.999040
  0
POLYLINE
  8
0
  6
CONTINUOUS
 66
     1
 40
0.000000
 41
0.000000
  0
VERTEX
  8
0
  6
CONTINUOUS
 10
1.725240
 20
2.591600
  0
VERTEX
  8
0
  6
CONTINUOUS
 10
2.366760
 20
2.958120
  0
VERTEX
  8
0
  6
CONTINUOUS
 10
2.469280
 20
2.999040
  0
VERTEX
  8
0
  6
CONTINUOUS
 10
1.827760
 20
2.632520
  0
VERTEX
  8
0
  6
CONTINUOUS
 10
1.725240
 20
2.591600
  0
SEQEND
  8
0
  0
SOLID
  8
0
 62
    15
 10
1.827760
 20
2.632520
 11
2.469280
 21
2.999040
 12
1.941280
 22
2.658480
 13
2.582800
 23
3.024560
  0
POLYLINE
  8
0
  6
CONTINUOUS
 66
     1
 40
0.000000
 41
0.000000
  0
VERTEX
  8
0
  6
CONTINUOUS
 10
1.827760
 20
2.632520
  0
VERTEX
  8
0
  6
CONTINUOUS
 10
2.469280
 20
2.999040
  0
VERTEX
  8
0
  6
CONTINUOUS
 10
2.582800
 20
3.024560
  0
VERTEX
  8
0
  6
CONTINUOUS
 10
1.941280
 20
2.658480
  0
VERTEX
  8
0
  6
CONTINUOUS
 10
1.827760
 20
2.632520
  0
SEQEND
  8
0
  0
SOLID
  8
0
 62
    15
 10
1.941280
 20
2.658480
 11
2.582800
 21
3.024560
 12
2.074160
 22
2.664640
 13
2.715680
 23
3.031160
  0
POLYLINE
  8
0
  6
CONTINUOUS
 66
     1
 40
0.000000
 41
0.000000
  0
VERTEX
  8
0
  6
CONTINUOUS
 10
1.941280
 20
2.658480
  0
VERTEX
  8
0
  6
CONTINUOUS
 10
2.582800
 20
3.024560
  0
VERTEX
  8
0
  6
CONTINUOUS
 10
2.715680
 20
3.031160
  0
VERTEX
  8
0
  6
CONTINUOUS
 10
2.074160
 20
2.664640
  0
VERTEX
  8
0
  6
CONTINUOUS
 10
1.941280
 20
2.658480
  0
SEQEND
  8
0
  0
SOLID
  8
0
 62
    15
 10
2.040720
 20
2.666840
 11
2.682240
 21
3.032920
 12
2.173600
 22
2.660240
 13
2.815120
 23
3.026760
  0
POLYLINE
  8
0
  6
CONTINUOUS
 66
     1
 40
0.000000
 41
0.000000
  0
VERTEX
  8
0
  6
CONTINUOUS
 10
2.040720
 20
2.666840
  0
VERTEX
  8
0
  6
CONTINUOUS
 10
2.682240
 20
3.032920
  0
VERTEX
  8
0
  6
CONTINUOUS
 10
2.815120
 20
3.026760
  0
VERTEX
  8
0
  6
CONTINUOUS
 10
2.173600
 20
2.660240
  0
VERTEX
  8
0
  6
CONTINUOUS
 10
2.040720
 20
2.666840
  0
SEQEND
  8
0
  0
SOLID
  8
0
 62
    15
 10
2.173600
 20
2.660240
 11
2.815120
 21
3.026760
 12
2.287560
 22
2.634720
 13
2.929080
 23
3.000800
  0
POLYLINE
  8
0
  6
CONTINUOUS
 66
     1
 40
0.000000
 41
0.000000
  0
VERTEX
  8
0
  6
CONTINUOUS
 10
2.173600
 20
2.660240
  0
VERTEX
  8
0
  6
CONTINUOUS
 10
2.815120
 20
3.026760
  0
VERTEX
  8
0
  6
CONTINUOUS
 10
2.929080
 20
3.000800
  0
VERTEX
  8
0
  6
CONTINUOUS
 10
2.287560
 20
2.634720
  0
VERTEX
  8
0
  6
CONTINUOUS
 10
2.173600
 20
2.660240
  0
SEQEND
  8
0
  0
SOLID
  8
0
 62
    15
 10
2.287560
 20
2.634720
 11
2.929080
 21
3.000800
 12
2.389640
 22
2.593800
 13
3.031160
 23
2.959880
  0
POLYLINE
  8
0
  6
CONTINUOUS
 66
     1
 40
0.000000
 41
0.000000
  0
VERTEX
  8
0
  6
CONTINUOUS
 10
2.287560
 20
2.634720
  0
VERTEX
  8
0
  6
CONTINUOUS
 10
2.929080
 20
3.000800
  0
VERTEX
  8
0
  6
CONTINUOUS
 10
3.031160
 20
2.959880
  0
VERTEX
  8
0
  6
CONTINUOUS
 10
2.389640
 20
2.593800
  0
VERTEX
  8
0
  6
CONTINUOUS
 10
2.287560
 20
2.634720
  0
SEQEND
  8
0
  0
SOLID
  8
0
 62
    15
 10
2.389640
 20
2.593800
 11
3.031160
 21
2.959880
 12
2.487760
 22
2.542320
 13
3.129720
 23
2.908400
  0
POLYLINE
  8
0
  6
CONTINUOUS
 66
     1
 40
0.000000
 41
0.000000
  0
VERTEX
  8
0
  6
CONTINUOUS
 10
2.389640
 20
2.593800
  0
VERTEX
  8
0
  6
CONTINUOUS
 10
3.031160
 20
2.959880
  0
VERTEX
  8
0
  6
CONTINUOUS
 10
3.129720
 20
2.908400
  0
VERTEX
  8
0
  6
CONTINUOUS
 10
2.487760
 20
2.542320
  0
VERTEX
  8
0
  6
CONTINUOUS
 10
2.389640
 20
2.593800
  0
SEQEND
  8
0
  0
SOLID
  8
0
 62
    15
 10
2.487760
 20
2.542320
 11
3.129720
 21
2.908400
 12
2.589400
 22
2.484240
 13
3.230920
 23
2.850320
  0
POLYLINE
  8
0
  6
CONTINUOUS
 66
     1
 40
0.000000
 41
0.000000
  0
VERTEX
  8
0
  6
CONTINUOUS
 10
2.487760
 20
2.542320
  0
VERTEX
  8
0
  6
CONTINUOUS
 10
3.129720
 20
2.908400
  0
VERTEX
  8
0
  6
CONTINUOUS
 10
3.230920
 20
2.850320
  0
VERTEX
  8
0
  6
CONTINUOUS
 10
2.589400
 20
2.484240
  0
VERTEX
  8
0
  6
CONTINUOUS
 10
2.487760
 20
2.542320
  0
SEQEND
  8
0
  0
SOLID
  8
0
 62
    15
 10
2.589400
 20
2.484240
 11
3.230920
 21
2.850320
 12
2.702040
 22
2.423960
 13
3.343560
 23
2.790040
  0
POLYLINE
  8
0
  6
CONTINUOUS
 66
     1
 40
0.000000
 41
0.000000
  0
VERTEX
  8
0
  6
CONTINUOUS
 10
2.589400
 20
2.484240
  0
VERTEX
  8
0
  6
CONTINUOUS
 10
3.230920
 20
2.850320
  0
VERTEX
  8
0
  6
CONTINUOUS
 10
3.343560
 20
2.790040
  0
VERTEX
  8
0
  6
CONTINUOUS
 10
2.702040
 20
2.423960
  0
VERTEX
  8
0
  6
CONTINUOUS
 10
2.589400
 20
2.484240
  0
SEQEND
  8
0
  0
SOLID
  8
0
 62
    15
 10
2.702040
 20
2.423960
 11
3.343560
 21
2.790040
 12
2.832720
 22
2.365880
 13
3.474240
 23
2.732400
  0
POLYLINE
  8
0
  6
CONTINUOUS
 66
     1
 40
0.000000
 41
0.000000
  0
VERTEX
  8
0
  6
CONTINUOUS
 10
2.702040
 20
2.423960
  0
VERTEX
  8
0
  6
CONTINUOUS
 10
3.343560
 20
2.790040
  0
VERTEX
  8
0
  6
CONTINUOUS
 10
3.474240
 20
2.732400
  0
VERTEX
  8
0
  6
CONTINUOUS
 10
2.832720
 20
2.365880
  0
VERTEX
  8
0
  6
CONTINUOUS
 10
2.702040
 20
2.423960
  0
SEQEND
  8
0
  0
SOLID
  8
0
 62
    15
 10
2.832720
 20
2.365880
 11
3.474240
 21
2.732400
 12
2.988920
 22
2.314400
 13
3.630880
 23
2.680920
  0
POLYLINE
  8
0
  6
CONTINUOUS
 66
     1
 40
0.000000
 41
0.000000
  0
VERTEX
  8
0
  6
CONTINUOUS
 10
2.832720
 20
2.365880
  0
VERTEX
  8
0
  6
CONTINUOUS
 10
3.474240
 20
2.732400
  0
VERTEX
  8
0
  6
CONTINUOUS
 10
3.630880
 20
2.680920
  0
VERTEX
  8
0
  6
CONTINUOUS
 10
2.988920
 20
2.314400
  0
VERTEX
  8
0
  6
CONTINUOUS
 10
2.832720
 20
2.365880
  0
SEQEND
  8
0
  0
SOLID
  8
0
 62
    15
 10
2.988920
 20
2.314400
 11
3.630880
 21
2.680920
 12
3.023680
 22
2.308680
 13
3.665200
 23
2.675200
  0
POLYLINE
  8
0
  6
CONTINUOUS
 66
     1
 40
0.000000
 41
0.000000
  0
VERTEX
  8
0
  6
CONTINUOUS
 10
2.988920
 20
2.314400
  0
VERTEX
  8
0
  6
CONTINUOUS
 10
3.630880
 20
2.680920
  0
VERTEX
  8
0
  6
CONTINUOUS
 10
3.665200
 20
2.675200
  0
VERTEX
  8
0
  6
CONTINUOUS
 10
3.023680
 20
2.308680
  0
VERTEX
  8
0
  6
CONTINUOUS
 10
2.988920
 20
2.314400
  0
SEQEND
  8
0
  0
SOLID
  8
0
 62
    15
 10
3.023680
 20
2.308680
 11
3.665200
 21
2.675200
 12
3.055800
 22
2.304280
 13
3.697320
 23
2.670800
  0
POLYLINE
  8
0
  6
CONTINUOUS
 66
     1
 40
0.000000
 41
0.000000
  0
VERTEX
  8
0
  6
CONTINUOUS
 10
3.023680
 20
2.308680
  0
VERTEX
  8
0
  6
CONTINUOUS
 10
3.665200
 20
2.675200
  0
VERTEX
  8
0
  6
CONTINUOUS
 10
3.697320
 20
2.670800
  0
VERTEX
  8
0
  6
CONTINUOUS
 10
3.055800
 20
2.304280
  0
VERTEX
  8
0
  6
CONTINUOUS
 10
3.023680
 20
2.308680
  0
SEQEND
  8
0
  0
SOLID
  8
0
 62
    15
 10
3.055800
 20
2.304280
 11
3.697320
 21
2.670800
 12
3.109480
 22
2.291520
 13
3.751000
 23
2.658040
  0
POLYLINE
  8
0
  6
CONTINUOUS
 66
     1
 40
0.000000
 41
0.000000
  0
VERTEX
  8
0
  6
CONTINUOUS
 10
3.055800
 20
2.304280
  0
VERTEX
  8
0
  6
CONTINUOUS
 10
3.697320
 20
2.670800
  0
VERTEX
  8
0
  6
CONTINUOUS
 10
3.751000
 20
2.658040
  0
VERTEX
  8
0
  6
CONTINUOUS
 10
3.109480
 20
2.291520
  0
VERTEX
  8
0
  6
CONTINUOUS
 10
3.055800
 20
2.304280
  0
SEQEND
  8
0
  0
SOLID
  8
0
 62
    15
 10
3.109480
 20
2.291520
 11
3.751000
 21
2.658040
 12
3.129280
 22
2.279640
 13
3.770800
 23
2.646160
  0
POLYLINE
  8
0
  6
CONTINUOUS
 66
     1
 40
0.000000
 41
0.000000
  0
VERTEX
  8
0
  6
CONTINUOUS
 10
3.109480
 20
2.291520
  0
VERTEX
  8
0
  6
CONTINUOUS
 10
3.751000
 20
2.658040
  0
VERTEX
  8
0
  6
CONTINUOUS
 10
3.770800
 20
2.646160
  0
VERTEX
  8
0
  6
CONTINUOUS
 10
3.129280
 20
2.279640
  0
VERTEX
  8
0
  6
CONTINUOUS
 10
3.109480
 20
2.291520
  0
SEQEND
  8
0
  0
SOLID
  8
0
 62
    15
 10
3.129280
 20
2.279640
 11
3.770800
 21
2.646160
 12
3.143360
 22
2.261600
 13
3.784880
 23
2.628120
  0
POLYLINE
  8
0
  6
CONTINUOUS
 66
     1
 40
0.000000
 41
0.000000
  0
VERTEX
  8
0
  6
CONTINUOUS
 10
3.129280
 20
2.279640
  0
VERTEX
  8
0
  6
CONTINUOUS
 10
3.770800
 20
2.646160
  0
VERTEX
  8
0
  6
CONTINUOUS
 10
3.784880
 20
2.628120
  0
VERTEX
  8
0
  6
CONTINUOUS
 10
3.143360
 20
2.261600
  0
VERTEX
  8
0
  6
CONTINUOUS
 10
3.129280
 20
2.279640
  0
SEQEND
  8
0
  0
SOLID
  8
0
 62
    15
 10
3.143360
 20
2.261600
 11
3.784880
 21
2.628120
 12
3.150400
 22
2.235200
 13
3.791920
 23
2.601720
  0
POLYLINE
  8
0
  6
CONTINUOUS
 66
     1
 40
0.000000
 41
0.000000
  0
VERTEX
  8
0
  6
CONTINUOUS
 10
3.143360
 20
2.261600
  0
VERTEX
  8
0
  6
CONTINUOUS
 10
3.784880
 20
2.628120
  0
VERTEX
  8
0
  6
CONTINUOUS
 10
3.791920
 20
2.601720
  0
VERTEX
  8
0
  6
CONTINUOUS
 10
3.150400
 20
2.235200
  0
VERTEX
  8
0
  6
CONTINUOUS
 10
3.143360
 20
2.261600
  0
SEQEND
  8
0
  0
SOLID
  8
0
 62
    15
 10
1.125960
 20
2.312200
 11
1.767480
 21
2.678720
 12
1.282600
 22
2.363680
 13
1.924120
 23
2.730200
  0
POLYLINE
  8
0
  6
CONTINUOUS
 66
     1
 40
0.000000
 41
0.000000
  0
VERTEX
  8
0
  6
CONTINUOUS
 10
1.125960
 20
2.312200
  0
VERTEX
  8
0
  6
CONTINUOUS
 10
1.767480
 20
2.678720
  0
VERTEX
  8
0
  6
CONTINUOUS
 10
1.924120
 20
2.730200
  0
VERTEX
  8
0
  6
CONTINUOUS
 10
1.282600
 20
2.363680
  0
VERTEX
  8
0
  6
CONTINUOUS
 10
1.125960
 20
2.312200
  0
SEQEND
  8
0
  0
SOLID
  8
0
 62
    15
 10
3.149520
 20
2.198680
 11
3.791040
 21
2.565200
 12
3.150840
 22
2.198680
 13
3.792360
 23
2.565200
  0
POLYLINE
  8
0
  6
CONTINUOUS
 66
     1
 40
0.000000
 41
0.000000
  0
VERTEX
  8
0
  6
CONTINUOUS
 10
3.149520
 20
2.198680
  0
VERTEX
  8
0
  6
CONTINUOUS
 10
3.791040
 20
2.565200
  0
VERTEX
  8
0
  6
CONTINUOUS
 10
3.792360
 20
2.565200
  0
VERTEX
  8
0
  6
CONTINUOUS
 10
3.150840
 20
2.198680
  0
VERTEX
  8
0
  6
CONTINUOUS
 10
3.149520
 20
2.198680
  0
SEQEND
  8
0
  0
SOLID
  8
0
 62
    15
 10
3.150840
 20
2.198680
 11
3.792360
 21
2.565200
 12
3.183400
 22
2.189880
 13
3.824920
 23
2.556400
  0
POLYLINE
  8
0
  6
CONTINUOUS
 66
     1
 40
0.000000
 41
0.000000
  0
VERTEX
  8
0
  6
CONTINUOUS
 10
3.150840
 20
2.198680
  0
VERTEX
  8
0
  6
CONTINUOUS
 10
3.792360
 20
2.565200
  0
VERTEX
  8
0
  6
CONTINUOUS
 10
3.824920
 20
2.556400
  0
VERTEX
  8
0
  6
CONTINUOUS
 10
3.183400
 20
2.189880
  0
VERTEX
  8
0
  6
CONTINUOUS
 10
3.150840
 20
2.198680
  0
SEQEND
  8
0
  0
SOLID
  8
0
 62
    15
 10
3.183400
 20
2.189880
 11
3.824920
 21
2.556400
 12
3.219480
 22
2.173160
 13
3.861000
 23
2.539240
  0
POLYLINE
  8
0
  6
CONTINUOUS
 66
     1
 40
0.000000
 41
0.000000
  0
VERTEX
  8
0
  6
CONTINUOUS
 10
3.183400
 20
2.189880
  0
VERTEX
  8
0
  6
CONTINUOUS
 10
3.824920
 20
2.556400
  0
VERTEX
  8
0
  6
CONTINUOUS
 10
3.861000
 20
2.539240
  0
VERTEX
  8
0
  6
CONTINUOUS
 10
3.219480
 20
2.173160
  0
VERTEX
  8
0
  6
CONTINUOUS
 10
3.183400
 20
2.189880
  0
SEQEND
  8
0
  0
SOLID
  8
0
 62
    15
 10
3.219480
 20
2.173160
 11
3.861000
 21
2.539240
 12
3.291200
 22
2.118600
 13
3.932720
 23
2.485120
  0
POLYLINE
  8
0
  6
CONTINUOUS
 66
     1
 40
0.000000
 41
0.000000
  0
VERTEX
  8
0
  6
CONTINUOUS
 10
3.219480
 20
2.173160
  0
VERTEX
  8
0
  6
CONTINUOUS
 10
3.861000
 20
2.539240
  0
VERTEX
  8
0
  6
CONTINUOUS
 10
3.932720
 20
2.485120
  0
VERTEX
  8
0
  6
CONTINUOUS
 10
3.291200
 20
2.118600
  0
VERTEX
  8
0
  6
CONTINUOUS
 10
3.219480
 20
2.173160
  0
SEQEND
  8
0
  0
SOLID
  8
0
 62
    15
 10
3.291200
 20
2.118600
 11
3.932720
 21
2.485120
 12
3.348400
 22
2.042920
 13
3.989920
 23
2.409440
  0
POLYLINE
  8
0
  6
CONTINUOUS
 66
     1
 40
0.000000
 41
0.000000
  0
VERTEX
  8
0
  6
CONTINUOUS
 10
3.291200
 20
2.118600
  0
VERTEX
  8
0
  6
CONTINUOUS
 10
3.932720
 20
2.485120
  0
VERTEX
  8
0
  6
CONTINUOUS
 10
3.989920
 20
2.409440
  0
VERTEX
  8
0
  6
CONTINUOUS
 10
3.348400
 20
2.042920
  0
VERTEX
  8
0
  6
CONTINUOUS
 10
3.291200
 20
2.118600
  0
SEQEND
  8
0
  0
SOLID
  8
0
 62
    15
 10
3.348400
 20
2.042920
 11
3.989920
 21
2.409440
 12
3.366000
 22
1.998920
 13
4.007520
 23
2.365440
  0
POLYLINE
  8
0
  6
CONTINUOUS
 66
     1
 40
0.000000
 41
0.000000
  0
VERTEX
  8
0
  6
CONTINUOUS
 10
3.348400
 20
2.042920
  0
VERTEX
  8
0
  6
CONTINUOUS
 10
3.989920
 20
2.409440
  0
VERTEX
  8
0
  6
CONTINUOUS
 10
4.007520
 20
2.365440
  0
VERTEX
  8
0
  6
CONTINUOUS
 10
3.366000
 20
1.998920
  0
VERTEX
  8
0
  6
CONTINUOUS
 10
3.348400
 20
2.042920
  0
SEQEND
  8
0
  0
SOLID
  8
0
 62
    15
 10
3.366000
 20
1.998920
 11
4.007520
 21
2.365440
 12
3.373480
 22
1.952280
 13
4.015000
 23
2.318360
  0
POLYLINE
  8
0
  6
CONTINUOUS
 66
     1
 40
0.000000
 41
0.000000
  0
VERTEX
  8
0
  6
CONTINUOUS
 10
3.366000
 20
1.998920
  0
VERTEX
  8
0
  6
CONTINUOUS
 10
4.007520
 20
2.365440
  0
VERTEX
  8
0
  6
CONTINUOUS
 10
4.015000
 20
2.318360
  0
VERTEX
  8
0
  6
CONTINUOUS
 10
3.373480
 20
1.952280
  0
VERTEX
  8
0
  6
CONTINUOUS
 10
3.366000
 20
1.998920
  0
SEQEND
  8
0
  0
SOLID
  8
0
 62
    15
 10
3.373480
 20
1.952280
 11
4.015000
 21
2.318360
 12
3.373920
 22
1.888920
 13
4.015440
 23
2.255000
  0
POLYLINE
  8
0
  6
CONTINUOUS
 66
     1
 40
0.000000
 41
0.000000
  0
VERTEX
  8
0
  6
CONTINUOUS
 10
3.373480
 20
1.952280
  0
VERTEX
  8
0
  6
CONTINUOUS
 10
4.015000
 20
2.318360
  0
VERTEX
  8
0
  6
CONTINUOUS
 10
4.015440
 20
2.255000
  0
VERTEX
  8
0
  6
CONTINUOUS
 10
3.373920
 20
1.888920
  0
VERTEX
  8
0
  6
CONTINUOUS
 10
3.373480
 20
1.952280
  0
SEQEND
  8
0
  0
SOLID
  8
0
 62
    15
 10
3.373920
 20
1.888920
 11
4.015440
 21
2.255000
 12
3.367320
 22
1.836120
 13
4.008840
 23
2.202640
  0
POLYLINE
  8
0
  6
CONTINUOUS
 66
     1
 40
0.000000
 41
0.000000
  0
VERTEX
  8
0
  6
CONTINUOUS
 10
3.373920
 20
1.888920
  0
VERTEX
  8
0
  6
CONTINUOUS
 10
4.015440
 20
2.255000
  0
VERTEX
  8
0
  6
CONTINUOUS
 10
4.008840
 20
2.202640
  0
VERTEX
  8
0
  6
CONTINUOUS
 10
3.367320
 20
1.836120
  0
VERTEX
  8
0
  6
CONTINUOUS
 10
3.373920
 20
1.888920
  0
SEQEND
  8
0
  0
SOLID
  8
0
 62
    15
 10
3.367320
 20
1.836120
 11
4.008840
 21
2.202640
 12
3.355000
 22
1.793000
 13
3.996520
 23
2.159520
  0
POLYLINE
  8
0
  6
CONTINUOUS
 66
     1
 40
0.000000
 41
0.000000
  0
VERTEX
  8
0
  6
CONTINUOUS
 10
3.367320
 20
1.836120
  0
VERTEX
  8
0
  6
CONTINUOUS
 10
4.008840
 20
2.202640
  0
VERTEX
  8
0
  6
CONTINUOUS
 10
3.996520
 20
2.159520
  0
VERTEX
  8
0
  6
CONTINUOUS
 10
3.355000
 20
1.793000
  0
VERTEX
  8
0
  6
CONTINUOUS
 10
3.367320
 20
1.836120
  0
SEQEND
  8
0
  0
SOLID
  8
0
 62
    15
 10
3.355000
 20
1.793000
 11
3.996520
 21
2.159520
 12
3.337840
 22
1.756920
 13
3.979360
 23
2.123440
  0
POLYLINE
  8
0
  6
CONTINUOUS
 66
     1
 40
0.000000
 41
0.000000
  0
VERTEX
  8
0
  6
CONTINUOUS
 10
3.355000
 20
1.793000
  0
VERTEX
  8
0
  6
CONTINUOUS
 10
3.996520
 20
2.159520
  0
VERTEX
  8
0
  6
CONTINUOUS
 10
3.979360
 20
2.123440
  0
VERTEX
  8
0
  6
CONTINUOUS
 10
3.337840
 20
1.756920
  0
VERTEX
  8
0
  6
CONTINUOUS
 10
3.355000
 20
1.793000
  0
SEQEND
  8
0
  0
SOLID
  8
0
 62
    15
 10
3.337840
 20
1.756920
 11
3.979360
 21
2.123440
 12
3.290320
 22
1.698840
 13
3.931840
 23
2.065360
  0
POLYLINE
  8
0
  6
CONTINUOUS
 66
     1
 40
0.000000
 41
0.000000
  0
VERTEX
  8
0
  6
CONTINUOUS
 10
3.337840
 20
1.756920
  0
VERTEX
  8
0
  6
CONTINUOUS
 10
3.979360
 20
2.123440
  0
VERTEX
  8
0
  6
CONTINUOUS
 10
3.931840
 20
2.065360
  0
VERTEX
  8
0
  6
CONTINUOUS
 10
3.290320
 20
1.698840
  0
VERTEX
  8
0
  6
CONTINUOUS
 10
3.337840
 20
1.756920
  0
SEQEND
  8
0
  0
SOLID
  8
0
 62
    15
 10
3.290320
 20
1.698840
 11
3.931840
 21
2.065360
 12
3.231360
 22
1.646040
 13
3.872880
 23
2.012120
  0
POLYLINE
  8
0
  6
CONTINUOUS
 66
     1
 40
0.000000
 41
0.000000
  0
VERTEX
  8
0
  6
CONTINUOUS
 10
3.290320
 20
1.698840
  0
VERTEX
  8
0
  6
CONTINUOUS
 10
3.931840
 20
2.065360
  0
VERTEX
  8
0
  6
CONTINUOUS
 10
3.872880
 20
2.012120
  0
VERTEX
  8
0
  6
CONTINUOUS
 10
3.231360
 20
1.646040
  0
VERTEX
  8
0
  6
CONTINUOUS
 10
3.290320
 20
1.698840
  0
SEQEND
  8
0
  0
SOLID
  8
0
 62
    15
 10
3.231360
 20
1.646040
 11
3.872880
 21
2.012120
 12
3.167560
 22
1.583120
 13
3.809080
 23
1.949640
  0
POLYLINE
  8
0
  6
CONTINUOUS
 66
     1
 40
0.000000
 41
0.000000
  0
VERTEX
  8
0
  6
CONTINUOUS
 10
3.231360
 20
1.646040
  0
VERTEX
  8
0
  6
CONTINUOUS
 10
3.872880
 20
2.012120
  0
VERTEX
  8
0
  6
CONTINUOUS
 10
3.809080
 20
1.949640
  0
VERTEX
  8
0
  6
CONTINUOUS
 10
3.167560
 20
1.583120
  0
VERTEX
  8
0
  6
CONTINUOUS
 10
3.231360
 20
1.646040
  0
SEQEND
  8
0
  0
SOLID
  8
0
 62
    15
 10
3.167560
 20
1.583120
 11
3.809080
 21
1.949640
 12
3.135880
 22
1.543080
 13
3.777400
 23
1.909160
  0
POLYLINE
  8
0
  6
CONTINUOUS
 66
     1
 40
0.000000
 41
0.000000
  0
VERTEX
  8
0
  6
CONTINUOUS
 10
3.167560
 20
1.583120
  0
VERTEX
  8
0
  6
CONTINUOUS
 10
3.809080
 20
1.949640
  0
VERTEX
  8
0
  6
CONTINUOUS
 10
3.777400
 20
1.909160
  0
VERTEX
  8
0
  6
CONTINUOUS
 10
3.135880
 20
1.543080
  0
VERTEX
  8
0
  6
CONTINUOUS
 10
3.167560
 20
1.583120
  0
SEQEND
  8
0
  0
SOLID
  8
0
 62
    15
 10
3.135880
 20
1.543080
 11
3.777400
 21
1.909160
 12
3.105080
 22
1.494680
 13
3.746600
 23
1.860760
  0
POLYLINE
  8
0
  6
CONTINUOUS
 66
     1
 40
0.000000
 41
0.000000
  0
VERTEX
  8
0
  6
CONTINUOUS
 10
3.135880
 20
1.543080
  0
VERTEX
  8
0
  6
CONTINUOUS
 10
3.777400
 20
1.909160
  0
VERTEX
  8
0
  6
CONTINUOUS
 10
3.746600
 20
1.860760
  0
VERTEX
  8
0
  6
CONTINUOUS
 10
3.105080
 20
1.494680
  0
VERTEX
  8
0
  6
CONTINUOUS
 10
3.135880
 20
1.543080
  0
SEQEND
  8
0
  0
SOLID
  8
0
 62
    15
 10
3.105080
 20
1.494680
 11
3.746600
 21
1.860760
 12
3.076480
 22
1.435720
 13
3.718000
 23
1.802240
  0
POLYLINE
  8
0
  6
CONTINUOUS
 66
     1
 40
0.000000
 41
0.000000
  0
VERTEX
  8
0
  6
CONTINUOUS
 10
3.105080
 20
1.494680
  0
VERTEX
  8
0
  6
CONTINUOUS
 10
3.746600
 20
1.860760
  0
VERTEX
  8
0
  6
CONTINUOUS
 10
3.718000
 20
1.802240
  0
VERTEX
  8
0
  6
CONTINUOUS
 10
3.076480
 20
1.435720
  0
VERTEX
  8
0
  6
CONTINUOUS
 10
3.105080
 20
1.494680
  0
SEQEND
  8
0
  0
SOLID
  8
0
 62
    15
 10
3.076480
 20
1.435720
 11
3.718000
 21
1.802240
 12
3.050520
 22
1.364880
 13
3.692040
 23
1.730960
  0
POLYLINE
  8
0
  6
CONTINUOUS
 66
     1
 40
0.000000
 41
0.000000
  0
VERTEX
  8
0
  6
CONTINUOUS
 10
3.076480
 20
1.435720
  0
VERTEX
  8
0
  6
CONTINUOUS
 10
3.718000
 20
1.802240
  0
VERTEX
  8
0
  6
CONTINUOUS
 10
3.692040
 20
1.730960
  0
VERTEX
  8
0
  6
CONTINUOUS
 10
3.050520
 20
1.364880
  0
VERTEX
  8
0
  6
CONTINUOUS
 10
3.076480
 20
1.435720
  0
SEQEND
  8
0
  0
SOLID
  8
0
 62
    15
 10
3.050520
 20
1.364880
 11
3.692040
 21
1.730960
 12
3.027640
 22
1.279520
 13
3.669160
 23
1.645600
  0
POLYLINE
  8
0
  6
CONTINUOUS
 66
     1
 40
0.000000
 41
0.000000
  0
VERTEX
  8
0
  6
CONTINUOUS
 10
3.050520
 20
1.364880
  0
VERTEX
  8
0
  6
CONTINUOUS
 10
3.692040
 20
1.730960
  0
VERTEX
  8
0
  6
CONTINUOUS
 10
3.669160
 20
1.645600
  0
VERTEX
  8
0
  6
CONTINUOUS
 10
3.027640
 20
1.279520
  0
VERTEX
  8
0
  6
CONTINUOUS
 10
3.050520
 20
1.364880
  0
SEQEND
  8
0
  0
SOLID
  8
0
 62
    15
 10
3.027640
 20
1.279520
 11
3.669160
 21
1.645600
 12
3.009600
 22
1.177880
 13
3.651120
 23
1.544400
  0
POLYLINE
  8
0
  6
CONTINUOUS
 66
     1
 40
0.000000
 41
0.000000
  0
VERTEX
  8
0
  6
CONTINUOUS
 10
3.027640
 20
1.279520
  0
VERTEX
  8
0
  6
CONTINUOUS
 10
3.669160
 20
1.645600
  0
VERTEX
  8
0
  6
CONTINUOUS
 10
3.651120
 20
1.544400
  0
VERTEX
  8
0
  6
CONTINUOUS
 10
3.009600
 20
1.177880
  0
VERTEX
  8
0
  6
CONTINUOUS
 10
3.027640
 20
1.279520
  0
SEQEND
  8
0
  0
SOLID
  8
0
 62
    15
 10
3.009600
 20
1.177880
 11
3.651120
 21
1.544400
 12
3.009600
 22
1.176120
 13
3.651120
 23
1.542200
  0
POLYLINE
  8
0
  6
CONTINUOUS
 66
     1
 40
0.000000
 41
0.000000
  0
VERTEX
  8
0
  6
CONTINUOUS
 10
3.009600
 20
1.177880
  0
VERTEX
  8
0
  6
CONTINUOUS
 10
3.651120
 20
1.544400
  0
VERTEX
  8
0
  6
CONTINUOUS
 10
3.651120
 20
1.542200
  0
VERTEX
  8
0
  6
CONTINUOUS
 10
3.009600
 20
1.176120
  0
VERTEX
  8
0
  6
CONTINUOUS
 10
3.009600
 20
1.177880
  0
SEQEND
  8
0
  0
SOLID
  8
0
 62
    15
 10
3.009600
 20
1.176120
 11
3.651120
 21
1.542200
 12
3.005200
 22
1.134760
 13
3.646720
 23
1.500840
  0
POLYLINE
  8
0
  6
CONTINUOUS
 66
     1
 40
0.000000
 41
0.000000
  0
VERTEX
  8
0
  6
CONTINUOUS
 10
3.009600
 20
1.176120
  0
VERTEX
  8
0
  6
CONTINUOUS
 10
3.651120
 20
1.542200
  0
VERTEX
  8
0
  6
CONTINUOUS
 10
3.646720
 20
1.500840
  0
VERTEX
  8
0
  6
CONTINUOUS
 10
3.005200
 20
1.134760
  0
VERTEX
  8
0
  6
CONTINUOUS
 10
3.009600
 20
1.176120
  0
SEQEND
  8
0
  0
SOLID
  8
0
 62
    15
 10
3.005200
 20
1.134760
 11
3.646720
 21
1.500840
 12
2.999920
 22
1.091640
 13
3.641440
 23
1.457720
  0
POLYLINE
  8
0
  6
CONTINUOUS
 66
     1
 40
0.000000
 41
0.000000
  0
VERTEX
  8
0
  6
CONTINUOUS
 10
3.005200
 20
1.134760
  0
VERTEX
  8
0
  6
CONTINUOUS
 10
3.646720
 20
1.500840
  0
VERTEX
  8
0
  6
CONTINUOUS
 10
3.641440
 20
1.457720
  0
VERTEX
  8
0
  6
CONTINUOUS
 10
2.999920
 20
1.091640
  0
VERTEX
  8
0
  6
CONTINUOUS
 10
3.005200
 20
1.134760
  0
SEQEND
  8
0
  0
SOLID
  8
0
 62
    15
 10
2.999920
 20
1.091640
 11
3.641440
 21
1.457720
 12
2.978360
 22
1.008920
 13
3.619880
 23
1.375000
  0
POLYLINE
  8
0
  6
CONTINUOUS
 66
     1
 40
0.000000
 41
0.000000
  0
VERTEX
  8
0
  6
CONTINUOUS
 10
2.999920
 20
1.091640
  0
VERTEX
  8
0
  6
CONTINUOUS
 10
3.641440
 20
1.457720
  0
VERTEX
  8
0
  6
CONTINUOUS
 10
3.619880
 20
1.375000
  0
VERTEX
  8
0
  6
CONTINUOUS
 10
2.978360
 20
1.008920
  0
VERTEX
  8
0
  6
CONTINUOUS
 10
2.999920
 20
1.091640
  0
SEQEND
  8
0
  0
SOLID
  8
0
 62
    15
 10
2.978360
 20
1.008920
 11
3.619880
 21
1.375000
 12
2.958120
 22
0.973720
 13
3.599640
 23
1.340240
  0
POLYLINE
  8
0
  6
CONTINUOUS
 66
     1
 40
0.000000
 41
0.000000
  0
VERTEX
  8
0
  6
CONTINUOUS
 10
2.978360
 20
1.008920
  0
VERTEX
  8
0
  6
CONTINUOUS
 10
3.619880
 20
1.375000
  0
VERTEX
  8
0
  6
CONTINUOUS
 10
3.599640
 20
1.340240
  0
VERTEX
  8
0
  6
CONTINUOUS
 10
2.958120
 20
0.973720
  0
VERTEX
  8
0
  6
CONTINUOUS
 10
2.978360
 20
1.008920
  0
SEQEND
  8
0
  0
SOLID
  8
0
 62
    15
 10
2.958120
 20
0.973720
 11
3.599640
 21
1.340240
 12
2.929080
 22
0.946000
 13
3.570600
 23
1.312520
  0
POLYLINE
  8
0
  6
CONTINUOUS
 66
     1
 40
0.000000
 41
0.000000
  0
VERTEX
  8
0
  6
CONTINUOUS
 10
2.958120
 20
0.973720
  0
VERTEX
  8
0
  6
CONTINUOUS
 10
3.599640
 20
1.340240
  0
VERTEX
  8
0
  6
CONTINUOUS
 10
3.570600
 20
1.312520
  0
VERTEX
  8
0
  6
CONTINUOUS
 10
2.929080
 20
0.946000
  0
VERTEX
  8
0
  6
CONTINUOUS
 10
2.958120
 20
0.973720
  0
SEQEND
  8
0
  0
POLYLINE
  8
0
  6
CONTINUOUS
 66
     1
 40
0.000000
 41
0.000000
  0
VERTEX
  8
0
  6
CONTINUOUS
 10
2.059200
 20
0.921360
  0
VERTEX
  8
0
  6
CONTINUOUS
 10
1.287000
 20
0.921360
  0
VERTEX
  8
0
  6
CONTINUOUS
 10
1.280400
 20
0.919600
  0
VERTEX
  8
0
  6
CONTINUOUS
 10
1.226720
 20
0.926200
  0
VERTEX
  8
0
  6
CONTINUOUS
 10
1.186240
 20
0.944680
  0
VERTEX
  8
0
  6
CONTINUOUS
 10
1.157200
 20
0.972400
  0
VERTEX
  8
0
  6
CONTINUOUS
 10
1.136960
 20
1.007160
  0
VERTEX
  8
0
  6
CONTINUOUS
 10
1.115400
 20
1.089440
  0
VERTEX
  8
0
  6
CONTINUOUS
 10
1.105280
 20
1.176120
  0
VERTEX
  8
0
  6
CONTINUOUS
 10
1.087240
 20
1.277320
  0
VERTEX
  8
0
  6
CONTINUOUS
 10
1.064360
 20
1.362680
  0
VERTEX
  8
0
  6
CONTINUOUS
 10
1.038400
 20
1.433520
  0
VERTEX
  8
0
  6
CONTINUOUS
 10
1.009800
 20
1.492480
  0
VERTEX
  8
0
  6
CONTINUOUS
 10
0.979000
 20
1.540880
  0
VERTEX
  8
0
  6
CONTINUOUS
 10
0.947320
 20
1.580920
  0
VERTEX
  8
0
  6
CONTINUOUS
 10
0.883520
 20
1.643840
  0
VERTEX
  8
0
  6
CONTINUOUS
 10
0.824560
 20
1.696640
  0
VERTEX
  8
0
  6
CONTINUOUS
 10
0.777480
 20
1.755160
  0
VERTEX
  8
0
  6
CONTINUOUS
 10
0.759880
 20
1.791240
  0
VERTEX
  8
0
  6
CONTINUOUS
 10
0.747560
 20
1.834360
  0
VERTEX
  8
0
  6
CONTINUOUS
 10
0.741400
 20
1.886720
  0
VERTEX
  8
0
  6
CONTINUOUS
 10
0.741840
 20
1.950080
  0
VERTEX
  8
0
  6
CONTINUOUS
 10
0.748880
 20
1.996720
  0
VERTEX
  8
0
  6
CONTINUOUS
 10
0.766480
 20
2.040720
  0
VERTEX
  8
0
  6
CONTINUOUS
 10
0.823680
 20
2.116840
  0
VERTEX
  8
0
  6
CONTINUOUS
 10
0.895400
 20
2.170960
  0
VERTEX
  8
0
  6
CONTINUOUS
 10
0.931480
 20
2.187680
  0
VERTEX
  8
0
  6
CONTINUOUS
 10
0.965360
 20
2.196920
  0
VERTEX
  8
0
  6
CONTINUOUS
 10
0.964920
 20
2.233000
  0
VERTEX
  8
0
  6
CONTINUOUS
 10
0.971960
 20
2.259400
  0
VERTEX
  8
0
  6
CONTINUOUS
 10
0.985600
 20
2.277880
  0
VERTEX
  8
0
  6
CONTINUOUS
 10
1.005400
 20
2.289760
  0
VERTEX
  8
0
  6
CONTINUOUS
 10
1.059520
 20
2.302080
  0
VERTEX
  8
0
  6
CONTINUOUS
 10
1.125960
 20
2.312200
  0
VERTEX
  8
0
  6
CONTINUOUS
 10
1.282600
 20
2.363680
  0
VERTEX
  8
0
  6
CONTINUOUS
 10
1.413280
 20
2.421760
  0
VERTEX
  8
0
  6
CONTINUOUS
 10
1.525480
 20
2.482040
  0
VERTEX
  8
0
  6
CONTINUOUS
 10
1.627120
 20
2.540120
  0
VERTEX
  8
0
  6
CONTINUOUS
 10
1.725240
 20
2.591600
  0
VERTEX
  8
0
  6
CONTINUOUS
 10
1.827760
 20
2.632520
  0
VERTEX
  8
0
  6
CONTINUOUS
 10
1.941280
 20
2.658480
  0
VERTEX
  8
0
  6
CONTINUOUS
 10
2.074160
 20
2.664640
  0
VERTEX
  8
0
  6
CONTINUOUS
 10
2.040720
 20
2.666840
  0
VERTEX
  8
0
  6
CONTINUOUS
 10
2.173600
 20
2.660240
  0
VERTEX
  8
0
  6
CONTINUOUS
 10
2.287560
 20
2.634720
  0
VERTEX
  8
0
  6
CONTINUOUS
 10
2.389640
 20
2.593800
  0
VERTEX
  8
0
  6
CONTINUOUS
 10
2.487760
 20
2.542320
  0
VERTEX
  8
0
  6
CONTINUOUS
 10
2.589400
 20
2.484240
  0
VERTEX
  8
0
  6
CONTINUOUS
 10
2.702040
 20
2.423960
  0
VERTEX
  8
0
  6
CONTINUOUS
 10
2.832720
 20
2.365880
  0
VERTEX
  8
0
  6
CONTINUOUS
 10
2.988920
 20
2.314400
  0
VERTEX
  8
0
  6
CONTINUOUS
 10
3.055800
 20
2.304280
  0
VERTEX
  8
0
  6
CONTINUOUS
 10
3.109480
 20
2.291520
  0
VERTEX
  8
0
  6
CONTINUOUS
 10
3.129280
 20
2.279640
  0
VERTEX
  8
0
  6
CONTINUOUS
 10
3.143360
 20
2.261600
  0
VERTEX
  8
0
  6
CONTINUOUS
 10
3.150400
 20
2.235200
  0
VERTEX
  8
0
  6
CONTINUOUS
 10
3.149520
 20
2.198680
  0
VERTEX
  8
0
  6
CONTINUOUS
 10
3.183400
 20
2.189880
  0
VERTEX
  8
0
  6
CONTINUOUS
 10
3.219480
 20
2.173160
  0
VERTEX
  8
0
  6
CONTINUOUS
 10
3.291200
 20
2.118600
  0
VERTEX
  8
0
  6
CONTINUOUS
 10
3.348400
 20
2.042920
  0
VERTEX
  8
0
  6
CONTINUOUS
 10
3.366000
 20
1.998920
  0
VERTEX
  8
0
  6
CONTINUOUS
 10
3.373480
 20
1.952280
  0
VERTEX
  8
0
  6
CONTINUOUS
 10
3.373920
 20
1.888920
  0
VERTEX
  8
0
  6
CONTINUOUS
 10
3.367320
 20
1.836120
  0
VERTEX
  8
0
  6
CONTINUOUS
 10
3.355000
 20
1.793000
  0
VERTEX
  8
0
  6
CONTINUOUS
 10
3.337840
 20
1.756920
  0
VERTEX
  8
0
  6
CONTINUOUS
 10
3.290320
 20
1.698840
  0
VERTEX
  8
0
  6
CONTINUOUS
 10
3.231360
 20
1.646040
  0
VERTEX
  8
0
  6
CONTINUOUS
 10
3.167560
 20
1.583120
  0
VERTEX
  8
0
  6
CONTINUOUS
 10
3.135880
 20
1.543080
  0
VERTEX
  8
0
  6
CONTINUOUS
 10
3.105080
 20
1.494680
  0
VERTEX
  8
0
  6
CONTINUOUS
 10
3.076480
 20
1.435720
  0
VERTEX
  8
0
  6
CONTINUOUS
 10
3.050520
 20
1.364880
  0
VERTEX
  8
0
  6
CONTINUOUS
 10
3.027640
 20
1.279520
  0
VERTEX
  8
0
  6
CONTINUOUS
 10
3.009600
 20
1.176120
  0
VERTEX
  8
0
  6
CONTINUOUS
 10
2.999920
 20
1.091640
  0
VERTEX
  8
0
  6
CONTINUOUS
 10
2.978360
 20
1.008920
  0
VERTEX
  8
0
  6
CONTINUOUS
 10
2.958120
 20
0.973720
  0
VERTEX
  8
0
  6
CONTINUOUS
 10
2.929080
 20
0.946000
  0
VERTEX
  8
0
  6
CONTINUOUS
 10
2.888600
 20
0.927960
  0
VERTEX
  8
0
  6
CONTINUOUS
 10
2.819960
 20
0.919600
  0
VERTEX
  8
0
  6
CONTINUOUS
 10
2.059200
 20
0.921360
  0
SEQEND
  8
0
  0
TEXT
  8
0
 10
2.082960
 20
0.678920
 40
0.138025
  1
BA  744
 41
1.000000
  7
SN0
 71
     0
 72
     5
 11
2.672654
 21
0.678920
  0
TEXT
  8
0
 10
1.853280
 20
0.487080
 40
0.138025
  1
1-3/4" x 2-5/8"
 41
1.000000
  7
SN0
 71
     0
 72
     5
 11
2.900333
 21
0.487080
  0
POLYLINE
  8
0
  6
CONTINUOUS
 66
     1
 40
0.014080
 41
0.014080
  0
VERTEX
  8
0
  6
CONTINUOUS
 10
5.708120
 20
1.085480
  0
VERTEX
  8
0
  6
CONTINUOUS
 10
6.465800
 20
1.083720
  0
VERTEX
  8
0
  6
CONTINUOUS
 10
6.508920
 20
1.087240
  0
VERTEX
  8
0
  6
CONTINUOUS
 10
6.534000
 20
1.092080
  0
VERTEX
  8
0
  6
CONTINUOUS
 10
6.555560
 20
1.100000
  0
VERTEX
  8
0
  6
CONTINUOUS
 10
6.574480
 20
1.110560
  0
VERTEX
  8
0
  6
CONTINUOUS
 10
6.597360
 20
1.130360
  0
VERTEX
  8
0
  6
CONTINUOUS
 10
6.614960
 20
1.155000
  0
VERTEX
  8
0
  6
CONTINUOUS
 10
6.631240
 20
1.192400
  0
VERTEX
  8
0
  6
CONTINUOUS
 10
6.641800
 20
1.234200
  0
VERTEX
  8
0
  6
CONTINUOUS
 10
6.650600
 20
1.298880
  0
VERTEX
  8
0
  6
CONTINUOUS
 10
6.655000
 20
1.342000
  0
VERTEX
  8
0
  6
CONTINUOUS
 10
6.668200
 20
1.419440
  0
VERTEX
  8
0
  6
CONTINUOUS
 10
6.689760
 20
1.508760
  0
VERTEX
  8
0
  6
CONTINUOUS
 10
6.708680
 20
1.565960
  0
VERTEX
  8
0
  6
CONTINUOUS
 10
6.728920
 20
1.615680
  0
VERTEX
  8
0
  6
CONTINUOUS
 10
6.758400
 20
1.671560
  0
VERTEX
  8
0
  6
CONTINUOUS
 10
6.781280
 20
1.707200
  0
VERTEX
  8
0
  6
CONTINUOUS
 10
6.813400
 20
1.747240
  0
VERTEX
  8
0
  6
CONTINUOUS
 10
6.845520
 20
1.780680
  0
VERTEX
  8
0
  6
CONTINUOUS
 10
6.935720
 20
1.862960
  0
VERTEX
  8
0
  6
CONTINUOUS
 10
6.961240
 20
1.890240
  0
VERTEX
  8
0
  6
CONTINUOUS
 10
6.983240
 20
1.921040
  0
VERTEX
  8
0
  6
CONTINUOUS
 10
7.000840
 20
1.957120
  0
VERTEX
  8
0
  6
CONTINUOUS
 10
7.013160
 20
2.000680
  0
VERTEX
  8
0
  6
CONTINUOUS
 10
7.018440
 20
2.038960
  0
VERTEX
  8
0
  6
CONTINUOUS
 10
7.020200
 20
2.082960
  0
VERTEX
  8
0
  6
CONTINUOUS
 10
7.018000
 20
2.128280
  0
VERTEX
  8
0
  6
CONTINUOUS
 10
7.014480
 20
2.151600
  0
VERTEX
  8
0
  6
CONTINUOUS
 10
7.008320
 20
2.174480
  0
VERTEX
  8
0
  6
CONTINUOUS
 10
6.994240
 20
2.207040
  0
VERTEX
  8
0
  6
CONTINUOUS
 10
6.968280
 20
2.247080
  0
VERTEX
  8
0
  6
CONTINUOUS
 10
6.953320
 20
2.265560
  0
VERTEX
  8
0
  6
CONTINUOUS
 10
6.919440
 20
2.298560
  0
VERTEX
  8
0
  6
CONTINUOUS
 10
6.883360
 20
2.325840
  0
VERTEX
  8
0
  6
CONTINUOUS
 10
6.846840
 20
2.346520
  0
VERTEX
  8
0
  6
CONTINUOUS
 10
6.829240
 20
2.354000
  0
VERTEX
  8
0
  6
CONTINUOUS
 10
6.796240
 20
2.362800
  0
VERTEX
  8
0
  6
CONTINUOUS
 10
6.795360
 20
2.362800
  0
VERTEX
  8
0
  6
CONTINUOUS
 10
6.796680
 20
2.390960
  0
VERTEX
  8
0
  6
CONTINUOUS
 10
6.793160
 20
2.413400
  0
VERTEX
  8
0
  6
CONTINUOUS
 10
6.788760
 20
2.425720
  0
VERTEX
  8
0
  6
CONTINUOUS
 10
6.782600
 20
2.435840
  0
VERTEX
  8
0
  6
CONTINUOUS
 10
6.765440
 20
2.450360
  0
VERTEX
  8
0
  6
CONTINUOUS
 10
6.743000
 20
2.460040
  0
VERTEX
  8
0
  6
CONTINUOUS
 10
6.716160
 20
2.466200
  0
VERTEX
  8
0
  6
CONTINUOUS
 10
6.634760
 20
2.478520
  0
VERTEX
  8
0
  6
CONTINUOUS
 10
6.552920
 20
2.503160
  0
VERTEX
  8
0
  6
CONTINUOUS
 10
6.478120
 20
2.530000
  0
VERTEX
  8
0
  6
CONTINUOUS
 10
6.409920
 20
2.558160
  0
VERTEX
  8
0
  6
CONTINUOUS
 10
6.347440
 20
2.587640
  0
VERTEX
  8
0
  6
CONTINUOUS
 10
6.235240
 20
2.647920
  0
VERTEX
  8
0
  6
CONTINUOUS
 10
6.084760
 20
2.732840
  0
VERTEX
  8
0
  6
CONTINUOUS
 10
6.010400
 20
2.768920
  0
VERTEX
  8
0
  6
CONTINUOUS
 10
5.959360
 20
2.789600
  0
VERTEX
  8
0
  6
CONTINUOUS
 10
5.906120
 20
2.806760
  0
VERTEX
  8
0
  6
CONTINUOUS
 10
5.849360
 20
2.819520
  0
VERTEX
  8
0
  6
CONTINUOUS
 10
5.788200
 20
2.827880
  0
VERTEX
  8
0
  6
CONTINUOUS
 10
5.755640
 20
2.830520
  0
VERTEX
  8
0
  6
CONTINUOUS
 10
5.686560
 20
2.830960
  0
VERTEX
  8
0
  6
CONTINUOUS
 10
5.719560
 20
2.828760
  0
VERTEX
  8
0
  6
CONTINUOUS
 10
5.684360
 20
2.829200
  0
VERTEX
  8
0
  6
CONTINUOUS
 10
5.617920
 20
2.826120
  0
VERTEX
  8
0
  6
CONTINUOUS
 10
5.556760
 20
2.817760
  0
VERTEX
  8
0
  6
CONTINUOUS
 10
5.500000
 20
2.804560
  0
VERTEX
  8
0
  6
CONTINUOUS
 10
5.446760
 20
2.787840
  0
VERTEX
  8
0
  6
CONTINUOUS
 10
5.370640
 20
2.755720
  0
VERTEX
  8
0
  6
CONTINUOUS
 10
5.272520
 20
2.704240
  0
VERTEX
  8
0
  6
CONTINUOUS
 10
5.116760
 20
2.615800
  0
VERTEX
  8
0
  6
CONTINUOUS
 10
5.027880
 20
2.570920
  0
VERTEX
  8
0
  6
CONTINUOUS
 10
4.928000
 20
2.527800
  0
VERTEX
  8
0
  6
CONTINUOUS
 10
4.853200
 20
2.500960
  0
VERTEX
  8
0
  6
CONTINUOUS
 10
4.771360
 20
2.476320
  0
VERTEX
  8
0
  6
CONTINUOUS
 10
4.675880
 20
2.461360
  0
VERTEX
  8
0
  6
CONTINUOUS
 10
4.651240
 20
2.453440
  0
VERTEX
  8
0
  6
CONTINUOUS
 10
4.631440
 20
2.441560
  0
VERTEX
  8
0
  6
CONTINUOUS
 10
4.623520
 20
2.433640
  0
VERTEX
  8
0
  6
CONTINUOUS
 10
4.612960
 20
2.411640
  0
VERTEX
  8
0
  6
CONTINUOUS
 10
4.609880
 20
2.389200
  0
VERTEX
  8
0
  6
CONTINUOUS
 10
4.611200
 20
2.361040
  0
VERTEX
  8
0
  6
CONTINUOUS
 10
4.594040
 20
2.357520
  0
VERTEX
  8
0
  6
CONTINUOUS
 10
4.576880
 20
2.352240
  0
VERTEX
  8
0
  6
CONTINUOUS
 10
4.541240
 20
2.335080
  0
VERTEX
  8
0
  6
CONTINUOUS
 10
4.522760
 20
2.324080
  0
VERTEX
  8
0
  6
CONTINUOUS
 10
4.486680
 20
2.296800
  0
VERTEX
  8
0
  6
CONTINUOUS
 10
4.452800
 20
2.263800
  0
VERTEX
  8
0
  6
CONTINUOUS
 10
4.424200
 20
2.225520
  0
VERTEX
  8
0
  6
CONTINUOUS
 10
4.411880
 20
2.204840
  0
VERTEX
  8
0
  6
CONTINUOUS
 10
4.397800
 20
2.172280
  0
VERTEX
  8
0
  6
CONTINUOUS
 10
4.389440
 20
2.137960
  0
VERTEX
  8
0
  6
CONTINUOUS
 10
4.386360
 20
2.097040
  0
VERTEX
  8
0
  6
CONTINUOUS
 10
4.386800
 20
2.050840
  0
VERTEX
  8
0
  6
CONTINUOUS
 10
4.390760
 20
2.010360
  0
VERTEX
  8
0
  6
CONTINUOUS
 10
4.398680
 20
1.975600
  0
VERTEX
  8
0
  6
CONTINUOUS
 10
4.405280
 20
1.955360
  0
VERTEX
  8
0
  6
CONTINUOUS
 10
4.422880
 20
1.919280
  0
VERTEX
  8
0
  6
CONTINUOUS
 10
4.444880
 20
1.888480
  0
VERTEX
  8
0
  6
CONTINUOUS
 10
4.470400
 20
1.860760
  0
VERTEX
  8
0
  6
CONTINUOUS
 10
4.560600
 20
1.778920
  0
VERTEX
  8
0
  6
CONTINUOUS
 10
4.592720
 20
1.745040
  0
VERTEX
  8
0
  6
CONTINUOUS
 10
4.624840
 20
1.705000
  0
VERTEX
  8
0
  6
CONTINUOUS
 10
4.655200
 20
1.656600
  0
VERTEX
  8
0
  6
CONTINUOUS
 10
4.677200
 20
1.613480
  0
VERTEX
  8
0
  6
CONTINUOUS
 10
4.704040
 20
1.545720
  0
VERTEX
  8
0
  6
CONTINUOUS
 10
4.722080
 20
1.485880
  0
VERTEX
  8
0
  6
CONTINUOUS
 10
4.742760
 20
1.393040
  0
VERTEX
  8
0
  6
CONTINUOUS
 10
4.751120
 20
1.338040
  0
VERTEX
  8
0
  6
CONTINUOUS
 10
4.760800
 20
1.253560
  0
VERTEX
  8
0
  6
CONTINUOUS
 10
4.769160
 20
1.210880
  0
VERTEX
  8
0
  6
CONTINUOUS
 10
4.774880
 20
1.190640
  0
VERTEX
  8
0
  6
CONTINUOUS
 10
4.791160
 20
1.152800
  0
VERTEX
  8
0
  6
CONTINUOUS
 10
4.808760
 20
1.128600
  0
VERTEX
  8
0
  6
CONTINUOUS
 10
4.831640
 20
1.108360
  0
VERTEX
  8
0
  6
CONTINUOUS
 10
4.861120
 20
1.093840
  0
VERTEX
  8
0
  6
CONTINUOUS
 10
4.884440
 20
1.087680
  0
VERTEX
  8
0
  6
CONTINUOUS
 10
4.910840
 20
1.084160
  0
VERTEX
  8
0
  6
CONTINUOUS
 10
4.925800
 20
1.083720
  0
VERTEX
  8
0
  6
CONTINUOUS
 10
4.932840
 20
1.085480
  0
VERTEX
  8
0
  6
CONTINUOUS
 10
5.708120
 20
1.085480
  0
SEQEND
  8
0
  0
ENDSEC
  0
EOF
