  0
SECTION
  2
HEADER
  9
$ACADVER
  1
AC1006
  9
$EXTMIN
 10
3.827560
 20
0.504680
  9
$EXTMAX
 10
7.357680
 20
3.906760
  9
$LTSCALE
 40
0.044000
  9
$PDMODE
 70
    35
  9
$PDSIZE
 40
0.035200
  0
ENDSEC
  0
SECTION
  2
TABLES
  0
TABLE
  2
LTYPE
 70
     9
  0
LTYPE
  2
CONTINUOUS
 70
    64
  3
Solid line
 72
    65
 73
     0
 40
0.000000
  0
LTYPE
  2
DASHED
 70
    64
  3
__ __ __ __ __ __ __ __ __ __ __ __ __ __ __
 72
    65
 73
     2
 40
0.000330
 49
0.000220
 49
-0.000110
  0
LTYPE
  2
HIDDEN
 70
    64
  3
 _ _ _ _ _ _ _ _ _ _ _ _ _ _ _ _ _ _ _ _ _ _
 72
    65
 73
     2
 40
0.000165
 49
0.000110
 49
-0.000055
  0
LTYPE
  2
CENTER
 70
    64
  3
____ _ ____ _ ____ _ ____ _ ____ _ ____ _ ____
 72
    65
 73
     4
 40
0.000880
 49
0.000550
 49
-0.000110
 49
0.000110
 49
-0.000110
  0
LTYPE
  2
PHANTOM
 70
    64
  3
_____ _ _ _____ _ _ _____ _ _ _____ _ _ ____
 72
    65
 73
     6
 40
0.001100
 49
0.000550
 49
-0.000110
 49
0.000110
 49
-0.000110
 49
0.000110
 49
-0.000110
  0
LTYPE
  2
DOT
 70
    64
  3
...............................................
 72
    65
 73
     2
 40
0.000110
 49
0.000000
 49
-0.000110
  0
LTYPE
  2
DASHDOT
 70
    64
  3
__ . __ . __ . __ . __ . __ . __ . __ . __ . __
 72
    65
 73
     4
 40
0.000440
 49
0.000220
 49
-0.000110
 49
0.000000
 49
-0.000110
  0
LTYPE
  2
BORDER
 70
    64
  3
__ __ . __ __ . __ __ . __ __ . __ __ . __ __
 72
    65
 73
     6
 40
0.000770
 49
0.000220
 49
-0.000110
 49
0.000220
 49
-0.000110
 49
0.000000
 49
-0.000110
  0
LTYPE
  2
DIVIDE
 70
    64
  3
__ . . __ . . __ . . __ . . __ . . __ . . __
 72
    65
 73
     6
 40
0.000550
 49
0.000220
 49
-0.000110
 49
0.000000
 49
-0.000110
 49
0.000000
 49
-0.000110
  0
LTYPE
  2
DOTDOT
 70
    64
  3
 . .  . .  . .  . .  . .  . . 
 72
    65
 73
     5
 40
0.000242
 49
-0.000110
 49
0.000000
 49
-0.000110
 49
0.000000
 49
-0.000110
  0
ENDTAB
  0
TABLE
  2
STYLE
 70
     2
  0
STYLE
 70
     0
  2
SN0
 40
0.000000
 41
0.000440
 50
0.000000
 71
     0
 42
0.000000
  3
ROMAND
  0
STYLE
 70
    68
  2
SV0
 40
0.000000
 41
0.000440
 50
0.000000
 71
     0
 42
0.000000
  3
ROMAND
  0
ENDTAB
  0
TABLE
  2
LAYER
 70
     3
  0
LAYER
  2
FOREGROUND
 70
    64
 62
     7
  6
CONTINUOUS
  0
LAYER
  2
BACKGROUND
 70
    65
 62
    -7
  6
CONTINUOUS
  0
LAYER
  2
0
 70
    64
 62
     7
  6
CONTINUOUS
  0
ENDTAB
  0
ENDSEC
  0
SECTION
  2
ENTITIES
  0
POLYLINE
  8
FOREGROUND
  6
CONTINUOUS
 66
     1
 40
0.000000
 41
0.000000
  0
VERTEX
  8
FOREGROUND
  6
CONTINUOUS
 10
0.000000
 20
4.411440
  0
VERTEX
  8
FOREGROUND
  6
CONTINUOUS
 10
8.499920
 20
4.411440
  0
VERTEX
  8
FOREGROUND
  6
CONTINUOUS
 10
8.499920
 20
-6.588560
  0
VERTEX
  8
FOREGROUND
  6
CONTINUOUS
 10
0.000000
 20
-6.588560
  0
VERTEX
  8
FOREGROUND
  6
CONTINUOUS
 10
0.000000
 20
4.411440
  0
SEQEND
  8
0
  0
POLYLINE
  8
FOREGROUND
  6
CONTINUOUS
 66
     1
 40
0.000000
 41
0.000000
  0
VERTEX
  8
FOREGROUND
  6
CONTINUOUS
 10
0.000000
 20
4.411440
  0
VERTEX
  8
FOREGROUND
  6
CONTINUOUS
 10
8.499920
 20
4.411440
  0
VERTEX
  8
FOREGROUND
  6
CONTINUOUS
 10
8.499920
 20
-6.588560
  0
VERTEX
  8
FOREGROUND
  6
CONTINUOUS
 10
0.000000
 20
-6.588560
  0
VERTEX
  8
FOREGROUND
  6
CONTINUOUS
 10
0.000000
 20
4.411440
  0
SEQEND
  8
0
  0
POLYLINE
  8
0
  6
CONTINUOUS
 66
     1
 40
0.014080
 41
0.014080
  0
VERTEX
  8
0
  6
CONTINUOUS
 10
7.318960
 20
3.024120
  0
VERTEX
  8
0
  6
CONTINUOUS
 10
3.835040
 20
3.024120
  0
VERTEX
  8
0
  6
CONTINUOUS
 10
3.835040
 20
3.899280
  0
VERTEX
  8
0
  6
CONTINUOUS
 10
4.193200
 20
3.899280
  0
VERTEX
  8
0
  6
CONTINUOUS
 10
4.195400
 20
3.897080
  0
VERTEX
  8
0
  6
CONTINUOUS
 10
4.195400
 20
3.762880
  0
VERTEX
  8
0
  6
CONTINUOUS
 10
4.224440
 20
3.762880
  0
VERTEX
  8
0
  6
CONTINUOUS
 10
4.227960
 20
3.764640
  0
VERTEX
  8
0
  6
CONTINUOUS
 10
4.242040
 20
3.789280
  0
VERTEX
  8
0
  6
CONTINUOUS
 10
4.261400
 20
3.812600
  0
VERTEX
  8
0
  6
CONTINUOUS
 10
4.285160
 20
3.833720
  0
VERTEX
  8
0
  6
CONTINUOUS
 10
4.313760
 20
3.852200
  0
VERTEX
  8
0
  6
CONTINUOUS
 10
4.346320
 20
3.867600
  0
VERTEX
  8
0
  6
CONTINUOUS
 10
4.382400
 20
3.879040
  0
VERTEX
  8
0
  6
CONTINUOUS
 10
4.421560
 20
3.886520
  0
VERTEX
  8
0
  6
CONTINUOUS
 10
4.463360
 20
3.889160
  0
VERTEX
  8
0
  6
CONTINUOUS
 10
4.507800
 20
3.886080
  0
VERTEX
  8
0
  6
CONTINUOUS
 10
4.530680
 20
3.882560
  0
VERTEX
  8
0
  6
CONTINUOUS
 10
4.577760
 20
3.870680
  0
VERTEX
  8
0
  6
CONTINUOUS
 10
4.626160
 20
3.851760
  0
VERTEX
  8
0
  6
CONTINUOUS
 10
4.675000
 20
3.825800
  0
VERTEX
  8
0
  6
CONTINUOUS
 10
4.724720
 20
3.791480
  0
VERTEX
  8
0
  6
CONTINUOUS
 10
4.774440
 20
3.749240
  0
VERTEX
  8
0
  6
CONTINUOUS
 10
4.823720
 20
3.697760
  0
VERTEX
  8
0
  6
CONTINUOUS
 10
4.847920
 20
3.668280
  0
VERTEX
  8
0
  6
CONTINUOUS
 10
4.849680
 20
3.664320
  0
VERTEX
  8
0
  6
CONTINUOUS
 10
5.126000
 20
3.664320
  0
VERTEX
  8
0
  6
CONTINUOUS
 10
5.141400
 20
3.641000
  0
VERTEX
  8
0
  6
CONTINUOUS
 10
5.161200
 20
3.619000
  0
VERTEX
  8
0
  6
CONTINUOUS
 10
5.185840
 20
3.597440
  0
VERTEX
  8
0
  6
CONTINUOUS
 10
5.230720
 20
3.567520
  0
VERTEX
  8
0
  6
CONTINUOUS
 10
5.284400
 20
3.540240
  0
VERTEX
  8
0
  6
CONTINUOUS
 10
5.324000
 20
3.523520
  0
VERTEX
  8
0
  6
CONTINUOUS
 10
5.389560
 20
3.501080
  0
VERTEX
  8
0
  6
CONTINUOUS
 10
5.459960
 20
3.482160
  0
VERTEX
  8
0
  6
CONTINUOUS
 10
5.509680
 20
3.471600
  0
VERTEX
  8
0
  6
CONTINUOUS
 10
5.561160
 20
3.462360
  0
VERTEX
  8
0
  6
CONTINUOUS
 10
5.613960
 20
3.455320
  0
VERTEX
  8
0
  6
CONTINUOUS
 10
5.722200
 20
3.446960
  0
VERTEX
  8
0
  6
CONTINUOUS
 10
5.780720
 20
3.446080
  0
VERTEX
  8
0
  6
CONTINUOUS
 10
6.607920
 20
3.446080
  0
VERTEX
  8
0
  6
CONTINUOUS
 10
6.608360
 20
3.516480
  0
VERTEX
  8
0
  6
CONTINUOUS
 10
6.613640
 20
3.539360
  0
VERTEX
  8
0
  6
CONTINUOUS
 10
6.622880
 20
3.560480
  0
VERTEX
  8
0
  6
CONTINUOUS
 10
6.636080
 20
3.579400
  0
VERTEX
  8
0
  6
CONTINUOUS
 10
6.652800
 20
3.596120
  0
VERTEX
  8
0
  6
CONTINUOUS
 10
6.671720
 20
3.609320
  0
VERTEX
  8
0
  6
CONTINUOUS
 10
6.693280
 20
3.618560
  0
VERTEX
  8
0
  6
CONTINUOUS
 10
6.716160
 20
3.623840
  0
VERTEX
  8
0
  6
CONTINUOUS
 10
6.739920
 20
3.623840
  0
VERTEX
  8
0
  6
CONTINUOUS
 10
6.762800
 20
3.618560
  0
VERTEX
  8
0
  6
CONTINUOUS
 10
6.784360
 20
3.609320
  0
VERTEX
  8
0
  6
CONTINUOUS
 10
6.803280
 20
3.596120
  0
VERTEX
  8
0
  6
CONTINUOUS
 10
6.820000
 20
3.579400
  0
VERTEX
  8
0
  6
CONTINUOUS
 10
6.833200
 20
3.560480
  0
VERTEX
  8
0
  6
CONTINUOUS
 10
6.842440
 20
3.539360
  0
VERTEX
  8
0
  6
CONTINUOUS
 10
6.847720
 20
3.516480
  0
VERTEX
  8
0
  6
CONTINUOUS
 10
6.848160
 20
3.446080
  0
VERTEX
  8
0
  6
CONTINUOUS
 10
6.995560
 20
3.446080
  0
VERTEX
  8
0
  6
CONTINUOUS
 10
7.004360
 20
3.417040
  0
VERTEX
  8
0
  6
CONTINUOUS
 10
7.018880
 20
3.390200
  0
VERTEX
  8
0
  6
CONTINUOUS
 10
7.039120
 20
3.365560
  0
VERTEX
  8
0
  6
CONTINUOUS
 10
7.064200
 20
3.342680
  0
VERTEX
  8
0
  6
CONTINUOUS
 10
7.083120
 20
3.329040
  0
VERTEX
  8
0
  6
CONTINUOUS
 10
7.104240
 20
3.316280
  0
VERTEX
  8
0
  6
CONTINUOUS
 10
7.151760
 20
3.295160
  0
VERTEX
  8
0
  6
CONTINUOUS
 10
7.204560
 20
3.279320
  0
VERTEX
  8
0
  6
CONTINUOUS
 10
7.232720
 20
3.273600
  0
VERTEX
  8
0
  6
CONTINUOUS
 10
7.291680
 20
3.267000
  0
VERTEX
  8
0
  6
CONTINUOUS
 10
7.322480
 20
3.266120
  0
VERTEX
  8
0
  6
CONTINUOUS
 10
7.322480
 20
3.024120
  0
VERTEX
  8
0
  6
CONTINUOUS
 10
7.318960
 20
3.024120
  0
SEQEND
  8
0
  0
SOLID
  8
0
 62
    15
 10
5.495160
 20
1.440560
 11
5.492080
 21
2.190320
 12
5.596360
 22
1.420760
 13
5.593280
 23
2.170960
  0
POLYLINE
  8
0
  6
CONTINUOUS
 66
     1
 40
0.000000
 41
0.000000
  0
VERTEX
  8
0
  6
CONTINUOUS
 10
5.495160
 20
1.440560
  0
VERTEX
  8
0
  6
CONTINUOUS
 10
5.492080
 20
2.190320
  0
VERTEX
  8
0
  6
CONTINUOUS
 10
5.593280
 20
2.170960
  0
VERTEX
  8
0
  6
CONTINUOUS
 10
5.596360
 20
1.420760
  0
VERTEX
  8
0
  6
CONTINUOUS
 10
5.495160
 20
1.440560
  0
SEQEND
  8
0
  0
SOLID
  8
0
 62
    15
 10
3.869800
 20
0.982520
 11
3.867160
 21
1.732280
 12
3.869800
 22
1.857240
 13
3.867160
 23
2.607440
  0
POLYLINE
  8
0
  6
CONTINUOUS
 66
     1
 40
0.000000
 41
0.000000
  0
VERTEX
  8
0
  6
CONTINUOUS
 10
3.869800
 20
0.982520
  0
VERTEX
  8
0
  6
CONTINUOUS
 10
3.867160
 20
1.732280
  0
VERTEX
  8
0
  6
CONTINUOUS
 10
3.867160
 20
2.607440
  0
VERTEX
  8
0
  6
CONTINUOUS
 10
3.869800
 20
1.857240
  0
VERTEX
  8
0
  6
CONTINUOUS
 10
3.869800
 20
0.982520
  0
SEQEND
  8
0
  0
SOLID
  8
0
 62
    15
 10
4.230160
 20
1.720840
 11
4.227080
 21
2.471040
 12
4.259200
 22
1.720840
 13
4.256120
 23
2.471040
  0
POLYLINE
  8
0
  6
CONTINUOUS
 66
     1
 40
0.000000
 41
0.000000
  0
VERTEX
  8
0
  6
CONTINUOUS
 10
4.230160
 20
1.720840
  0
VERTEX
  8
0
  6
CONTINUOUS
 10
4.227080
 20
2.471040
  0
VERTEX
  8
0
  6
CONTINUOUS
 10
4.256120
 20
2.471040
  0
VERTEX
  8
0
  6
CONTINUOUS
 10
4.259200
 20
1.720840
  0
VERTEX
  8
0
  6
CONTINUOUS
 10
4.230160
 20
1.720840
  0
SEQEND
  8
0
  0
SOLID
  8
0
 62
    15
 10
4.228400
 20
1.857680
 11
4.225320
 21
2.607440
 12
4.230160
 22
1.855480
 13
4.227080
 23
2.605680
  0
POLYLINE
  8
0
  6
CONTINUOUS
 66
     1
 40
0.000000
 41
0.000000
  0
VERTEX
  8
0
  6
CONTINUOUS
 10
4.228400
 20
1.857680
  0
VERTEX
  8
0
  6
CONTINUOUS
 10
4.225320
 20
2.607440
  0
VERTEX
  8
0
  6
CONTINUOUS
 10
4.227080
 20
2.605680
  0
VERTEX
  8
0
  6
CONTINUOUS
 10
4.230160
 20
1.855480
  0
VERTEX
  8
0
  6
CONTINUOUS
 10
4.228400
 20
1.857680
  0
SEQEND
  8
0
  0
SOLID
  8
0
 62
    15
 10
4.259200
 20
1.720840
 11
4.256120
 21
2.471040
 12
4.262720
 22
1.722600
 13
4.259640
 23
2.472800
  0
POLYLINE
  8
0
  6
CONTINUOUS
 66
     1
 40
0.000000
 41
0.000000
  0
VERTEX
  8
0
  6
CONTINUOUS
 10
4.259200
 20
1.720840
  0
VERTEX
  8
0
  6
CONTINUOUS
 10
4.256120
 20
2.471040
  0
VERTEX
  8
0
  6
CONTINUOUS
 10
4.259640
 20
2.472800
  0
VERTEX
  8
0
  6
CONTINUOUS
 10
4.262720
 20
1.722600
  0
VERTEX
  8
0
  6
CONTINUOUS
 10
4.259200
 20
1.720840
  0
SEQEND
  8
0
  0
SOLID
  8
0
 62
    15
 10
4.262720
 20
1.722600
 11
4.259640
 21
2.472800
 12
4.276800
 22
1.747680
 13
4.273720
 23
2.497440
  0
POLYLINE
  8
0
  6
CONTINUOUS
 66
     1
 40
0.000000
 41
0.000000
  0
VERTEX
  8
0
  6
CONTINUOUS
 10
4.262720
 20
1.722600
  0
VERTEX
  8
0
  6
CONTINUOUS
 10
4.259640
 20
2.472800
  0
VERTEX
  8
0
  6
CONTINUOUS
 10
4.273720
 20
2.497440
  0
VERTEX
  8
0
  6
CONTINUOUS
 10
4.276800
 20
1.747680
  0
VERTEX
  8
0
  6
CONTINUOUS
 10
4.262720
 20
1.722600
  0
SEQEND
  8
0
  0
SOLID
  8
0
 62
    15
 10
4.276800
 20
1.747680
 11
4.273720
 21
2.497440
 12
4.296160
 22
1.770560
 13
4.293080
 23
2.520760
  0
POLYLINE
  8
0
  6
CONTINUOUS
 66
     1
 40
0.000000
 41
0.000000
  0
VERTEX
  8
0
  6
CONTINUOUS
 10
4.276800
 20
1.747680
  0
VERTEX
  8
0
  6
CONTINUOUS
 10
4.273720
 20
2.497440
  0
VERTEX
  8
0
  6
CONTINUOUS
 10
4.293080
 20
2.520760
  0
VERTEX
  8
0
  6
CONTINUOUS
 10
4.296160
 20
1.770560
  0
VERTEX
  8
0
  6
CONTINUOUS
 10
4.276800
 20
1.747680
  0
SEQEND
  8
0
  0
SOLID
  8
0
 62
    15
 10
4.296160
 20
1.770560
 11
4.293080
 21
2.520760
 12
4.319920
 22
1.792120
 13
4.317280
 23
2.541880
  0
POLYLINE
  8
0
  6
CONTINUOUS
 66
     1
 40
0.000000
 41
0.000000
  0
VERTEX
  8
0
  6
CONTINUOUS
 10
4.296160
 20
1.770560
  0
VERTEX
  8
0
  6
CONTINUOUS
 10
4.293080
 20
2.520760
  0
VERTEX
  8
0
  6
CONTINUOUS
 10
4.317280
 20
2.541880
  0
VERTEX
  8
0
  6
CONTINUOUS
 10
4.319920
 20
1.792120
  0
VERTEX
  8
0
  6
CONTINUOUS
 10
4.296160
 20
1.770560
  0
SEQEND
  8
0
  0
SOLID
  8
0
 62
    15
 10
4.319920
 20
1.792120
 11
4.317280
 21
2.541880
 12
4.348520
 22
1.810160
 13
4.345440
 23
2.560360
  0
POLYLINE
  8
0
  6
CONTINUOUS
 66
     1
 40
0.000000
 41
0.000000
  0
VERTEX
  8
0
  6
CONTINUOUS
 10
4.319920
 20
1.792120
  0
VERTEX
  8
0
  6
CONTINUOUS
 10
4.317280
 20
2.541880
  0
VERTEX
  8
0
  6
CONTINUOUS
 10
4.345440
 20
2.560360
  0
VERTEX
  8
0
  6
CONTINUOUS
 10
4.348520
 20
1.810160
  0
VERTEX
  8
0
  6
CONTINUOUS
 10
4.319920
 20
1.792120
  0
SEQEND
  8
0
  0
SOLID
  8
0
 62
    15
 10
4.348520
 20
1.810160
 11
4.345440
 21
2.560360
 12
4.381080
 22
1.825560
 13
4.378000
 23
2.575760
  0
POLYLINE
  8
0
  6
CONTINUOUS
 66
     1
 40
0.000000
 41
0.000000
  0
VERTEX
  8
0
  6
CONTINUOUS
 10
4.348520
 20
1.810160
  0
VERTEX
  8
0
  6
CONTINUOUS
 10
4.345440
 20
2.560360
  0
VERTEX
  8
0
  6
CONTINUOUS
 10
4.378000
 20
2.575760
  0
VERTEX
  8
0
  6
CONTINUOUS
 10
4.381080
 20
1.825560
  0
VERTEX
  8
0
  6
CONTINUOUS
 10
4.348520
 20
1.810160
  0
SEQEND
  8
0
  0
SOLID
  8
0
 62
    15
 10
4.381080
 20
1.825560
 11
4.378000
 21
2.575760
 12
4.417160
 22
1.837440
 13
4.414080
 23
2.587200
  0
POLYLINE
  8
0
  6
CONTINUOUS
 66
     1
 40
0.000000
 41
0.000000
  0
VERTEX
  8
0
  6
CONTINUOUS
 10
4.381080
 20
1.825560
  0
VERTEX
  8
0
  6
CONTINUOUS
 10
4.378000
 20
2.575760
  0
VERTEX
  8
0
  6
CONTINUOUS
 10
4.414080
 20
2.587200
  0
VERTEX
  8
0
  6
CONTINUOUS
 10
4.417160
 20
1.837440
  0
VERTEX
  8
0
  6
CONTINUOUS
 10
4.381080
 20
1.825560
  0
SEQEND
  8
0
  0
SOLID
  8
0
 62
    15
 10
4.417160
 20
1.837440
 11
4.414080
 21
2.587200
 12
4.456320
 22
1.844920
 13
4.453240
 23
2.594680
  0
POLYLINE
  8
0
  6
CONTINUOUS
 66
     1
 40
0.000000
 41
0.000000
  0
VERTEX
  8
0
  6
CONTINUOUS
 10
4.417160
 20
1.837440
  0
VERTEX
  8
0
  6
CONTINUOUS
 10
4.414080
 20
2.587200
  0
VERTEX
  8
0
  6
CONTINUOUS
 10
4.453240
 20
2.594680
  0
VERTEX
  8
0
  6
CONTINUOUS
 10
4.456320
 20
1.844920
  0
VERTEX
  8
0
  6
CONTINUOUS
 10
4.417160
 20
1.837440
  0
SEQEND
  8
0
  0
SOLID
  8
0
 62
    15
 10
4.456320
 20
1.844920
 11
4.453240
 21
2.594680
 12
4.498560
 22
1.847120
 13
4.495480
 23
2.597320
  0
POLYLINE
  8
0
  6
CONTINUOUS
 66
     1
 40
0.000000
 41
0.000000
  0
VERTEX
  8
0
  6
CONTINUOUS
 10
4.456320
 20
1.844920
  0
VERTEX
  8
0
  6
CONTINUOUS
 10
4.453240
 20
2.594680
  0
VERTEX
  8
0
  6
CONTINUOUS
 10
4.495480
 20
2.597320
  0
VERTEX
  8
0
  6
CONTINUOUS
 10
4.498560
 20
1.847120
  0
VERTEX
  8
0
  6
CONTINUOUS
 10
4.456320
 20
1.844920
  0
SEQEND
  8
0
  0
SOLID
  8
0
 62
    15
 10
4.498560
 20
1.847120
 11
4.495480
 21
2.597320
 12
4.542560
 22
1.844480
 13
4.539920
 23
2.594240
  0
POLYLINE
  8
0
  6
CONTINUOUS
 66
     1
 40
0.000000
 41
0.000000
  0
VERTEX
  8
0
  6
CONTINUOUS
 10
4.498560
 20
1.847120
  0
VERTEX
  8
0
  6
CONTINUOUS
 10
4.495480
 20
2.597320
  0
VERTEX
  8
0
  6
CONTINUOUS
 10
4.539920
 20
2.594240
  0
VERTEX
  8
0
  6
CONTINUOUS
 10
4.542560
 20
1.844480
  0
VERTEX
  8
0
  6
CONTINUOUS
 10
4.498560
 20
1.847120
  0
SEQEND
  8
0
  0
SOLID
  8
0
 62
    15
 10
4.542560
 20
1.844480
 11
4.539920
 21
2.594240
 12
4.588760
 22
1.835680
 13
4.586120
 23
2.585440
  0
POLYLINE
  8
0
  6
CONTINUOUS
 66
     1
 40
0.000000
 41
0.000000
  0
VERTEX
  8
0
  6
CONTINUOUS
 10
4.542560
 20
1.844480
  0
VERTEX
  8
0
  6
CONTINUOUS
 10
4.539920
 20
2.594240
  0
VERTEX
  8
0
  6
CONTINUOUS
 10
4.586120
 20
2.585440
  0
VERTEX
  8
0
  6
CONTINUOUS
 10
4.588760
 20
1.835680
  0
VERTEX
  8
0
  6
CONTINUOUS
 10
4.542560
 20
1.844480
  0
SEQEND
  8
0
  0
SOLID
  8
0
 62
    15
 10
4.588760
 20
1.835680
 11
4.586120
 21
2.585440
 12
4.636720
 22
1.820280
 13
4.633640
 23
2.570040
  0
POLYLINE
  8
0
  6
CONTINUOUS
 66
     1
 40
0.000000
 41
0.000000
  0
VERTEX
  8
0
  6
CONTINUOUS
 10
4.588760
 20
1.835680
  0
VERTEX
  8
0
  6
CONTINUOUS
 10
4.586120
 20
2.585440
  0
VERTEX
  8
0
  6
CONTINUOUS
 10
4.633640
 20
2.570040
  0
VERTEX
  8
0
  6
CONTINUOUS
 10
4.636720
 20
1.820280
  0
VERTEX
  8
0
  6
CONTINUOUS
 10
4.588760
 20
1.835680
  0
SEQEND
  8
0
  0
SOLID
  8
0
 62
    15
 10
4.636720
 20
1.820280
 11
4.633640
 21
2.570040
 12
4.685120
 22
1.797840
 13
4.682480
 23
2.547600
  0
POLYLINE
  8
0
  6
CONTINUOUS
 66
     1
 40
0.000000
 41
0.000000
  0
VERTEX
  8
0
  6
CONTINUOUS
 10
4.636720
 20
1.820280
  0
VERTEX
  8
0
  6
CONTINUOUS
 10
4.633640
 20
2.570040
  0
VERTEX
  8
0
  6
CONTINUOUS
 10
4.682480
 20
2.547600
  0
VERTEX
  8
0
  6
CONTINUOUS
 10
4.685120
 20
1.797840
  0
VERTEX
  8
0
  6
CONTINUOUS
 10
4.636720
 20
1.820280
  0
SEQEND
  8
0
  0
SOLID
  8
0
 62
    15
 10
4.685120
 20
1.797840
 11
4.682480
 21
2.547600
 12
4.734840
 22
1.767920
 13
4.731760
 23
2.517680
  0
POLYLINE
  8
0
  6
CONTINUOUS
 66
     1
 40
0.000000
 41
0.000000
  0
VERTEX
  8
0
  6
CONTINUOUS
 10
4.685120
 20
1.797840
  0
VERTEX
  8
0
  6
CONTINUOUS
 10
4.682480
 20
2.547600
  0
VERTEX
  8
0
  6
CONTINUOUS
 10
4.731760
 20
2.517680
  0
VERTEX
  8
0
  6
CONTINUOUS
 10
4.734840
 20
1.767920
  0
VERTEX
  8
0
  6
CONTINUOUS
 10
4.685120
 20
1.797840
  0
SEQEND
  8
0
  0
SOLID
  8
0
 62
    15
 10
4.734840
 20
1.767920
 11
4.731760
 21
2.517680
 12
4.784120
 22
1.729640
 13
4.781480
 23
2.479400
  0
POLYLINE
  8
0
  6
CONTINUOUS
 66
     1
 40
0.000000
 41
0.000000
  0
VERTEX
  8
0
  6
CONTINUOUS
 10
4.734840
 20
1.767920
  0
VERTEX
  8
0
  6
CONTINUOUS
 10
4.731760
 20
2.517680
  0
VERTEX
  8
0
  6
CONTINUOUS
 10
4.781480
 20
2.479400
  0
VERTEX
  8
0
  6
CONTINUOUS
 10
4.784120
 20
1.729640
  0
VERTEX
  8
0
  6
CONTINUOUS
 10
4.734840
 20
1.767920
  0
SEQEND
  8
0
  0
SOLID
  8
0
 62
    15
 10
4.784120
 20
1.729640
 11
4.781480
 21
2.479400
 12
4.833840
 22
1.682560
 13
4.830760
 23
2.432760
  0
POLYLINE
  8
0
  6
CONTINUOUS
 66
     1
 40
0.000000
 41
0.000000
  0
VERTEX
  8
0
  6
CONTINUOUS
 10
4.784120
 20
1.729640
  0
VERTEX
  8
0
  6
CONTINUOUS
 10
4.781480
 20
2.479400
  0
VERTEX
  8
0
  6
CONTINUOUS
 10
4.830760
 20
2.432760
  0
VERTEX
  8
0
  6
CONTINUOUS
 10
4.833840
 20
1.682560
  0
VERTEX
  8
0
  6
CONTINUOUS
 10
4.784120
 20
1.729640
  0
SEQEND
  8
0
  0
SOLID
  8
0
 62
    15
 10
4.833840
 20
1.682560
 11
4.830760
 21
2.432760
 12
4.882680
 22
1.626240
 13
4.879600
 23
2.376440
  0
POLYLINE
  8
0
  6
CONTINUOUS
 66
     1
 40
0.000000
 41
0.000000
  0
VERTEX
  8
0
  6
CONTINUOUS
 10
4.833840
 20
1.682560
  0
VERTEX
  8
0
  6
CONTINUOUS
 10
4.830760
 20
2.432760
  0
VERTEX
  8
0
  6
CONTINUOUS
 10
4.879600
 20
2.376440
  0
VERTEX
  8
0
  6
CONTINUOUS
 10
4.882680
 20
1.626240
  0
VERTEX
  8
0
  6
CONTINUOUS
 10
4.833840
 20
1.682560
  0
SEQEND
  8
0
  0
SOLID
  8
0
 62
    15
 10
4.882680
 20
1.626240
 11
4.879600
 21
2.376440
 12
4.884440
 22
1.622720
 13
4.881800
 23
2.372480
  0
POLYLINE
  8
0
  6
CONTINUOUS
 66
     1
 40
0.000000
 41
0.000000
  0
VERTEX
  8
0
  6
CONTINUOUS
 10
4.882680
 20
1.626240
  0
VERTEX
  8
0
  6
CONTINUOUS
 10
4.879600
 20
2.376440
  0
VERTEX
  8
0
  6
CONTINUOUS
 10
4.881800
 20
2.372480
  0
VERTEX
  8
0
  6
CONTINUOUS
 10
4.884440
 20
1.622720
  0
VERTEX
  8
0
  6
CONTINUOUS
 10
4.882680
 20
1.626240
  0
SEQEND
  8
0
  0
SOLID
  8
0
 62
    15
 10
4.884440
 20
1.622720
 11
4.881800
 21
2.372480
 12
5.160760
 22
1.622720
 13
5.158120
 23
2.372480
  0
POLYLINE
  8
0
  6
CONTINUOUS
 66
     1
 40
0.000000
 41
0.000000
  0
VERTEX
  8
0
  6
CONTINUOUS
 10
4.884440
 20
1.622720
  0
VERTEX
  8
0
  6
CONTINUOUS
 10
4.881800
 20
2.372480
  0
VERTEX
  8
0
  6
CONTINUOUS
 10
5.158120
 20
2.372480
  0
VERTEX
  8
0
  6
CONTINUOUS
 10
5.160760
 20
1.622720
  0
VERTEX
  8
0
  6
CONTINUOUS
 10
4.884440
 20
1.622720
  0
SEQEND
  8
0
  0
SOLID
  8
0
 62
    15
 10
5.160760
 20
1.622720
 11
5.158120
 21
2.372480
 12
5.176160
 22
1.599840
 13
5.173080
 23
2.349600
  0
POLYLINE
  8
0
  6
CONTINUOUS
 66
     1
 40
0.000000
 41
0.000000
  0
VERTEX
  8
0
  6
CONTINUOUS
 10
5.160760
 20
1.622720
  0
VERTEX
  8
0
  6
CONTINUOUS
 10
5.158120
 20
2.372480
  0
VERTEX
  8
0
  6
CONTINUOUS
 10
5.173080
 20
2.349600
  0
VERTEX
  8
0
  6
CONTINUOUS
 10
5.176160
 20
1.599840
  0
VERTEX
  8
0
  6
CONTINUOUS
 10
5.160760
 20
1.622720
  0
SEQEND
  8
0
  0
SOLID
  8
0
 62
    15
 10
5.176160
 20
1.599840
 11
5.173080
 21
2.349600
 12
5.196400
 22
1.577400
 13
5.193320
 23
2.327160
  0
POLYLINE
  8
0
  6
CONTINUOUS
 66
     1
 40
0.000000
 41
0.000000
  0
VERTEX
  8
0
  6
CONTINUOUS
 10
5.176160
 20
1.599840
  0
VERTEX
  8
0
  6
CONTINUOUS
 10
5.173080
 20
2.349600
  0
VERTEX
  8
0
  6
CONTINUOUS
 10
5.193320
 20
2.327160
  0
VERTEX
  8
0
  6
CONTINUOUS
 10
5.196400
 20
1.577400
  0
VERTEX
  8
0
  6
CONTINUOUS
 10
5.176160
 20
1.599840
  0
SEQEND
  8
0
  0
SOLID
  8
0
 62
    15
 10
5.196400
 20
1.577400
 11
5.193320
 21
2.327160
 12
5.221040
 22
1.555840
 13
5.217960
 23
2.306040
  0
POLYLINE
  8
0
  6
CONTINUOUS
 66
     1
 40
0.000000
 41
0.000000
  0
VERTEX
  8
0
  6
CONTINUOUS
 10
5.196400
 20
1.577400
  0
VERTEX
  8
0
  6
CONTINUOUS
 10
5.193320
 20
2.327160
  0
VERTEX
  8
0
  6
CONTINUOUS
 10
5.217960
 20
2.306040
  0
VERTEX
  8
0
  6
CONTINUOUS
 10
5.221040
 20
1.555840
  0
VERTEX
  8
0
  6
CONTINUOUS
 10
5.196400
 20
1.577400
  0
SEQEND
  8
0
  0
SOLID
  8
0
 62
    15
 10
5.221040
 20
1.555840
 11
5.217960
 21
2.306040
 12
5.249640
 22
1.535600
 13
5.247000
 23
2.285800
  0
POLYLINE
  8
0
  6
CONTINUOUS
 66
     1
 40
0.000000
 41
0.000000
  0
VERTEX
  8
0
  6
CONTINUOUS
 10
5.221040
 20
1.555840
  0
VERTEX
  8
0
  6
CONTINUOUS
 10
5.217960
 20
2.306040
  0
VERTEX
  8
0
  6
CONTINUOUS
 10
5.247000
 20
2.285800
  0
VERTEX
  8
0
  6
CONTINUOUS
 10
5.249640
 20
1.535600
  0
VERTEX
  8
0
  6
CONTINUOUS
 10
5.221040
 20
1.555840
  0
SEQEND
  8
0
  0
SOLID
  8
0
 62
    15
 10
5.249640
 20
1.535600
 11
5.247000
 21
2.285800
 12
5.319160
 22
1.498640
 13
5.316520
 23
2.248400
  0
POLYLINE
  8
0
  6
CONTINUOUS
 66
     1
 40
0.000000
 41
0.000000
  0
VERTEX
  8
0
  6
CONTINUOUS
 10
5.249640
 20
1.535600
  0
VERTEX
  8
0
  6
CONTINUOUS
 10
5.247000
 20
2.285800
  0
VERTEX
  8
0
  6
CONTINUOUS
 10
5.316520
 20
2.248400
  0
VERTEX
  8
0
  6
CONTINUOUS
 10
5.319160
 20
1.498640
  0
VERTEX
  8
0
  6
CONTINUOUS
 10
5.249640
 20
1.535600
  0
SEQEND
  8
0
  0
SOLID
  8
0
 62
    15
 10
5.319160
 20
1.498640
 11
5.316520
 21
2.248400
 12
5.401880
 22
1.466520
 13
5.398800
 23
2.216280
  0
POLYLINE
  8
0
  6
CONTINUOUS
 66
     1
 40
0.000000
 41
0.000000
  0
VERTEX
  8
0
  6
CONTINUOUS
 10
5.319160
 20
1.498640
  0
VERTEX
  8
0
  6
CONTINUOUS
 10
5.316520
 20
2.248400
  0
VERTEX
  8
0
  6
CONTINUOUS
 10
5.398800
 20
2.216280
  0
VERTEX
  8
0
  6
CONTINUOUS
 10
5.401880
 20
1.466520
  0
VERTEX
  8
0
  6
CONTINUOUS
 10
5.319160
 20
1.498640
  0
SEQEND
  8
0
  0
SOLID
  8
0
 62
    15
 10
5.401880
 20
1.466520
 11
5.398800
 21
2.216280
 12
5.495160
 22
1.440560
 13
5.492080
 23
2.190320
  0
POLYLINE
  8
0
  6
CONTINUOUS
 66
     1
 40
0.000000
 41
0.000000
  0
VERTEX
  8
0
  6
CONTINUOUS
 10
5.401880
 20
1.466520
  0
VERTEX
  8
0
  6
CONTINUOUS
 10
5.398800
 20
2.216280
  0
VERTEX
  8
0
  6
CONTINUOUS
 10
5.492080
 20
2.190320
  0
VERTEX
  8
0
  6
CONTINUOUS
 10
5.495160
 20
1.440560
  0
VERTEX
  8
0
  6
CONTINUOUS
 10
5.401880
 20
1.466520
  0
SEQEND
  8
0
  0
SOLID
  8
0
 62
    15
 10
3.869800
 20
1.857240
 11
3.867160
 21
2.607440
 12
4.228400
 22
1.857680
 13
4.225320
 23
2.607440
  0
POLYLINE
  8
0
  6
CONTINUOUS
 66
     1
 40
0.000000
 41
0.000000
  0
VERTEX
  8
0
  6
CONTINUOUS
 10
3.869800
 20
1.857240
  0
VERTEX
  8
0
  6
CONTINUOUS
 10
3.867160
 20
2.607440
  0
VERTEX
  8
0
  6
CONTINUOUS
 10
4.225320
 20
2.607440
  0
VERTEX
  8
0
  6
CONTINUOUS
 10
4.228400
 20
1.857680
  0
VERTEX
  8
0
  6
CONTINUOUS
 10
3.869800
 20
1.857240
  0
SEQEND
  8
0
  0
SOLID
  8
0
 62
    15
 10
5.596360
 20
1.420760
 11
5.593280
 21
2.170960
 12
5.702840
 22
1.408880
 13
5.699760
 23
2.158640
  0
POLYLINE
  8
0
  6
CONTINUOUS
 66
     1
 40
0.000000
 41
0.000000
  0
VERTEX
  8
0
  6
CONTINUOUS
 10
5.596360
 20
1.420760
  0
VERTEX
  8
0
  6
CONTINUOUS
 10
5.593280
 20
2.170960
  0
VERTEX
  8
0
  6
CONTINUOUS
 10
5.699760
 20
2.158640
  0
VERTEX
  8
0
  6
CONTINUOUS
 10
5.702840
 20
1.408880
  0
VERTEX
  8
0
  6
CONTINUOUS
 10
5.596360
 20
1.420760
  0
SEQEND
  8
0
  0
SOLID
  8
0
 62
    15
 10
5.702840
 20
1.408880
 11
5.699760
 21
2.158640
 12
5.811960
 22
1.404480
 13
5.808880
 23
2.154240
  0
POLYLINE
  8
0
  6
CONTINUOUS
 66
     1
 40
0.000000
 41
0.000000
  0
VERTEX
  8
0
  6
CONTINUOUS
 10
5.702840
 20
1.408880
  0
VERTEX
  8
0
  6
CONTINUOUS
 10
5.699760
 20
2.158640
  0
VERTEX
  8
0
  6
CONTINUOUS
 10
5.808880
 20
2.154240
  0
VERTEX
  8
0
  6
CONTINUOUS
 10
5.811960
 20
1.404480
  0
VERTEX
  8
0
  6
CONTINUOUS
 10
5.702840
 20
1.408880
  0
SEQEND
  8
0
  0
SOLID
  8
0
 62
    15
 10
5.811960
 20
1.404480
 11
5.808880
 21
2.154240
 12
6.642680
 22
1.404480
 13
6.640040
 23
2.154240
  0
POLYLINE
  8
0
  6
CONTINUOUS
 66
     1
 40
0.000000
 41
0.000000
  0
VERTEX
  8
0
  6
CONTINUOUS
 10
5.811960
 20
1.404480
  0
VERTEX
  8
0
  6
CONTINUOUS
 10
5.808880
 20
2.154240
  0
VERTEX
  8
0
  6
CONTINUOUS
 10
6.640040
 20
2.154240
  0
VERTEX
  8
0
  6
CONTINUOUS
 10
6.642680
 20
1.404480
  0
VERTEX
  8
0
  6
CONTINUOUS
 10
5.811960
 20
1.404480
  0
SEQEND
  8
0
  0
SOLID
  8
0
 62
    15
 10
6.642680
 20
1.404480
 11
6.640040
 21
2.154240
 12
6.642680
 22
1.462560
 13
6.640040
 23
2.212760
  0
POLYLINE
  8
0
  6
CONTINUOUS
 66
     1
 40
0.000000
 41
0.000000
  0
VERTEX
  8
0
  6
CONTINUOUS
 10
6.642680
 20
1.404480
  0
VERTEX
  8
0
  6
CONTINUOUS
 10
6.640040
 20
2.154240
  0
VERTEX
  8
0
  6
CONTINUOUS
 10
6.640040
 20
2.212760
  0
VERTEX
  8
0
  6
CONTINUOUS
 10
6.642680
 20
1.462560
  0
VERTEX
  8
0
  6
CONTINUOUS
 10
6.642680
 20
1.404480
  0
SEQEND
  8
0
  0
SOLID
  8
0
 62
    15
 10
6.642680
 20
1.462560
 11
6.640040
 21
2.212760
 12
6.645320
 22
1.486320
 13
6.642680
 23
2.236080
  0
POLYLINE
  8
0
  6
CONTINUOUS
 66
     1
 40
0.000000
 41
0.000000
  0
VERTEX
  8
0
  6
CONTINUOUS
 10
6.642680
 20
1.462560
  0
VERTEX
  8
0
  6
CONTINUOUS
 10
6.640040
 20
2.212760
  0
VERTEX
  8
0
  6
CONTINUOUS
 10
6.642680
 20
2.236080
  0
VERTEX
  8
0
  6
CONTINUOUS
 10
6.645320
 20
1.486320
  0
VERTEX
  8
0
  6
CONTINUOUS
 10
6.642680
 20
1.462560
  0
SEQEND
  8
0
  0
SOLID
  8
0
 62
    15
 10
6.645320
 20
1.486320
 11
6.642680
 21
2.236080
 12
6.652800
 22
1.508320
 13
6.649720
 23
2.258080
  0
POLYLINE
  8
0
  6
CONTINUOUS
 66
     1
 40
0.000000
 41
0.000000
  0
VERTEX
  8
0
  6
CONTINUOUS
 10
6.645320
 20
1.486320
  0
VERTEX
  8
0
  6
CONTINUOUS
 10
6.642680
 20
2.236080
  0
VERTEX
  8
0
  6
CONTINUOUS
 10
6.649720
 20
2.258080
  0
VERTEX
  8
0
  6
CONTINUOUS
 10
6.652800
 20
1.508320
  0
VERTEX
  8
0
  6
CONTINUOUS
 10
6.645320
 20
1.486320
  0
SEQEND
  8
0
  0
SOLID
  8
0
 62
    15
 10
6.652800
 20
1.508320
 11
6.649720
 21
2.258080
 12
6.664240
 22
1.528560
 13
6.661160
 23
2.278760
  0
POLYLINE
  8
0
  6
CONTINUOUS
 66
     1
 40
0.000000
 41
0.000000
  0
VERTEX
  8
0
  6
CONTINUOUS
 10
6.652800
 20
1.508320
  0
VERTEX
  8
0
  6
CONTINUOUS
 10
6.649720
 20
2.258080
  0
VERTEX
  8
0
  6
CONTINUOUS
 10
6.661160
 20
2.278760
  0
VERTEX
  8
0
  6
CONTINUOUS
 10
6.664240
 20
1.528560
  0
VERTEX
  8
0
  6
CONTINUOUS
 10
6.652800
 20
1.508320
  0
SEQEND
  8
0
  0
SOLID
  8
0
 62
    15
 10
6.664240
 20
1.528560
 11
6.661160
 21
2.278760
 12
6.679200
 22
1.546600
 13
6.676120
 23
2.296360
  0
POLYLINE
  8
0
  6
CONTINUOUS
 66
     1
 40
0.000000
 41
0.000000
  0
VERTEX
  8
0
  6
CONTINUOUS
 10
6.664240
 20
1.528560
  0
VERTEX
  8
0
  6
CONTINUOUS
 10
6.661160
 20
2.278760
  0
VERTEX
  8
0
  6
CONTINUOUS
 10
6.676120
 20
2.296360
  0
VERTEX
  8
0
  6
CONTINUOUS
 10
6.679200
 20
1.546600
  0
VERTEX
  8
0
  6
CONTINUOUS
 10
6.664240
 20
1.528560
  0
SEQEND
  8
0
  0
SOLID
  8
0
 62
    15
 10
6.679200
 20
1.546600
 11
6.676120
 21
2.296360
 12
6.696800
 22
1.561560
 13
6.694160
 23
2.311320
  0
POLYLINE
  8
0
  6
CONTINUOUS
 66
     1
 40
0.000000
 41
0.000000
  0
VERTEX
  8
0
  6
CONTINUOUS
 10
6.679200
 20
1.546600
  0
VERTEX
  8
0
  6
CONTINUOUS
 10
6.676120
 20
2.296360
  0
VERTEX
  8
0
  6
CONTINUOUS
 10
6.694160
 20
2.311320
  0
VERTEX
  8
0
  6
CONTINUOUS
 10
6.696800
 20
1.561560
  0
VERTEX
  8
0
  6
CONTINUOUS
 10
6.679200
 20
1.546600
  0
SEQEND
  8
0
  0
SOLID
  8
0
 62
    15
 10
6.696800
 20
1.561560
 11
6.694160
 21
2.311320
 12
6.717480
 22
1.573000
 13
6.714400
 23
2.322760
  0
POLYLINE
  8
0
  6
CONTINUOUS
 66
     1
 40
0.000000
 41
0.000000
  0
VERTEX
  8
0
  6
CONTINUOUS
 10
6.696800
 20
1.561560
  0
VERTEX
  8
0
  6
CONTINUOUS
 10
6.694160
 20
2.311320
  0
VERTEX
  8
0
  6
CONTINUOUS
 10
6.714400
 20
2.322760
  0
VERTEX
  8
0
  6
CONTINUOUS
 10
6.717480
 20
1.573000
  0
VERTEX
  8
0
  6
CONTINUOUS
 10
6.696800
 20
1.561560
  0
SEQEND
  8
0
  0
SOLID
  8
0
 62
    15
 10
6.717480
 20
1.573000
 11
6.714400
 21
2.322760
 12
6.739480
 22
1.580040
 13
6.736400
 23
2.330240
  0
POLYLINE
  8
0
  6
CONTINUOUS
 66
     1
 40
0.000000
 41
0.000000
  0
VERTEX
  8
0
  6
CONTINUOUS
 10
6.717480
 20
1.573000
  0
VERTEX
  8
0
  6
CONTINUOUS
 10
6.714400
 20
2.322760
  0
VERTEX
  8
0
  6
CONTINUOUS
 10
6.736400
 20
2.330240
  0
VERTEX
  8
0
  6
CONTINUOUS
 10
6.739480
 20
1.580040
  0
VERTEX
  8
0
  6
CONTINUOUS
 10
6.717480
 20
1.573000
  0
SEQEND
  8
0
  0
SOLID
  8
0
 62
    15
 10
6.739480
 20
1.580040
 11
6.736400
 21
2.330240
 12
6.762800
 22
1.582680
 13
6.760160
 23
2.332880
  0
POLYLINE
  8
0
  6
CONTINUOUS
 66
     1
 40
0.000000
 41
0.000000
  0
VERTEX
  8
0
  6
CONTINUOUS
 10
6.739480
 20
1.580040
  0
VERTEX
  8
0
  6
CONTINUOUS
 10
6.736400
 20
2.330240
  0
VERTEX
  8
0
  6
CONTINUOUS
 10
6.760160
 20
2.332880
  0
VERTEX
  8
0
  6
CONTINUOUS
 10
6.762800
 20
1.582680
  0
VERTEX
  8
0
  6
CONTINUOUS
 10
6.739480
 20
1.580040
  0
SEQEND
  8
0
  0
SOLID
  8
0
 62
    15
 10
6.762800
 20
1.582680
 11
6.760160
 21
2.332880
 12
6.786120
 22
1.580040
 13
6.783480
 23
2.330240
  0
POLYLINE
  8
0
  6
CONTINUOUS
 66
     1
 40
0.000000
 41
0.000000
  0
VERTEX
  8
0
  6
CONTINUOUS
 10
6.762800
 20
1.582680
  0
VERTEX
  8
0
  6
CONTINUOUS
 10
6.760160
 20
2.332880
  0
VERTEX
  8
0
  6
CONTINUOUS
 10
6.783480
 20
2.330240
  0
VERTEX
  8
0
  6
CONTINUOUS
 10
6.786120
 20
1.580040
  0
VERTEX
  8
0
  6
CONTINUOUS
 10
6.762800
 20
1.582680
  0
SEQEND
  8
0
  0
SOLID
  8
0
 62
    15
 10
6.786120
 20
1.580040
 11
6.783480
 21
2.330240
 12
6.808560
 22
1.573000
 13
6.805480
 23
2.322760
  0
POLYLINE
  8
0
  6
CONTINUOUS
 66
     1
 40
0.000000
 41
0.000000
  0
VERTEX
  8
0
  6
CONTINUOUS
 10
6.786120
 20
1.580040
  0
VERTEX
  8
0
  6
CONTINUOUS
 10
6.783480
 20
2.330240
  0
VERTEX
  8
0
  6
CONTINUOUS
 10
6.805480
 20
2.322760
  0
VERTEX
  8
0
  6
CONTINUOUS
 10
6.808560
 20
1.573000
  0
VERTEX
  8
0
  6
CONTINUOUS
 10
6.786120
 20
1.580040
  0
SEQEND
  8
0
  0
SOLID
  8
0
 62
    15
 10
6.808560
 20
1.573000
 11
6.805480
 21
2.322760
 12
6.828800
 22
1.561560
 13
6.825720
 23
2.311320
  0
POLYLINE
  8
0
  6
CONTINUOUS
 66
     1
 40
0.000000
 41
0.000000
  0
VERTEX
  8
0
  6
CONTINUOUS
 10
6.808560
 20
1.573000
  0
VERTEX
  8
0
  6
CONTINUOUS
 10
6.805480
 20
2.322760
  0
VERTEX
  8
0
  6
CONTINUOUS
 10
6.825720
 20
2.311320
  0
VERTEX
  8
0
  6
CONTINUOUS
 10
6.828800
 20
1.561560
  0
VERTEX
  8
0
  6
CONTINUOUS
 10
6.808560
 20
1.573000
  0
SEQEND
  8
0
  0
SOLID
  8
0
 62
    15
 10
6.828800
 20
1.561560
 11
6.825720
 21
2.311320
 12
6.846840
 22
1.546600
 13
6.843760
 23
2.296360
  0
POLYLINE
  8
0
  6
CONTINUOUS
 66
     1
 40
0.000000
 41
0.000000
  0
VERTEX
  8
0
  6
CONTINUOUS
 10
6.828800
 20
1.561560
  0
VERTEX
  8
0
  6
CONTINUOUS
 10
6.825720
 20
2.311320
  0
VERTEX
  8
0
  6
CONTINUOUS
 10
6.843760
 20
2.296360
  0
VERTEX
  8
0
  6
CONTINUOUS
 10
6.846840
 20
1.546600
  0
VERTEX
  8
0
  6
CONTINUOUS
 10
6.828800
 20
1.561560
  0
SEQEND
  8
0
  0
SOLID
  8
0
 62
    15
 10
6.846840
 20
1.546600
 11
6.843760
 21
2.296360
 12
6.861800
 22
1.528560
 13
6.858720
 23
2.278760
  0
POLYLINE
  8
0
  6
CONTINUOUS
 66
     1
 40
0.000000
 41
0.000000
  0
VERTEX
  8
0
  6
CONTINUOUS
 10
6.846840
 20
1.546600
  0
VERTEX
  8
0
  6
CONTINUOUS
 10
6.843760
 20
2.296360
  0
VERTEX
  8
0
  6
CONTINUOUS
 10
6.858720
 20
2.278760
  0
VERTEX
  8
0
  6
CONTINUOUS
 10
6.861800
 20
1.528560
  0
VERTEX
  8
0
  6
CONTINUOUS
 10
6.846840
 20
1.546600
  0
SEQEND
  8
0
  0
SOLID
  8
0
 62
    15
 10
6.861800
 20
1.528560
 11
6.858720
 21
2.278760
 12
6.873240
 22
1.508320
 13
6.870160
 23
2.258080
  0
POLYLINE
  8
0
  6
CONTINUOUS
 66
     1
 40
0.000000
 41
0.000000
  0
VERTEX
  8
0
  6
CONTINUOUS
 10
6.861800
 20
1.528560
  0
VERTEX
  8
0
  6
CONTINUOUS
 10
6.858720
 20
2.278760
  0
VERTEX
  8
0
  6
CONTINUOUS
 10
6.870160
 20
2.258080
  0
VERTEX
  8
0
  6
CONTINUOUS
 10
6.873240
 20
1.508320
  0
VERTEX
  8
0
  6
CONTINUOUS
 10
6.861800
 20
1.528560
  0
SEQEND
  8
0
  0
SOLID
  8
0
 62
    15
 10
6.882920
 20
1.404480
 11
6.879840
 21
2.154240
 12
7.030320
 22
1.404480
 13
7.027240
 23
2.154240
  0
POLYLINE
  8
0
  6
CONTINUOUS
 66
     1
 40
0.000000
 41
0.000000
  0
VERTEX
  8
0
  6
CONTINUOUS
 10
6.882920
 20
1.404480
  0
VERTEX
  8
0
  6
CONTINUOUS
 10
6.879840
 20
2.154240
  0
VERTEX
  8
0
  6
CONTINUOUS
 10
7.027240
 20
2.154240
  0
VERTEX
  8
0
  6
CONTINUOUS
 10
7.030320
 20
1.404480
  0
VERTEX
  8
0
  6
CONTINUOUS
 10
6.882920
 20
1.404480
  0
SEQEND
  8
0
  0
SOLID
  8
0
 62
    15
 10
6.880280
 20
1.486320
 11
6.877200
 21
2.236080
 12
6.882920
 22
1.462560
 13
6.879840
 23
2.212760
  0
POLYLINE
  8
0
  6
CONTINUOUS
 66
     1
 40
0.000000
 41
0.000000
  0
VERTEX
  8
0
  6
CONTINUOUS
 10
6.880280
 20
1.486320
  0
VERTEX
  8
0
  6
CONTINUOUS
 10
6.877200
 20
2.236080
  0
VERTEX
  8
0
  6
CONTINUOUS
 10
6.879840
 20
2.212760
  0
VERTEX
  8
0
  6
CONTINUOUS
 10
6.882920
 20
1.462560
  0
VERTEX
  8
0
  6
CONTINUOUS
 10
6.880280
 20
1.486320
  0
SEQEND
  8
0
  0
SOLID
  8
0
 62
    15
 10
6.873240
 20
1.508320
 11
6.870160
 21
2.258080
 12
6.880280
 22
1.486320
 13
6.877200
 23
2.236080
  0
POLYLINE
  8
0
  6
CONTINUOUS
 66
     1
 40
0.000000
 41
0.000000
  0
VERTEX
  8
0
  6
CONTINUOUS
 10
6.873240
 20
1.508320
  0
VERTEX
  8
0
  6
CONTINUOUS
 10
6.870160
 20
2.258080
  0
VERTEX
  8
0
  6
CONTINUOUS
 10
6.877200
 20
2.236080
  0
VERTEX
  8
0
  6
CONTINUOUS
 10
6.880280
 20
1.486320
  0
VERTEX
  8
0
  6
CONTINUOUS
 10
6.873240
 20
1.508320
  0
SEQEND
  8
0
  0
SOLID
  8
0
 62
    15
 10
7.030320
 20
1.404480
 11
7.027240
 21
2.154240
 12
7.043080
 22
1.366640
 13
7.040440
 23
2.116400
  0
POLYLINE
  8
0
  6
CONTINUOUS
 66
     1
 40
0.000000
 41
0.000000
  0
VERTEX
  8
0
  6
CONTINUOUS
 10
7.030320
 20
1.404480
  0
VERTEX
  8
0
  6
CONTINUOUS
 10
7.027240
 20
2.154240
  0
VERTEX
  8
0
  6
CONTINUOUS
 10
7.040440
 20
2.116400
  0
VERTEX
  8
0
  6
CONTINUOUS
 10
7.043080
 20
1.366640
  0
VERTEX
  8
0
  6
CONTINUOUS
 10
7.030320
 20
1.404480
  0
SEQEND
  8
0
  0
SOLID
  8
0
 62
    15
 10
7.043080
 20
1.366640
 11
7.040440
 21
2.116400
 12
7.066400
 22
1.331880
 13
7.063320
 23
2.081640
  0
POLYLINE
  8
0
  6
CONTINUOUS
 66
     1
 40
0.000000
 41
0.000000
  0
VERTEX
  8
0
  6
CONTINUOUS
 10
7.043080
 20
1.366640
  0
VERTEX
  8
0
  6
CONTINUOUS
 10
7.040440
 20
2.116400
  0
VERTEX
  8
0
  6
CONTINUOUS
 10
7.063320
 20
2.081640
  0
VERTEX
  8
0
  6
CONTINUOUS
 10
7.066400
 20
1.331880
  0
VERTEX
  8
0
  6
CONTINUOUS
 10
7.043080
 20
1.366640
  0
SEQEND
  8
0
  0
SOLID
  8
0
 62
    15
 10
7.066400
 20
1.331880
 11
7.063320
 21
2.081640
 12
7.098960
 22
1.301080
 13
7.095880
 23
2.051280
  0
POLYLINE
  8
0
  6
CONTINUOUS
 66
     1
 40
0.000000
 41
0.000000
  0
VERTEX
  8
0
  6
CONTINUOUS
 10
7.066400
 20
1.331880
  0
VERTEX
  8
0
  6
CONTINUOUS
 10
7.063320
 20
2.081640
  0
VERTEX
  8
0
  6
CONTINUOUS
 10
7.095880
 20
2.051280
  0
VERTEX
  8
0
  6
CONTINUOUS
 10
7.098960
 20
1.301080
  0
VERTEX
  8
0
  6
CONTINUOUS
 10
7.066400
 20
1.331880
  0
SEQEND
  8
0
  0
SOLID
  8
0
 62
    15
 10
7.098960
 20
1.301080
 11
7.095880
 21
2.051280
 12
7.139000
 22
1.275120
 13
7.136360
 23
2.024880
  0
POLYLINE
  8
0
  6
CONTINUOUS
 66
     1
 40
0.000000
 41
0.000000
  0
VERTEX
  8
0
  6
CONTINUOUS
 10
7.098960
 20
1.301080
  0
VERTEX
  8
0
  6
CONTINUOUS
 10
7.095880
 20
2.051280
  0
VERTEX
  8
0
  6
CONTINUOUS
 10
7.136360
 20
2.024880
  0
VERTEX
  8
0
  6
CONTINUOUS
 10
7.139000
 20
1.275120
  0
VERTEX
  8
0
  6
CONTINUOUS
 10
7.098960
 20
1.301080
  0
SEQEND
  8
0
  0
SOLID
  8
0
 62
    15
 10
7.139000
 20
1.275120
 11
7.136360
 21
2.024880
 12
7.186520
 22
1.253560
 13
7.183440
 23
2.003760
  0
POLYLINE
  8
0
  6
CONTINUOUS
 66
     1
 40
0.000000
 41
0.000000
  0
VERTEX
  8
0
  6
CONTINUOUS
 10
7.139000
 20
1.275120
  0
VERTEX
  8
0
  6
CONTINUOUS
 10
7.136360
 20
2.024880
  0
VERTEX
  8
0
  6
CONTINUOUS
 10
7.183440
 20
2.003760
  0
VERTEX
  8
0
  6
CONTINUOUS
 10
7.186520
 20
1.253560
  0
VERTEX
  8
0
  6
CONTINUOUS
 10
7.139000
 20
1.275120
  0
SEQEND
  8
0
  0
SOLID
  8
0
 62
    15
 10
7.186520
 20
1.253560
 11
7.183440
 21
2.003760
 12
7.239320
 22
1.237720
 13
7.236240
 23
1.987480
  0
POLYLINE
  8
0
  6
CONTINUOUS
 66
     1
 40
0.000000
 41
0.000000
  0
VERTEX
  8
0
  6
CONTINUOUS
 10
7.186520
 20
1.253560
  0
VERTEX
  8
0
  6
CONTINUOUS
 10
7.183440
 20
2.003760
  0
VERTEX
  8
0
  6
CONTINUOUS
 10
7.236240
 20
1.987480
  0
VERTEX
  8
0
  6
CONTINUOUS
 10
7.239320
 20
1.237720
  0
VERTEX
  8
0
  6
CONTINUOUS
 10
7.186520
 20
1.253560
  0
SEQEND
  8
0
  0
SOLID
  8
0
 62
    15
 10
7.239320
 20
1.237720
 11
7.236240
 21
1.987480
 12
7.296520
 22
1.228040
 13
7.293880
 23
1.977800
  0
POLYLINE
  8
0
  6
CONTINUOUS
 66
     1
 40
0.000000
 41
0.000000
  0
VERTEX
  8
0
  6
CONTINUOUS
 10
7.239320
 20
1.237720
  0
VERTEX
  8
0
  6
CONTINUOUS
 10
7.236240
 20
1.987480
  0
VERTEX
  8
0
  6
CONTINUOUS
 10
7.293880
 20
1.977800
  0
VERTEX
  8
0
  6
CONTINUOUS
 10
7.296520
 20
1.228040
  0
VERTEX
  8
0
  6
CONTINUOUS
 10
7.239320
 20
1.237720
  0
SEQEND
  8
0
  0
SOLID
  8
0
 62
    15
 10
7.296520
 20
1.228040
 11
7.293880
 21
1.977800
 12
7.357240
 22
1.224520
 13
7.354600
 23
1.974280
  0
POLYLINE
  8
0
  6
CONTINUOUS
 66
     1
 40
0.000000
 41
0.000000
  0
VERTEX
  8
0
  6
CONTINUOUS
 10
7.296520
 20
1.228040
  0
VERTEX
  8
0
  6
CONTINUOUS
 10
7.293880
 20
1.977800
  0
VERTEX
  8
0
  6
CONTINUOUS
 10
7.354600
 20
1.974280
  0
VERTEX
  8
0
  6
CONTINUOUS
 10
7.357240
 20
1.224520
  0
VERTEX
  8
0
  6
CONTINUOUS
 10
7.296520
 20
1.228040
  0
SEQEND
  8
0
  0
POLYLINE
  8
0
  6
CONTINUOUS
 66
     1
 40
0.000000
 41
0.000000
  0
VERTEX
  8
0
  6
CONTINUOUS
 10
7.353720
 20
0.982520
  0
VERTEX
  8
0
  6
CONTINUOUS
 10
3.869800
 20
0.982520
  0
VERTEX
  8
0
  6
CONTINUOUS
 10
3.869800
 20
1.857240
  0
VERTEX
  8
0
  6
CONTINUOUS
 10
4.228400
 20
1.857680
  0
VERTEX
  8
0
  6
CONTINUOUS
 10
4.230160
 20
1.855480
  0
VERTEX
  8
0
  6
CONTINUOUS
 10
4.230160
 20
1.720840
  0
VERTEX
  8
0
  6
CONTINUOUS
 10
4.259200
 20
1.720840
  0
VERTEX
  8
0
  6
CONTINUOUS
 10
4.262720
 20
1.722600
  0
VERTEX
  8
0
  6
CONTINUOUS
 10
4.276800
 20
1.747680
  0
VERTEX
  8
0
  6
CONTINUOUS
 10
4.296160
 20
1.770560
  0
VERTEX
  8
0
  6
CONTINUOUS
 10
4.319920
 20
1.792120
  0
VERTEX
  8
0
  6
CONTINUOUS
 10
4.348520
 20
1.810160
  0
VERTEX
  8
0
  6
CONTINUOUS
 10
4.381080
 20
1.825560
  0
VERTEX
  8
0
  6
CONTINUOUS
 10
4.417160
 20
1.837440
  0
VERTEX
  8
0
  6
CONTINUOUS
 10
4.456320
 20
1.844920
  0
VERTEX
  8
0
  6
CONTINUOUS
 10
4.498560
 20
1.847120
  0
VERTEX
  8
0
  6
CONTINUOUS
 10
4.542560
 20
1.844480
  0
VERTEX
  8
0
  6
CONTINUOUS
 10
4.588760
 20
1.835680
  0
VERTEX
  8
0
  6
CONTINUOUS
 10
4.636720
 20
1.820280
  0
VERTEX
  8
0
  6
CONTINUOUS
 10
4.685120
 20
1.797840
  0
VERTEX
  8
0
  6
CONTINUOUS
 10
4.734840
 20
1.767920
  0
VERTEX
  8
0
  6
CONTINUOUS
 10
4.784120
 20
1.729640
  0
VERTEX
  8
0
  6
CONTINUOUS
 10
4.833840
 20
1.682560
  0
VERTEX
  8
0
  6
CONTINUOUS
 10
4.884440
 20
1.622720
  0
VERTEX
  8
0
  6
CONTINUOUS
 10
5.160760
 20
1.622720
  0
VERTEX
  8
0
  6
CONTINUOUS
 10
5.176160
 20
1.599840
  0
VERTEX
  8
0
  6
CONTINUOUS
 10
5.196400
 20
1.577400
  0
VERTEX
  8
0
  6
CONTINUOUS
 10
5.221040
 20
1.555840
  0
VERTEX
  8
0
  6
CONTINUOUS
 10
5.249640
 20
1.535600
  0
VERTEX
  8
0
  6
CONTINUOUS
 10
5.319160
 20
1.498640
  0
VERTEX
  8
0
  6
CONTINUOUS
 10
5.401880
 20
1.466520
  0
VERTEX
  8
0
  6
CONTINUOUS
 10
5.495160
 20
1.440560
  0
VERTEX
  8
0
  6
CONTINUOUS
 10
5.596360
 20
1.420760
  0
VERTEX
  8
0
  6
CONTINUOUS
 10
5.702840
 20
1.408880
  0
VERTEX
  8
0
  6
CONTINUOUS
 10
5.811960
 20
1.404480
  0
VERTEX
  8
0
  6
CONTINUOUS
 10
6.642680
 20
1.404480
  0
VERTEX
  8
0
  6
CONTINUOUS
 10
6.642680
 20
1.462560
  0
VERTEX
  8
0
  6
CONTINUOUS
 10
6.645320
 20
1.486320
  0
VERTEX
  8
0
  6
CONTINUOUS
 10
6.652800
 20
1.508320
  0
VERTEX
  8
0
  6
CONTINUOUS
 10
6.664240
 20
1.528560
  0
VERTEX
  8
0
  6
CONTINUOUS
 10
6.679200
 20
1.546600
  0
VERTEX
  8
0
  6
CONTINUOUS
 10
6.696800
 20
1.561560
  0
VERTEX
  8
0
  6
CONTINUOUS
 10
6.717480
 20
1.573000
  0
VERTEX
  8
0
  6
CONTINUOUS
 10
6.739480
 20
1.580040
  0
VERTEX
  8
0
  6
CONTINUOUS
 10
6.762800
 20
1.582680
  0
VERTEX
  8
0
  6
CONTINUOUS
 10
6.786120
 20
1.580040
  0
VERTEX
  8
0
  6
CONTINUOUS
 10
6.808560
 20
1.573000
  0
VERTEX
  8
0
  6
CONTINUOUS
 10
6.828800
 20
1.561560
  0
VERTEX
  8
0
  6
CONTINUOUS
 10
6.846840
 20
1.546600
  0
VERTEX
  8
0
  6
CONTINUOUS
 10
6.861800
 20
1.528560
  0
VERTEX
  8
0
  6
CONTINUOUS
 10
6.873240
 20
1.508320
  0
VERTEX
  8
0
  6
CONTINUOUS
 10
6.880280
 20
1.486320
  0
VERTEX
  8
0
  6
CONTINUOUS
 10
6.882920
 20
1.462560
  0
VERTEX
  8
0
  6
CONTINUOUS
 10
6.882920
 20
1.404480
  0
VERTEX
  8
0
  6
CONTINUOUS
 10
7.030320
 20
1.404480
  0
VERTEX
  8
0
  6
CONTINUOUS
 10
7.043080
 20
1.366640
  0
VERTEX
  8
0
  6
CONTINUOUS
 10
7.066400
 20
1.331880
  0
VERTEX
  8
0
  6
CONTINUOUS
 10
7.098960
 20
1.301080
  0
VERTEX
  8
0
  6
CONTINUOUS
 10
7.139000
 20
1.275120
  0
VERTEX
  8
0
  6
CONTINUOUS
 10
7.186520
 20
1.253560
  0
VERTEX
  8
0
  6
CONTINUOUS
 10
7.239320
 20
1.237720
  0
VERTEX
  8
0
  6
CONTINUOUS
 10
7.296520
 20
1.228040
  0
VERTEX
  8
0
  6
CONTINUOUS
 10
7.357240
 20
1.224520
  0
VERTEX
  8
0
  6
CONTINUOUS
 10
7.357240
 20
0.982520
  0
VERTEX
  8
0
  6
CONTINUOUS
 10
7.353720
 20
0.982520
  0
SEQEND
  8
0
  0
TEXT
  8
0
 10
5.316960
 20
0.740520
 40
0.138180
  1
BA  743
 41
1.000000
  7
SN0
 71
     0
 72
     5
 11
5.906843
 21
0.740520
  0
TEXT
  8
0
 10
5.161200
 20
0.549120
 40
0.138180
  1
7/8" x 3-1/2"
 41
1.000000
  7
SN0
 71
     0
 72
     5
 11
6.061381
 21
0.549120
  0
ENDSEC
  0
EOF
