  0
SECTION
  2
HEADER
  9
$ACADVER
  1
AC1006
  9
$EXTMIN
 10
0.550880
 20
0.385880
  9
$EXTMAX
 10
7.733000
 20
5.857720
  9
$LTSCALE
 40
0.044000
  9
$PDMODE
 70
    35
  9
$PDSIZE
 40
0.035200
  0
ENDSEC
  0
SECTION
  2
TABLES
  0
TABLE
  2
LTYPE
 70
     9
  0
LTYPE
  2
CONTINUOUS
 70
    64
  3
Solid line
 72
    65
 73
     0
 40
0.000000
  0
LTYPE
  2
DASHED
 70
    64
  3
__ __ __ __ __ __ __ __ __ __ __ __ __ __ __
 72
    65
 73
     2
 40
0.000330
 49
0.000220
 49
-0.000110
  0
LTYPE
  2
HIDDEN
 70
    64
  3
 _ _ _ _ _ _ _ _ _ _ _ _ _ _ _ _ _ _ _ _ _ _
 72
    65
 73
     2
 40
0.000165
 49
0.000110
 49
-0.000055
  0
LTYPE
  2
CENTER
 70
    64
  3
____ _ ____ _ ____ _ ____ _ ____ _ ____ _ ____
 72
    65
 73
     4
 40
0.000880
 49
0.000550
 49
-0.000110
 49
0.000110
 49
-0.000110
  0
LTYPE
  2
PHANTOM
 70
    64
  3
_____ _ _ _____ _ _ _____ _ _ _____ _ _ ____
 72
    65
 73
     6
 40
0.001100
 49
0.000550
 49
-0.000110
 49
0.000110
 49
-0.000110
 49
0.000110
 49
-0.000110
  0
LTYPE
  2
DOT
 70
    64
  3
...............................................
 72
    65
 73
     2
 40
0.000110
 49
0.000000
 49
-0.000110
  0
LTYPE
  2
DASHDOT
 70
    64
  3
__ . __ . __ . __ . __ . __ . __ . __ . __ . __
 72
    65
 73
     4
 40
0.000440
 49
0.000220
 49
-0.000110
 49
0.000000
 49
-0.000110
  0
LTYPE
  2
BORDER
 70
    64
  3
__ __ . __ __ . __ __ . __ __ . __ __ . __ __
 72
    65
 73
     6
 40
0.000770
 49
0.000220
 49
-0.000110
 49
0.000220
 49
-0.000110
 49
0.000000
 49
-0.000110
  0
LTYPE
  2
DIVIDE
 70
    64
  3
__ . . __ . . __ . . __ . . __ . . __ . . __
 72
    65
 73
     6
 40
0.000550
 49
0.000220
 49
-0.000110
 49
0.000000
 49
-0.000110
 49
0.000000
 49
-0.000110
  0
LTYPE
  2
DOTDOT
 70
    64
  3
 . .  . .  . .  . .  . .  . . 
 72
    65
 73
     5
 40
0.000242
 49
-0.000110
 49
0.000000
 49
-0.000110
 49
0.000000
 49
-0.000110
  0
ENDTAB
  0
TABLE
  2
STYLE
 70
     2
  0
STYLE
 70
     0
  2
SN0
 40
0.000000
 41
0.000440
 50
0.000000
 71
     0
 42
0.000000
  3
ROMAND
  0
STYLE
 70
    68
  2
SV0
 40
0.000000
 41
0.000440
 50
0.000000
 71
     0
 42
0.000000
  3
ROMAND
  0
ENDTAB
  0
TABLE
  2
LAYER
 70
     3
  0
LAYER
  2
FOREGROUND
 70
    64
 62
     7
  6
CONTINUOUS
  0
LAYER
  2
BACKGROUND
 70
    65
 62
    -7
  6
CONTINUOUS
  0
LAYER
  2
0
 70
    64
 62
     7
  6
CONTINUOUS
  0
ENDTAB
  0
ENDSEC
  0
SECTION
  2
ENTITIES
  0
POLYLINE
  8
FOREGROUND
  6
CONTINUOUS
 66
     1
 40
0.000000
 41
0.000000
  0
VERTEX
  8
FOREGROUND
  6
CONTINUOUS
 10
0.000000
 20
6.243600
  0
VERTEX
  8
FOREGROUND
  6
CONTINUOUS
 10
8.499920
 20
6.243600
  0
VERTEX
  8
FOREGROUND
  6
CONTINUOUS
 10
8.499920
 20
-4.756400
  0
VERTEX
  8
FOREGROUND
  6
CONTINUOUS
 10
0.000000
 20
-4.756400
  0
VERTEX
  8
FOREGROUND
  6
CONTINUOUS
 10
0.000000
 20
6.243600
  0
SEQEND
  8
0
  0
POLYLINE
  8
FOREGROUND
  6
CONTINUOUS
 66
     1
 40
0.000000
 41
0.000000
  0
VERTEX
  8
FOREGROUND
  6
CONTINUOUS
 10
0.000000
 20
6.243600
  0
VERTEX
  8
FOREGROUND
  6
CONTINUOUS
 10
8.499920
 20
6.243600
  0
VERTEX
  8
FOREGROUND
  6
CONTINUOUS
 10
8.499920
 20
-4.756400
  0
VERTEX
  8
FOREGROUND
  6
CONTINUOUS
 10
0.000000
 20
-4.756400
  0
VERTEX
  8
FOREGROUND
  6
CONTINUOUS
 10
0.000000
 20
6.243600
  0
SEQEND
  8
0
  0
POLYLINE
  8
0
  6
CONTINUOUS
 66
     1
 40
0.014080
 41
0.014080
  0
VERTEX
  8
0
  6
CONTINUOUS
 10
2.978360
 20
4.695680
  0
VERTEX
  8
0
  6
CONTINUOUS
 10
3.535840
 20
5.247000
  0
VERTEX
  8
0
  6
CONTINUOUS
 10
3.676640
 20
5.103560
  0
VERTEX
  8
0
  6
CONTINUOUS
 10
3.750560
 20
5.166920
  0
VERTEX
  8
0
  6
CONTINUOUS
 10
3.822280
 20
5.220160
  0
VERTEX
  8
0
  6
CONTINUOUS
 10
3.857480
 20
5.243040
  0
VERTEX
  8
0
  6
CONTINUOUS
 10
3.927000
 20
5.282200
  0
VERTEX
  8
0
  6
CONTINUOUS
 10
3.961760
 20
5.298040
  0
VERTEX
  8
0
  6
CONTINUOUS
 10
3.996080
 20
5.311680
  0
VERTEX
  8
0
  6
CONTINUOUS
 10
4.064280
 20
5.331920
  0
VERTEX
  8
0
  6
CONTINUOUS
 10
4.098600
 20
5.338520
  0
VERTEX
  8
0
  6
CONTINUOUS
 10
4.132920
 20
5.343360
  0
VERTEX
  8
0
  6
CONTINUOUS
 10
4.167240
 20
5.345560
  0
VERTEX
  8
0
  6
CONTINUOUS
 10
4.202000
 20
5.346000
  0
VERTEX
  8
0
  6
CONTINUOUS
 10
4.236760
 20
5.343800
  0
VERTEX
  8
0
  6
CONTINUOUS
 10
4.271960
 20
5.339840
  0
VERTEX
  8
0
  6
CONTINUOUS
 10
4.307600
 20
5.334120
  0
VERTEX
  8
0
  6
CONTINUOUS
 10
4.343240
 20
5.326200
  0
VERTEX
  8
0
  6
CONTINUOUS
 10
4.416720
 20
5.304200
  0
VERTEX
  8
0
  6
CONTINUOUS
 10
4.492840
 20
5.274280
  0
VERTEX
  8
0
  6
CONTINUOUS
 10
4.571160
 20
5.236880
  0
VERTEX
  8
0
  6
CONTINUOUS
 10
4.653440
 20
5.192440
  0
VERTEX
  8
0
  6
CONTINUOUS
 10
4.739240
 20
5.140960
  0
VERTEX
  8
0
  6
CONTINUOUS
 10
4.876080
 20
5.050760
  0
VERTEX
  8
0
  6
CONTINUOUS
 10
4.971120
 20
4.989160
  0
VERTEX
  8
0
  6
CONTINUOUS
 10
5.018640
 20
4.961000
  0
VERTEX
  8
0
  6
CONTINUOUS
 10
5.114120
 20
4.910840
  0
VERTEX
  8
0
  6
CONTINUOUS
 10
5.162080
 20
4.888840
  0
VERTEX
  8
0
  6
CONTINUOUS
 10
5.210040
 20
4.869040
  0
VERTEX
  8
0
  6
CONTINUOUS
 10
5.258000
 20
4.851880
  0
VERTEX
  8
0
  6
CONTINUOUS
 10
5.306400
 20
4.836480
  0
VERTEX
  8
0
  6
CONTINUOUS
 10
5.354360
 20
4.823720
  0
VERTEX
  8
0
  6
CONTINUOUS
 10
5.426960
 20
4.809200
  0
VERTEX
  8
0
  6
CONTINUOUS
 10
5.500000
 20
4.800840
  0
VERTEX
  8
0
  6
CONTINUOUS
 10
5.548840
 20
4.798200
  0
VERTEX
  8
0
  6
CONTINUOUS
 10
5.597680
 20
4.799080
  0
VERTEX
  8
0
  6
CONTINUOUS
 10
5.646520
 20
4.802600
  0
VERTEX
  8
0
  6
CONTINUOUS
 10
5.695800
 20
4.808760
  0
VERTEX
  8
0
  6
CONTINUOUS
 10
5.745080
 20
4.818440
  0
VERTEX
  8
0
  6
CONTINUOUS
 10
5.819440
 20
4.838680
  0
VERTEX
  8
0
  6
CONTINUOUS
 10
5.893800
 20
4.866400
  0
VERTEX
  8
0
  6
CONTINUOUS
 10
5.968600
 20
4.901600
  0
VERTEX
  8
0
  6
CONTINUOUS
 10
6.043840
 20
4.945160
  0
VERTEX
  8
0
  6
CONTINUOUS
 10
6.119520
 20
4.996640
  0
VERTEX
  8
0
  6
CONTINUOUS
 10
6.195640
 20
5.056480
  0
VERTEX
  8
0
  6
CONTINUOUS
 10
6.272200
 20
5.125120
  0
VERTEX
  8
0
  6
CONTINUOUS
 10
6.348760
 20
5.203000
  0
VERTEX
  8
0
  6
CONTINUOUS
 10
6.426200
 20
5.290120
  0
VERTEX
  8
0
  6
CONTINUOUS
 10
6.452160
 20
5.321360
  0
VERTEX
  8
0
  6
CONTINUOUS
 10
6.748280
 20
5.092120
  0
VERTEX
  8
0
  6
CONTINUOUS
 10
6.770720
 20
5.140960
  0
VERTEX
  8
0
  6
CONTINUOUS
 10
6.797560
 20
5.185400
  0
VERTEX
  8
0
  6
CONTINUOUS
 10
6.828800
 20
5.225000
  0
VERTEX
  8
0
  6
CONTINUOUS
 10
6.864000
 20
5.259760
  0
VERTEX
  8
0
  6
CONTINUOUS
 10
6.902720
 20
5.289680
  0
VERTEX
  8
0
  6
CONTINUOUS
 10
6.944960
 20
5.315200
  0
VERTEX
  8
0
  6
CONTINUOUS
 10
6.974440
 20
5.329280
  0
VERTEX
  8
0
  6
CONTINUOUS
 10
7.004800
 20
5.341600
  0
VERTEX
  8
0
  6
CONTINUOUS
 10
7.036480
 20
5.351280
  0
VERTEX
  8
0
  6
CONTINUOUS
 10
7.069480
 20
5.359200
  0
VERTEX
  8
0
  6
CONTINUOUS
 10
7.102920
 20
5.364920
  0
VERTEX
  8
0
  6
CONTINUOUS
 10
7.136800
 20
5.368440
  0
VERTEX
  8
0
  6
CONTINUOUS
 10
7.171560
 20
5.369760
  0
VERTEX
  8
0
  6
CONTINUOUS
 10
7.206760
 20
5.368880
  0
VERTEX
  8
0
  6
CONTINUOUS
 10
7.242400
 20
5.366240
  0
VERTEX
  8
0
  6
CONTINUOUS
 10
7.278480
 20
5.360960
  0
VERTEX
  8
0
  6
CONTINUOUS
 10
7.314560
 20
5.353480
  0
VERTEX
  8
0
  6
CONTINUOUS
 10
7.386280
 20
5.332360
  0
VERTEX
  8
0
  6
CONTINUOUS
 10
7.422360
 20
5.318280
  0
VERTEX
  8
0
  6
CONTINUOUS
 10
7.457560
 20
5.302000
  0
VERTEX
  8
0
  6
CONTINUOUS
 10
7.492760
 20
5.283520
  0
VERTEX
  8
0
  6
CONTINUOUS
 10
7.527520
 20
5.262840
  0
VERTEX
  8
0
  6
CONTINUOUS
 10
7.561400
 20
5.239960
  0
VERTEX
  8
0
  6
CONTINUOUS
 10
7.611120
 20
5.201680
  0
VERTEX
  8
0
  6
CONTINUOUS
 10
7.658640
 20
5.158120
  0
VERTEX
  8
0
  6
CONTINUOUS
 10
7.703960
 20
5.109280
  0
VERTEX
  8
0
  6
CONTINUOUS
 10
7.718480
 20
5.092120
  0
VERTEX
  8
0
  6
CONTINUOUS
 10
7.236240
 20
4.474360
  0
VERTEX
  8
0
  6
CONTINUOUS
 10
3.270520
 20
4.474360
  0
VERTEX
  8
0
  6
CONTINUOUS
 10
2.978360
 20
4.695680
  0
SEQEND
  8
0
  0
SOLID
  8
0
 62
    15
 10
4.572480
 20
2.316160
 11
5.221040
 21
1.936880
 12
4.441800
 22
2.161720
 13
5.090360
 23
1.782440
  0
POLYLINE
  8
0
  6
CONTINUOUS
 66
     1
 40
0.000000
 41
0.000000
  0
VERTEX
  8
0
  6
CONTINUOUS
 10
4.572480
 20
2.316160
  0
VERTEX
  8
0
  6
CONTINUOUS
 10
5.221040
 20
1.936880
  0
VERTEX
  8
0
  6
CONTINUOUS
 10
5.090360
 20
1.782440
  0
VERTEX
  8
0
  6
CONTINUOUS
 10
4.441800
 20
2.161720
  0
VERTEX
  8
0
  6
CONTINUOUS
 10
4.572480
 20
2.316160
  0
SEQEND
  8
0
  0
SOLID
  8
0
 62
    15
 10
6.525640
 20
3.231360
 11
7.174200
 21
2.852080
 12
6.327200
 22
3.260840
 13
6.975760
 23
2.881560
  0
POLYLINE
  8
0
  6
CONTINUOUS
 66
     1
 40
0.000000
 41
0.000000
  0
VERTEX
  8
0
  6
CONTINUOUS
 10
6.525640
 20
3.231360
  0
VERTEX
  8
0
  6
CONTINUOUS
 10
7.174200
 20
2.852080
  0
VERTEX
  8
0
  6
CONTINUOUS
 10
6.975760
 20
2.881560
  0
VERTEX
  8
0
  6
CONTINUOUS
 10
6.327200
 20
3.260840
  0
VERTEX
  8
0
  6
CONTINUOUS
 10
6.525640
 20
3.231360
  0
SEQEND
  8
0
  0
SOLID
  8
0
 62
    15
 10
6.327200
 20
3.260840
 11
6.975760
 21
2.881560
 12
6.281000
 22
3.080000
 13
6.929560
 23
2.700720
  0
POLYLINE
  8
0
  6
CONTINUOUS
 66
     1
 40
0.000000
 41
0.000000
  0
VERTEX
  8
0
  6
CONTINUOUS
 10
6.327200
 20
3.260840
  0
VERTEX
  8
0
  6
CONTINUOUS
 10
6.975760
 20
2.881560
  0
VERTEX
  8
0
  6
CONTINUOUS
 10
6.929560
 20
2.700720
  0
VERTEX
  8
0
  6
CONTINUOUS
 10
6.281000
 20
3.080000
  0
VERTEX
  8
0
  6
CONTINUOUS
 10
6.327200
 20
3.260840
  0
SEQEND
  8
0
  0
SOLID
  8
0
 62
    15
 10
6.281000
 20
3.080000
 11
6.929560
 21
2.700720
 12
6.216320
 22
2.934360
 13
6.864880
 23
2.555080
  0
POLYLINE
  8
0
  6
CONTINUOUS
 66
     1
 40
0.000000
 41
0.000000
  0
VERTEX
  8
0
  6
CONTINUOUS
 10
6.281000
 20
3.080000
  0
VERTEX
  8
0
  6
CONTINUOUS
 10
6.929560
 20
2.700720
  0
VERTEX
  8
0
  6
CONTINUOUS
 10
6.864880
 20
2.555080
  0
VERTEX
  8
0
  6
CONTINUOUS
 10
6.216320
 20
2.934360
  0
VERTEX
  8
0
  6
CONTINUOUS
 10
6.281000
 20
3.080000
  0
SEQEND
  8
0
  0
SOLID
  8
0
 62
    15
 10
6.216320
 20
2.934360
 11
6.864880
 21
2.555080
 12
6.131400
 22
2.819520
 13
6.779960
 23
2.440240
  0
POLYLINE
  8
0
  6
CONTINUOUS
 66
     1
 40
0.000000
 41
0.000000
  0
VERTEX
  8
0
  6
CONTINUOUS
 10
6.216320
 20
2.934360
  0
VERTEX
  8
0
  6
CONTINUOUS
 10
6.864880
 20
2.555080
  0
VERTEX
  8
0
  6
CONTINUOUS
 10
6.779960
 20
2.440240
  0
VERTEX
  8
0
  6
CONTINUOUS
 10
6.131400
 20
2.819520
  0
VERTEX
  8
0
  6
CONTINUOUS
 10
6.216320
 20
2.934360
  0
SEQEND
  8
0
  0
SOLID
  8
0
 62
    15
 10
6.131400
 20
2.819520
 11
6.779960
 21
2.440240
 12
6.024480
 22
2.731960
 13
6.673040
 23
2.352680
  0
POLYLINE
  8
0
  6
CONTINUOUS
 66
     1
 40
0.000000
 41
0.000000
  0
VERTEX
  8
0
  6
CONTINUOUS
 10
6.131400
 20
2.819520
  0
VERTEX
  8
0
  6
CONTINUOUS
 10
6.779960
 20
2.440240
  0
VERTEX
  8
0
  6
CONTINUOUS
 10
6.673040
 20
2.352680
  0
VERTEX
  8
0
  6
CONTINUOUS
 10
6.024480
 20
2.731960
  0
VERTEX
  8
0
  6
CONTINUOUS
 10
6.131400
 20
2.819520
  0
SEQEND
  8
0
  0
SOLID
  8
0
 62
    15
 10
6.024480
 20
2.731960
 11
6.673040
 21
2.352680
 12
5.892920
 22
2.668160
 13
6.541920
 23
2.288880
  0
POLYLINE
  8
0
  6
CONTINUOUS
 66
     1
 40
0.000000
 41
0.000000
  0
VERTEX
  8
0
  6
CONTINUOUS
 10
6.024480
 20
2.731960
  0
VERTEX
  8
0
  6
CONTINUOUS
 10
6.673040
 20
2.352680
  0
VERTEX
  8
0
  6
CONTINUOUS
 10
6.541920
 20
2.288880
  0
VERTEX
  8
0
  6
CONTINUOUS
 10
5.892920
 20
2.668160
  0
VERTEX
  8
0
  6
CONTINUOUS
 10
6.024480
 20
2.731960
  0
SEQEND
  8
0
  0
SOLID
  8
0
 62
    15
 10
5.892920
 20
2.668160
 11
6.541920
 21
2.288880
 12
5.736280
 22
2.624160
 13
6.384840
 23
2.244880
  0
POLYLINE
  8
0
  6
CONTINUOUS
 66
     1
 40
0.000000
 41
0.000000
  0
VERTEX
  8
0
  6
CONTINUOUS
 10
5.892920
 20
2.668160
  0
VERTEX
  8
0
  6
CONTINUOUS
 10
6.541920
 20
2.288880
  0
VERTEX
  8
0
  6
CONTINUOUS
 10
6.384840
 20
2.244880
  0
VERTEX
  8
0
  6
CONTINUOUS
 10
5.736280
 20
2.624160
  0
VERTEX
  8
0
  6
CONTINUOUS
 10
5.892920
 20
2.668160
  0
SEQEND
  8
0
  0
SOLID
  8
0
 62
    15
 10
5.736280
 20
2.624160
 11
6.384840
 21
2.244880
 12
5.551480
 22
2.596440
 13
6.200040
 23
2.217160
  0
POLYLINE
  8
0
  6
CONTINUOUS
 66
     1
 40
0.000000
 41
0.000000
  0
VERTEX
  8
0
  6
CONTINUOUS
 10
5.736280
 20
2.624160
  0
VERTEX
  8
0
  6
CONTINUOUS
 10
6.384840
 20
2.244880
  0
VERTEX
  8
0
  6
CONTINUOUS
 10
6.200040
 20
2.217160
  0
VERTEX
  8
0
  6
CONTINUOUS
 10
5.551480
 20
2.596440
  0
VERTEX
  8
0
  6
CONTINUOUS
 10
5.736280
 20
2.624160
  0
SEQEND
  8
0
  0
SOLID
  8
0
 62
    15
 10
5.551480
 20
2.596440
 11
6.200040
 21
2.217160
 12
5.337200
 22
2.581040
 13
5.985760
 23
2.202200
  0
POLYLINE
  8
0
  6
CONTINUOUS
 66
     1
 40
0.000000
 41
0.000000
  0
VERTEX
  8
0
  6
CONTINUOUS
 10
5.551480
 20
2.596440
  0
VERTEX
  8
0
  6
CONTINUOUS
 10
6.200040
 20
2.217160
  0
VERTEX
  8
0
  6
CONTINUOUS
 10
5.985760
 20
2.202200
  0
VERTEX
  8
0
  6
CONTINUOUS
 10
5.337200
 20
2.581040
  0
VERTEX
  8
0
  6
CONTINUOUS
 10
5.551480
 20
2.596440
  0
SEQEND
  8
0
  0
SOLID
  8
0
 62
    15
 10
5.337200
 20
2.581040
 11
5.985760
 21
2.202200
 12
5.115440
 22
2.559040
 13
5.764440
 23
2.179760
  0
POLYLINE
  8
0
  6
CONTINUOUS
 66
     1
 40
0.000000
 41
0.000000
  0
VERTEX
  8
0
  6
CONTINUOUS
 10
5.337200
 20
2.581040
  0
VERTEX
  8
0
  6
CONTINUOUS
 10
5.985760
 20
2.202200
  0
VERTEX
  8
0
  6
CONTINUOUS
 10
5.764440
 20
2.179760
  0
VERTEX
  8
0
  6
CONTINUOUS
 10
5.115440
 20
2.559040
  0
VERTEX
  8
0
  6
CONTINUOUS
 10
5.337200
 20
2.581040
  0
SEQEND
  8
0
  0
SOLID
  8
0
 62
    15
 10
5.115440
 20
2.559040
 11
5.764440
 21
2.179760
 12
4.912160
 22
2.510640
 13
5.561160
 23
2.131360
  0
POLYLINE
  8
0
  6
CONTINUOUS
 66
     1
 40
0.000000
 41
0.000000
  0
VERTEX
  8
0
  6
CONTINUOUS
 10
5.115440
 20
2.559040
  0
VERTEX
  8
0
  6
CONTINUOUS
 10
5.764440
 20
2.179760
  0
VERTEX
  8
0
  6
CONTINUOUS
 10
5.561160
 20
2.131360
  0
VERTEX
  8
0
  6
CONTINUOUS
 10
4.912160
 20
2.510640
  0
VERTEX
  8
0
  6
CONTINUOUS
 10
5.115440
 20
2.559040
  0
SEQEND
  8
0
  0
SOLID
  8
0
 62
    15
 10
4.912160
 20
2.510640
 11
5.561160
 21
2.131360
 12
4.730440
 22
2.431000
 13
5.379000
 23
2.051720
  0
POLYLINE
  8
0
  6
CONTINUOUS
 66
     1
 40
0.000000
 41
0.000000
  0
VERTEX
  8
0
  6
CONTINUOUS
 10
4.912160
 20
2.510640
  0
VERTEX
  8
0
  6
CONTINUOUS
 10
5.561160
 20
2.131360
  0
VERTEX
  8
0
  6
CONTINUOUS
 10
5.379000
 20
2.051720
  0
VERTEX
  8
0
  6
CONTINUOUS
 10
4.730440
 20
2.431000
  0
VERTEX
  8
0
  6
CONTINUOUS
 10
4.912160
 20
2.510640
  0
SEQEND
  8
0
  0
SOLID
  8
0
 62
    15
 10
4.730440
 20
2.431000
 11
5.379000
 21
2.051720
 12
4.572480
 22
2.316160
 13
5.221040
 23
1.936880
  0
POLYLINE
  8
0
  6
CONTINUOUS
 66
     1
 40
0.000000
 41
0.000000
  0
VERTEX
  8
0
  6
CONTINUOUS
 10
4.730440
 20
2.431000
  0
VERTEX
  8
0
  6
CONTINUOUS
 10
5.379000
 20
2.051720
  0
VERTEX
  8
0
  6
CONTINUOUS
 10
5.221040
 20
1.936880
  0
VERTEX
  8
0
  6
CONTINUOUS
 10
4.572480
 20
2.316160
  0
VERTEX
  8
0
  6
CONTINUOUS
 10
4.730440
 20
2.431000
  0
SEQEND
  8
0
  0
SOLID
  8
0
 62
    15
 10
6.639160
 20
4.007080
 11
7.288160
 21
3.627800
 12
6.525640
 22
3.231360
 13
7.174200
 23
2.852080
  0
POLYLINE
  8
0
  6
CONTINUOUS
 66
     1
 40
0.000000
 41
0.000000
  0
VERTEX
  8
0
  6
CONTINUOUS
 10
6.639160
 20
4.007080
  0
VERTEX
  8
0
  6
CONTINUOUS
 10
7.288160
 20
3.627800
  0
VERTEX
  8
0
  6
CONTINUOUS
 10
7.174200
 20
2.852080
  0
VERTEX
  8
0
  6
CONTINUOUS
 10
6.525640
 20
3.231360
  0
VERTEX
  8
0
  6
CONTINUOUS
 10
6.639160
 20
4.007080
  0
SEQEND
  8
0
  0
SOLID
  8
0
 62
    15
 10
4.441800
 20
2.161720
 11
5.090360
 21
1.782440
 12
4.341040
 22
1.963280
 13
4.989600
 23
1.584000
  0
POLYLINE
  8
0
  6
CONTINUOUS
 66
     1
 40
0.000000
 41
0.000000
  0
VERTEX
  8
0
  6
CONTINUOUS
 10
4.441800
 20
2.161720
  0
VERTEX
  8
0
  6
CONTINUOUS
 10
5.090360
 20
1.782440
  0
VERTEX
  8
0
  6
CONTINUOUS
 10
4.989600
 20
1.584000
  0
VERTEX
  8
0
  6
CONTINUOUS
 10
4.341040
 20
1.963280
  0
VERTEX
  8
0
  6
CONTINUOUS
 10
4.441800
 20
2.161720
  0
SEQEND
  8
0
  0
SOLID
  8
0
 62
    15
 10
4.341040
 20
1.963280
 11
4.989600
 21
1.584000
 12
4.302760
 22
1.845800
 13
4.951320
 23
1.466960
  0
POLYLINE
  8
0
  6
CONTINUOUS
 66
     1
 40
0.000000
 41
0.000000
  0
VERTEX
  8
0
  6
CONTINUOUS
 10
4.341040
 20
1.963280
  0
VERTEX
  8
0
  6
CONTINUOUS
 10
4.989600
 20
1.584000
  0
VERTEX
  8
0
  6
CONTINUOUS
 10
4.951320
 20
1.466960
  0
VERTEX
  8
0
  6
CONTINUOUS
 10
4.302760
 20
1.845800
  0
VERTEX
  8
0
  6
CONTINUOUS
 10
4.341040
 20
1.963280
  0
SEQEND
  8
0
  0
SOLID
  8
0
 62
    15
 10
4.302760
 20
1.845800
 11
4.951320
 21
1.466960
 12
4.273280
 22
1.716440
 13
4.921840
 23
1.337160
  0
POLYLINE
  8
0
  6
CONTINUOUS
 66
     1
 40
0.000000
 41
0.000000
  0
VERTEX
  8
0
  6
CONTINUOUS
 10
4.302760
 20
1.845800
  0
VERTEX
  8
0
  6
CONTINUOUS
 10
4.951320
 20
1.466960
  0
VERTEX
  8
0
  6
CONTINUOUS
 10
4.921840
 20
1.337160
  0
VERTEX
  8
0
  6
CONTINUOUS
 10
4.273280
 20
1.716440
  0
VERTEX
  8
0
  6
CONTINUOUS
 10
4.302760
 20
1.845800
  0
SEQEND
  8
0
  0
SOLID
  8
0
 62
    15
 10
4.273280
 20
1.716440
 11
4.921840
 21
1.337160
 12
4.252600
 22
1.573440
 13
4.901160
 23
1.194160
  0
POLYLINE
  8
0
  6
CONTINUOUS
 66
     1
 40
0.000000
 41
0.000000
  0
VERTEX
  8
0
  6
CONTINUOUS
 10
4.273280
 20
1.716440
  0
VERTEX
  8
0
  6
CONTINUOUS
 10
4.921840
 20
1.337160
  0
VERTEX
  8
0
  6
CONTINUOUS
 10
4.901160
 20
1.194160
  0
VERTEX
  8
0
  6
CONTINUOUS
 10
4.252600
 20
1.573440
  0
VERTEX
  8
0
  6
CONTINUOUS
 10
4.273280
 20
1.716440
  0
SEQEND
  8
0
  0
SOLID
  8
0
 62
    15
 10
4.252600
 20
1.573440
 11
4.901160
 21
1.194160
 12
4.241160
 22
1.416800
 13
4.890160
 23
1.037520
  0
POLYLINE
  8
0
  6
CONTINUOUS
 66
     1
 40
0.000000
 41
0.000000
  0
VERTEX
  8
0
  6
CONTINUOUS
 10
4.252600
 20
1.573440
  0
VERTEX
  8
0
  6
CONTINUOUS
 10
4.901160
 20
1.194160
  0
VERTEX
  8
0
  6
CONTINUOUS
 10
4.890160
 20
1.037520
  0
VERTEX
  8
0
  6
CONTINUOUS
 10
4.241160
 20
1.416800
  0
VERTEX
  8
0
  6
CONTINUOUS
 10
4.252600
 20
1.573440
  0
SEQEND
  8
0
  0
SOLID
  8
0
 62
    15
 10
4.241160
 20
1.416800
 11
4.890160
 21
1.037520
 12
3.866720
 22
1.421640
 13
4.515280
 23
1.042360
  0
POLYLINE
  8
0
  6
CONTINUOUS
 66
     1
 40
0.000000
 41
0.000000
  0
VERTEX
  8
0
  6
CONTINUOUS
 10
4.241160
 20
1.416800
  0
VERTEX
  8
0
  6
CONTINUOUS
 10
4.890160
 20
1.037520
  0
VERTEX
  8
0
  6
CONTINUOUS
 10
4.515280
 20
1.042360
  0
VERTEX
  8
0
  6
CONTINUOUS
 10
3.866720
 20
1.421640
  0
VERTEX
  8
0
  6
CONTINUOUS
 10
4.241160
 20
1.416800
  0
SEQEND
  8
0
  0
SOLID
  8
0
 62
    15
 10
3.866720
 20
1.421640
 11
4.515280
 21
1.042360
 12
3.883440
 22
1.283920
 13
4.532000
 23
0.904640
  0
POLYLINE
  8
0
  6
CONTINUOUS
 66
     1
 40
0.000000
 41
0.000000
  0
VERTEX
  8
0
  6
CONTINUOUS
 10
3.866720
 20
1.421640
  0
VERTEX
  8
0
  6
CONTINUOUS
 10
4.515280
 20
1.042360
  0
VERTEX
  8
0
  6
CONTINUOUS
 10
4.532000
 20
0.904640
  0
VERTEX
  8
0
  6
CONTINUOUS
 10
3.883440
 20
1.283920
  0
VERTEX
  8
0
  6
CONTINUOUS
 10
3.866720
 20
1.421640
  0
SEQEND
  8
0
  0
SOLID
  8
0
 62
    15
 10
3.883440
 20
1.283920
 11
4.532000
 21
0.904640
 12
3.856600
 22
1.155440
 13
4.505600
 23
0.776160
  0
POLYLINE
  8
0
  6
CONTINUOUS
 66
     1
 40
0.000000
 41
0.000000
  0
VERTEX
  8
0
  6
CONTINUOUS
 10
3.883440
 20
1.283920
  0
VERTEX
  8
0
  6
CONTINUOUS
 10
4.532000
 20
0.904640
  0
VERTEX
  8
0
  6
CONTINUOUS
 10
4.505600
 20
0.776160
  0
VERTEX
  8
0
  6
CONTINUOUS
 10
3.856600
 20
1.155440
  0
VERTEX
  8
0
  6
CONTINUOUS
 10
3.883440
 20
1.283920
  0
SEQEND
  8
0
  0
SOLID
  8
0
 62
    15
 10
3.856600
 20
1.155440
 11
4.505600
 21
0.776160
 12
3.792360
 22
1.041040
 13
4.441360
 23
0.661760
  0
POLYLINE
  8
0
  6
CONTINUOUS
 66
     1
 40
0.000000
 41
0.000000
  0
VERTEX
  8
0
  6
CONTINUOUS
 10
3.856600
 20
1.155440
  0
VERTEX
  8
0
  6
CONTINUOUS
 10
4.505600
 20
0.776160
  0
VERTEX
  8
0
  6
CONTINUOUS
 10
4.441360
 20
0.661760
  0
VERTEX
  8
0
  6
CONTINUOUS
 10
3.792360
 20
1.041040
  0
VERTEX
  8
0
  6
CONTINUOUS
 10
3.856600
 20
1.155440
  0
SEQEND
  8
0
  0
SOLID
  8
0
 62
    15
 10
3.792360
 20
1.041040
 11
4.441360
 21
0.661760
 12
3.696000
 22
0.945120
 13
4.344560
 23
0.565840
  0
POLYLINE
  8
0
  6
CONTINUOUS
 66
     1
 40
0.000000
 41
0.000000
  0
VERTEX
  8
0
  6
CONTINUOUS
 10
3.792360
 20
1.041040
  0
VERTEX
  8
0
  6
CONTINUOUS
 10
4.441360
 20
0.661760
  0
VERTEX
  8
0
  6
CONTINUOUS
 10
4.344560
 20
0.565840
  0
VERTEX
  8
0
  6
CONTINUOUS
 10
3.696000
 20
0.945120
  0
VERTEX
  8
0
  6
CONTINUOUS
 10
3.792360
 20
1.041040
  0
SEQEND
  8
0
  0
SOLID
  8
0
 62
    15
 10
3.696000
 20
0.945120
 11
4.344560
 21
0.565840
 12
3.571920
 22
0.872080
 13
4.220480
 23
0.492800
  0
POLYLINE
  8
0
  6
CONTINUOUS
 66
     1
 40
0.000000
 41
0.000000
  0
VERTEX
  8
0
  6
CONTINUOUS
 10
3.696000
 20
0.945120
  0
VERTEX
  8
0
  6
CONTINUOUS
 10
4.344560
 20
0.565840
  0
VERTEX
  8
0
  6
CONTINUOUS
 10
4.220480
 20
0.492800
  0
VERTEX
  8
0
  6
CONTINUOUS
 10
3.571920
 20
0.872080
  0
VERTEX
  8
0
  6
CONTINUOUS
 10
3.696000
 20
0.945120
  0
SEQEND
  8
0
  0
SOLID
  8
0
 62
    15
 10
3.571920
 20
0.872080
 11
4.220480
 21
0.492800
 12
3.426280
 22
0.827200
 13
4.075280
 23
0.447920
  0
POLYLINE
  8
0
  6
CONTINUOUS
 66
     1
 40
0.000000
 41
0.000000
  0
VERTEX
  8
0
  6
CONTINUOUS
 10
3.571920
 20
0.872080
  0
VERTEX
  8
0
  6
CONTINUOUS
 10
4.220480
 20
0.492800
  0
VERTEX
  8
0
  6
CONTINUOUS
 10
4.075280
 20
0.447920
  0
VERTEX
  8
0
  6
CONTINUOUS
 10
3.426280
 20
0.827200
  0
VERTEX
  8
0
  6
CONTINUOUS
 10
3.571920
 20
0.872080
  0
SEQEND
  8
0
  0
SOLID
  8
0
 62
    15
 10
3.426280
 20
0.827200
 11
4.075280
 21
0.447920
 12
3.264800
 22
0.814000
 13
3.913360
 23
0.434720
  0
POLYLINE
  8
0
  6
CONTINUOUS
 66
     1
 40
0.000000
 41
0.000000
  0
VERTEX
  8
0
  6
CONTINUOUS
 10
3.426280
 20
0.827200
  0
VERTEX
  8
0
  6
CONTINUOUS
 10
4.075280
 20
0.447920
  0
VERTEX
  8
0
  6
CONTINUOUS
 10
3.913360
 20
0.434720
  0
VERTEX
  8
0
  6
CONTINUOUS
 10
3.264800
 20
0.814000
  0
VERTEX
  8
0
  6
CONTINUOUS
 10
3.426280
 20
0.827200
  0
SEQEND
  8
0
  0
SOLID
  8
0
 62
    15
 10
3.264800
 20
0.814000
 11
3.913360
 21
0.434720
 12
3.091880
 22
0.837760
 13
3.740440
 23
0.458480
  0
POLYLINE
  8
0
  6
CONTINUOUS
 66
     1
 40
0.000000
 41
0.000000
  0
VERTEX
  8
0
  6
CONTINUOUS
 10
3.264800
 20
0.814000
  0
VERTEX
  8
0
  6
CONTINUOUS
 10
3.913360
 20
0.434720
  0
VERTEX
  8
0
  6
CONTINUOUS
 10
3.740440
 20
0.458480
  0
VERTEX
  8
0
  6
CONTINUOUS
 10
3.091880
 20
0.837760
  0
VERTEX
  8
0
  6
CONTINUOUS
 10
3.264800
 20
0.814000
  0
SEQEND
  8
0
  0
POLYLINE
  8
0
  6
CONTINUOUS
 66
     1
 40
0.000000
 41
0.000000
  0
VERTEX
  8
0
  6
CONTINUOUS
 10
6.639160
 20
4.007080
  0
VERTEX
  8
0
  6
CONTINUOUS
 10
6.525640
 20
3.231360
  0
VERTEX
  8
0
  6
CONTINUOUS
 10
6.327200
 20
3.260840
  0
VERTEX
  8
0
  6
CONTINUOUS
 10
6.281000
 20
3.080000
  0
VERTEX
  8
0
  6
CONTINUOUS
 10
6.216320
 20
2.934360
  0
VERTEX
  8
0
  6
CONTINUOUS
 10
6.131400
 20
2.819520
  0
VERTEX
  8
0
  6
CONTINUOUS
 10
6.024480
 20
2.731960
  0
VERTEX
  8
0
  6
CONTINUOUS
 10
5.892920
 20
2.668160
  0
VERTEX
  8
0
  6
CONTINUOUS
 10
5.736280
 20
2.624160
  0
VERTEX
  8
0
  6
CONTINUOUS
 10
5.551480
 20
2.596440
  0
VERTEX
  8
0
  6
CONTINUOUS
 10
5.337200
 20
2.581040
  0
VERTEX
  8
0
  6
CONTINUOUS
 10
5.115440
 20
2.559040
  0
VERTEX
  8
0
  6
CONTINUOUS
 10
4.912160
 20
2.510640
  0
VERTEX
  8
0
  6
CONTINUOUS
 10
4.730440
 20
2.431000
  0
VERTEX
  8
0
  6
CONTINUOUS
 10
4.572480
 20
2.316160
  0
VERTEX
  8
0
  6
CONTINUOUS
 10
4.441800
 20
2.161720
  0
VERTEX
  8
0
  6
CONTINUOUS
 10
4.341040
 20
1.963280
  0
VERTEX
  8
0
  6
CONTINUOUS
 10
4.302760
 20
1.845800
  0
VERTEX
  8
0
  6
CONTINUOUS
 10
4.273280
 20
1.716440
  0
VERTEX
  8
0
  6
CONTINUOUS
 10
4.252600
 20
1.573440
  0
VERTEX
  8
0
  6
CONTINUOUS
 10
4.241160
 20
1.416800
  0
VERTEX
  8
0
  6
CONTINUOUS
 10
3.866720
 20
1.421640
  0
VERTEX
  8
0
  6
CONTINUOUS
 10
3.883440
 20
1.283920
  0
VERTEX
  8
0
  6
CONTINUOUS
 10
3.856600
 20
1.155440
  0
VERTEX
  8
0
  6
CONTINUOUS
 10
3.792360
 20
1.041040
  0
VERTEX
  8
0
  6
CONTINUOUS
 10
3.696000
 20
0.945120
  0
VERTEX
  8
0
  6
CONTINUOUS
 10
3.571920
 20
0.872080
  0
VERTEX
  8
0
  6
CONTINUOUS
 10
3.426280
 20
0.827200
  0
VERTEX
  8
0
  6
CONTINUOUS
 10
3.264800
 20
0.814000
  0
VERTEX
  8
0
  6
CONTINUOUS
 10
3.091880
 20
0.837760
  0
VERTEX
  8
0
  6
CONTINUOUS
 10
3.105520
 20
1.620960
  0
VERTEX
  8
0
  6
CONTINUOUS
 10
6.272640
 20
4.007960
  0
VERTEX
  8
0
  6
CONTINUOUS
 10
6.639160
 20
4.007080
  0
SEQEND
  8
0
  0
TEXT
  8
0
 10
5.184520
 20
0.622160
 40
0.137932
  1
BA  742
 41
1.000000
  7
SN0
 71
     0
 72
     5
 11
5.773813
 21
0.622160
  0
TEXT
  8
0
 10
5.028760
 20
0.430320
 40
0.137932
  1
7/8" x 4-3/4"
 41
1.000000
  7
SN0
 71
     0
 72
     5
 11
5.927602
 21
0.430320
  0
TEXT
  8
0
 10
0.552200
 20
5.706360
 40
0.137932
  1
use 186B & C
 41
1.000000
  7
SN0
 71
     0
 72
     5
 11
1.573857
 21
5.706360
  0
TEXT
  8
0
 10
0.552200
 20
5.514520
 40
0.137932
  1
for back out knives
 41
1.000000
  7
SN0
 71
     0
 72
     5
 11
1.938708
 21
5.514520
  0
ENDSEC
  0
EOF
