  0
SECTION
  2
HEADER
  9
$ACADVER
  1
AC1006
  9
$EXTMIN
 10
3.872440
 20
0.711040
  9
$EXTMAX
 10
7.829360
 20
3.952080
  9
$LTSCALE
 40
0.044000
  9
$PDMODE
 70
    35
  9
$PDSIZE
 40
0.035200
  0
ENDSEC
  0
SECTION
  2
TABLES
  0
TABLE
  2
LTYPE
 70
     9
  0
LTYPE
  2
CONTINUOUS
 70
    64
  3
Solid line
 72
    65
 73
     0
 40
0.000000
  0
LTYPE
  2
DASHED
 70
    64
  3
__ __ __ __ __ __ __ __ __ __ __ __ __ __ __
 72
    65
 73
     2
 40
0.000330
 49
0.000220
 49
-0.000110
  0
LTYPE
  2
HIDDEN
 70
    64
  3
 _ _ _ _ _ _ _ _ _ _ _ _ _ _ _ _ _ _ _ _ _ _
 72
    65
 73
     2
 40
0.000165
 49
0.000110
 49
-0.000055
  0
LTYPE
  2
CENTER
 70
    64
  3
____ _ ____ _ ____ _ ____ _ ____ _ ____ _ ____
 72
    65
 73
     4
 40
0.000880
 49
0.000550
 49
-0.000110
 49
0.000110
 49
-0.000110
  0
LTYPE
  2
PHANTOM
 70
    64
  3
_____ _ _ _____ _ _ _____ _ _ _____ _ _ ____
 72
    65
 73
     6
 40
0.001100
 49
0.000550
 49
-0.000110
 49
0.000110
 49
-0.000110
 49
0.000110
 49
-0.000110
  0
LTYPE
  2
DOT
 70
    64
  3
...............................................
 72
    65
 73
     2
 40
0.000110
 49
0.000000
 49
-0.000110
  0
LTYPE
  2
DASHDOT
 70
    64
  3
__ . __ . __ . __ . __ . __ . __ . __ . __ . __
 72
    65
 73
     4
 40
0.000440
 49
0.000220
 49
-0.000110
 49
0.000000
 49
-0.000110
  0
LTYPE
  2
BORDER
 70
    64
  3
__ __ . __ __ . __ __ . __ __ . __ __ . __ __
 72
    65
 73
     6
 40
0.000770
 49
0.000220
 49
-0.000110
 49
0.000220
 49
-0.000110
 49
0.000000
 49
-0.000110
  0
LTYPE
  2
DIVIDE
 70
    64
  3
__ . . __ . . __ . . __ . . __ . . __ . . __
 72
    65
 73
     6
 40
0.000550
 49
0.000220
 49
-0.000110
 49
0.000000
 49
-0.000110
 49
0.000000
 49
-0.000110
  0
LTYPE
  2
DOTDOT
 70
    64
  3
 . .  . .  . .  . .  . .  . . 
 72
    65
 73
     5
 40
0.000242
 49
-0.000110
 49
0.000000
 49
-0.000110
 49
0.000000
 49
-0.000110
  0
ENDTAB
  0
TABLE
  2
STYLE
 70
     2
  0
STYLE
 70
     0
  2
SN0
 40
0.000000
 41
0.000440
 50
0.000000
 71
     0
 42
0.000000
  3
ROMAND
  0
STYLE
 70
    68
  2
SV0
 40
0.000000
 41
0.000440
 50
0.000000
 71
     0
 42
0.000000
  3
ROMAND
  0
ENDTAB
  0
TABLE
  2
LAYER
 70
     3
  0
LAYER
  2
FOREGROUND
 70
    64
 62
     7
  6
CONTINUOUS
  0
LAYER
  2
BACKGROUND
 70
    65
 62
    -7
  6
CONTINUOUS
  0
LAYER
  2
0
 70
    64
 62
     7
  6
CONTINUOUS
  0
ENDTAB
  0
ENDSEC
  0
SECTION
  2
ENTITIES
  0
POLYLINE
  8
FOREGROUND
  6
CONTINUOUS
 66
     1
 40
0.000000
 41
0.000000
  0
VERTEX
  8
FOREGROUND
  6
CONTINUOUS
 10
0.000000
 20
4.663120
  0
VERTEX
  8
FOREGROUND
  6
CONTINUOUS
 10
8.499920
 20
4.663120
  0
VERTEX
  8
FOREGROUND
  6
CONTINUOUS
 10
8.499920
 20
-6.336880
  0
VERTEX
  8
FOREGROUND
  6
CONTINUOUS
 10
0.000000
 20
-6.336880
  0
VERTEX
  8
FOREGROUND
  6
CONTINUOUS
 10
0.000000
 20
4.663120
  0
SEQEND
  8
0
  0
POLYLINE
  8
FOREGROUND
  6
CONTINUOUS
 66
     1
 40
0.000000
 41
0.000000
  0
VERTEX
  8
FOREGROUND
  6
CONTINUOUS
 10
0.000000
 20
4.663120
  0
VERTEX
  8
FOREGROUND
  6
CONTINUOUS
 10
8.499920
 20
4.663120
  0
VERTEX
  8
FOREGROUND
  6
CONTINUOUS
 10
8.499920
 20
-6.336880
  0
VERTEX
  8
FOREGROUND
  6
CONTINUOUS
 10
0.000000
 20
-6.336880
  0
VERTEX
  8
FOREGROUND
  6
CONTINUOUS
 10
0.000000
 20
4.663120
  0
SEQEND
  8
0
  0
POLYLINE
  8
0
  6
CONTINUOUS
 66
     1
 40
0.014080
 41
0.014080
  0
VERTEX
  8
0
  6
CONTINUOUS
 10
4.312440
 20
3.063720
  0
VERTEX
  8
0
  6
CONTINUOUS
 10
4.324320
 20
3.140720
  0
VERTEX
  8
0
  6
CONTINUOUS
 10
4.341040
 20
3.215080
  0
VERTEX
  8
0
  6
CONTINUOUS
 10
4.362600
 20
3.286360
  0
VERTEX
  8
0
  6
CONTINUOUS
 10
4.374920
 20
3.320680
  0
VERTEX
  8
0
  6
CONTINUOUS
 10
4.403080
 20
3.386240
  0
VERTEX
  8
0
  6
CONTINUOUS
 10
4.418920
 20
3.417920
  0
VERTEX
  8
0
  6
CONTINUOUS
 10
4.454120
 20
3.477320
  0
VERTEX
  8
0
  6
CONTINUOUS
 10
4.493720
 20
3.532760
  0
VERTEX
  8
0
  6
CONTINUOUS
 10
4.514840
 20
3.558720
  0
VERTEX
  8
0
  6
CONTINUOUS
 10
4.561040
 20
3.606240
  0
VERTEX
  8
0
  6
CONTINUOUS
 10
4.611200
 20
3.648920
  0
VERTEX
  8
0
  6
CONTINUOUS
 10
4.638040
 20
3.668280
  0
VERTEX
  8
0
  6
CONTINUOUS
 10
4.694360
 20
3.702160
  0
VERTEX
  8
0
  6
CONTINUOUS
 10
4.724280
 20
3.717120
  0
VERTEX
  8
0
  6
CONTINUOUS
 10
4.755080
 20
3.730320
  0
VERTEX
  8
0
  6
CONTINUOUS
 10
4.786760
 20
3.741760
  0
VERTEX
  8
0
  6
CONTINUOUS
 10
4.819760
 20
3.751880
  0
VERTEX
  8
0
  6
CONTINUOUS
 10
4.853200
 20
3.759800
  0
VERTEX
  8
0
  6
CONTINUOUS
 10
4.887960
 20
3.766400
  0
VERTEX
  8
0
  6
CONTINUOUS
 10
4.960560
 20
3.773880
  0
VERTEX
  8
0
  6
CONTINUOUS
 10
4.997960
 20
3.774760
  0
VERTEX
  8
0
  6
CONTINUOUS
 10
5.036680
 20
3.773880
  0
VERTEX
  8
0
  6
CONTINUOUS
 10
5.071440
 20
3.944160
  0
VERTEX
  8
0
  6
CONTINUOUS
 10
6.999520
 20
3.944160
  0
VERTEX
  8
0
  6
CONTINUOUS
 10
7.007000
 20
3.897080
  0
VERTEX
  8
0
  6
CONTINUOUS
 10
7.018000
 20
3.847800
  0
VERTEX
  8
0
  6
CONTINUOUS
 10
7.041320
 20
3.773000
  0
VERTEX
  8
0
  6
CONTINUOUS
 10
7.061560
 20
3.722840
  0
VERTEX
  8
0
  6
CONTINUOUS
 10
7.086200
 20
3.673120
  0
VERTEX
  8
0
  6
CONTINUOUS
 10
7.114800
 20
3.624720
  0
VERTEX
  8
0
  6
CONTINUOUS
 10
7.147360
 20
3.578080
  0
VERTEX
  8
0
  6
CONTINUOUS
 10
7.184760
 20
3.533640
  0
VERTEX
  8
0
  6
CONTINUOUS
 10
7.226560
 20
3.492280
  0
VERTEX
  8
0
  6
CONTINUOUS
 10
7.273640
 20
3.454440
  0
VERTEX
  8
0
  6
CONTINUOUS
 10
7.325560
 20
3.421000
  0
VERTEX
  8
0
  6
CONTINUOUS
 10
7.382320
 20
3.391960
  0
VERTEX
  8
0
  6
CONTINUOUS
 10
7.444800
 20
3.368640
  0
VERTEX
  8
0
  6
CONTINUOUS
 10
7.512560
 20
3.351480
  0
VERTEX
  8
0
  6
CONTINUOUS
 10
7.548640
 20
3.344880
  0
VERTEX
  8
0
  6
CONTINUOUS
 10
7.586040
 20
3.340480
  0
VERTEX
  8
0
  6
CONTINUOUS
 10
7.625200
 20
3.337840
  0
VERTEX
  8
0
  6
CONTINUOUS
 10
7.625200
 20
3.063720
  0
VERTEX
  8
0
  6
CONTINUOUS
 10
4.312440
 20
3.063720
  0
SEQEND
  8
0
  0
SOLID
  8
0
 62
    15
 10
6.660280
 20
1.779800
 11
7.304000
 21
2.153360
 12
6.691080
 22
1.731840
 13
7.334800
 23
2.105840
  0
POLYLINE
  8
0
  6
CONTINUOUS
 66
     1
 40
0.000000
 41
0.000000
  0
VERTEX
  8
0
  6
CONTINUOUS
 10
6.660280
 20
1.779800
  0
VERTEX
  8
0
  6
CONTINUOUS
 10
7.304000
 20
2.153360
  0
VERTEX
  8
0
  6
CONTINUOUS
 10
7.334800
 20
2.105840
  0
VERTEX
  8
0
  6
CONTINUOUS
 10
6.691080
 20
1.731840
  0
VERTEX
  8
0
  6
CONTINUOUS
 10
6.660280
 20
1.779800
  0
SEQEND
  8
0
  0
SOLID
  8
0
 62
    15
 10
4.254800
 20
1.833040
 11
4.898520
 21
2.207040
 12
4.315520
 22
1.860760
 13
4.959240
 23
2.234760
  0
POLYLINE
  8
0
  6
CONTINUOUS
 66
     1
 40
0.000000
 41
0.000000
  0
VERTEX
  8
0
  6
CONTINUOUS
 10
4.254800
 20
1.833040
  0
VERTEX
  8
0
  6
CONTINUOUS
 10
4.898520
 20
2.207040
  0
VERTEX
  8
0
  6
CONTINUOUS
 10
4.959240
 20
2.234760
  0
VERTEX
  8
0
  6
CONTINUOUS
 10
4.315520
 20
1.860760
  0
VERTEX
  8
0
  6
CONTINUOUS
 10
4.254800
 20
1.833040
  0
SEQEND
  8
0
  0
SOLID
  8
0
 62
    15
 10
4.379760
 20
1.882320
 11
5.023480
 21
2.256320
 12
4.448400
 22
1.896840
 13
5.092120
 23
2.270840
  0
POLYLINE
  8
0
  6
CONTINUOUS
 66
     1
 40
0.000000
 41
0.000000
  0
VERTEX
  8
0
  6
CONTINUOUS
 10
4.379760
 20
1.882320
  0
VERTEX
  8
0
  6
CONTINUOUS
 10
5.023480
 20
2.256320
  0
VERTEX
  8
0
  6
CONTINUOUS
 10
5.092120
 20
2.270840
  0
VERTEX
  8
0
  6
CONTINUOUS
 10
4.448400
 20
1.896840
  0
VERTEX
  8
0
  6
CONTINUOUS
 10
4.379760
 20
1.882320
  0
SEQEND
  8
0
  0
SOLID
  8
0
 62
    15
 10
4.448400
 20
1.896840
 11
5.092120
 21
2.270840
 12
4.521000
 22
1.904320
 13
5.164720
 23
2.278320
  0
POLYLINE
  8
0
  6
CONTINUOUS
 66
     1
 40
0.000000
 41
0.000000
  0
VERTEX
  8
0
  6
CONTINUOUS
 10
4.448400
 20
1.896840
  0
VERTEX
  8
0
  6
CONTINUOUS
 10
5.092120
 20
2.270840
  0
VERTEX
  8
0
  6
CONTINUOUS
 10
5.164720
 20
2.278320
  0
VERTEX
  8
0
  6
CONTINUOUS
 10
4.521000
 20
1.904320
  0
VERTEX
  8
0
  6
CONTINUOUS
 10
4.448400
 20
1.896840
  0
SEQEND
  8
0
  0
SOLID
  8
0
 62
    15
 10
4.521000
 20
1.904320
 11
5.164720
 21
2.278320
 12
4.597120
 22
1.904320
 13
5.240840
 23
2.278320
  0
POLYLINE
  8
0
  6
CONTINUOUS
 66
     1
 40
0.000000
 41
0.000000
  0
VERTEX
  8
0
  6
CONTINUOUS
 10
4.521000
 20
1.904320
  0
VERTEX
  8
0
  6
CONTINUOUS
 10
5.164720
 20
2.278320
  0
VERTEX
  8
0
  6
CONTINUOUS
 10
5.240840
 20
2.278320
  0
VERTEX
  8
0
  6
CONTINUOUS
 10
4.597120
 20
1.904320
  0
VERTEX
  8
0
  6
CONTINUOUS
 10
4.521000
 20
1.904320
  0
SEQEND
  8
0
  0
SOLID
  8
0
 62
    15
 10
4.315520
 20
1.860760
 11
4.959240
 21
2.234760
 12
4.379760
 22
1.882320
 13
5.023480
 23
2.256320
  0
POLYLINE
  8
0
  6
CONTINUOUS
 66
     1
 40
0.000000
 41
0.000000
  0
VERTEX
  8
0
  6
CONTINUOUS
 10
4.315520
 20
1.860760
  0
VERTEX
  8
0
  6
CONTINUOUS
 10
4.959240
 20
2.234760
  0
VERTEX
  8
0
  6
CONTINUOUS
 10
5.023480
 20
2.256320
  0
VERTEX
  8
0
  6
CONTINUOUS
 10
4.379760
 20
1.882320
  0
VERTEX
  8
0
  6
CONTINUOUS
 10
4.315520
 20
1.860760
  0
SEQEND
  8
0
  0
SOLID
  8
0
 62
    15
 10
6.560400
 20
2.075040
 11
7.204120
 21
2.449040
 12
6.578880
 22
1.978680
 13
7.222600
 23
2.352680
  0
POLYLINE
  8
0
  6
CONTINUOUS
 66
     1
 40
0.000000
 41
0.000000
  0
VERTEX
  8
0
  6
CONTINUOUS
 10
6.560400
 20
2.075040
  0
VERTEX
  8
0
  6
CONTINUOUS
 10
7.204120
 20
2.449040
  0
VERTEX
  8
0
  6
CONTINUOUS
 10
7.222600
 20
2.352680
  0
VERTEX
  8
0
  6
CONTINUOUS
 10
6.578880
 20
1.978680
  0
VERTEX
  8
0
  6
CONTINUOUS
 10
6.560400
 20
2.075040
  0
SEQEND
  8
0
  0
SOLID
  8
0
 62
    15
 10
6.578880
 20
1.978680
 11
7.222600
 21
2.352680
 12
6.611440
 22
1.878800
 13
7.255600
 23
2.252800
  0
POLYLINE
  8
0
  6
CONTINUOUS
 66
     1
 40
0.000000
 41
0.000000
  0
VERTEX
  8
0
  6
CONTINUOUS
 10
6.578880
 20
1.978680
  0
VERTEX
  8
0
  6
CONTINUOUS
 10
7.222600
 20
2.352680
  0
VERTEX
  8
0
  6
CONTINUOUS
 10
7.255600
 20
2.252800
  0
VERTEX
  8
0
  6
CONTINUOUS
 10
6.611440
 20
1.878800
  0
VERTEX
  8
0
  6
CONTINUOUS
 10
6.578880
 20
1.978680
  0
SEQEND
  8
0
  0
SOLID
  8
0
 62
    15
 10
6.611440
 20
1.878800
 11
7.255600
 21
2.252800
 12
6.633880
 22
1.828640
 13
7.277600
 23
2.202640
  0
POLYLINE
  8
0
  6
CONTINUOUS
 66
     1
 40
0.000000
 41
0.000000
  0
VERTEX
  8
0
  6
CONTINUOUS
 10
6.611440
 20
1.878800
  0
VERTEX
  8
0
  6
CONTINUOUS
 10
7.255600
 20
2.252800
  0
VERTEX
  8
0
  6
CONTINUOUS
 10
7.277600
 20
2.202640
  0
VERTEX
  8
0
  6
CONTINUOUS
 10
6.633880
 20
1.828640
  0
VERTEX
  8
0
  6
CONTINUOUS
 10
6.611440
 20
1.878800
  0
SEQEND
  8
0
  0
SOLID
  8
0
 62
    15
 10
6.633880
 20
1.828640
 11
7.277600
 21
2.202640
 12
6.660280
 22
1.779800
 13
7.304000
 23
2.153360
  0
POLYLINE
  8
0
  6
CONTINUOUS
 66
     1
 40
0.000000
 41
0.000000
  0
VERTEX
  8
0
  6
CONTINUOUS
 10
6.633880
 20
1.828640
  0
VERTEX
  8
0
  6
CONTINUOUS
 10
7.277600
 20
2.202640
  0
VERTEX
  8
0
  6
CONTINUOUS
 10
7.304000
 20
2.153360
  0
VERTEX
  8
0
  6
CONTINUOUS
 10
6.660280
 20
1.779800
  0
VERTEX
  8
0
  6
CONTINUOUS
 10
6.633880
 20
1.828640
  0
SEQEND
  8
0
  0
SOLID
  8
0
 62
    15
 10
4.631880
 20
2.075040
 11
5.275600
 21
2.449040
 12
6.560400
 22
2.075040
 13
7.204120
 23
2.449040
  0
POLYLINE
  8
0
  6
CONTINUOUS
 66
     1
 40
0.000000
 41
0.000000
  0
VERTEX
  8
0
  6
CONTINUOUS
 10
4.631880
 20
2.075040
  0
VERTEX
  8
0
  6
CONTINUOUS
 10
5.275600
 20
2.449040
  0
VERTEX
  8
0
  6
CONTINUOUS
 10
7.204120
 20
2.449040
  0
VERTEX
  8
0
  6
CONTINUOUS
 10
6.560400
 20
2.075040
  0
VERTEX
  8
0
  6
CONTINUOUS
 10
4.631880
 20
2.075040
  0
SEQEND
  8
0
  0
SOLID
  8
0
 62
    15
 10
6.691080
 20
1.731840
 11
7.334800
 21
2.105840
 12
6.725840
 22
1.686080
 13
7.369560
 23
2.060080
  0
POLYLINE
  8
0
  6
CONTINUOUS
 66
     1
 40
0.000000
 41
0.000000
  0
VERTEX
  8
0
  6
CONTINUOUS
 10
6.691080
 20
1.731840
  0
VERTEX
  8
0
  6
CONTINUOUS
 10
7.334800
 20
2.105840
  0
VERTEX
  8
0
  6
CONTINUOUS
 10
7.369560
 20
2.060080
  0
VERTEX
  8
0
  6
CONTINUOUS
 10
6.725840
 20
1.686080
  0
VERTEX
  8
0
  6
CONTINUOUS
 10
6.691080
 20
1.731840
  0
SEQEND
  8
0
  0
SOLID
  8
0
 62
    15
 10
6.725840
 20
1.686080
 11
7.369560
 21
2.060080
 12
6.765440
 22
1.643400
 13
7.409160
 23
2.017400
  0
POLYLINE
  8
0
  6
CONTINUOUS
 66
     1
 40
0.000000
 41
0.000000
  0
VERTEX
  8
0
  6
CONTINUOUS
 10
6.725840
 20
1.686080
  0
VERTEX
  8
0
  6
CONTINUOUS
 10
7.369560
 20
2.060080
  0
VERTEX
  8
0
  6
CONTINUOUS
 10
7.409160
 20
2.017400
  0
VERTEX
  8
0
  6
CONTINUOUS
 10
6.765440
 20
1.643400
  0
VERTEX
  8
0
  6
CONTINUOUS
 10
6.725840
 20
1.686080
  0
SEQEND
  8
0
  0
SOLID
  8
0
 62
    15
 10
6.765440
 20
1.643400
 11
7.409160
 21
2.017400
 12
6.809880
 22
1.603800
 13
7.453600
 23
1.977800
  0
POLYLINE
  8
0
  6
CONTINUOUS
 66
     1
 40
0.000000
 41
0.000000
  0
VERTEX
  8
0
  6
CONTINUOUS
 10
6.765440
 20
1.643400
  0
VERTEX
  8
0
  6
CONTINUOUS
 10
7.409160
 20
2.017400
  0
VERTEX
  8
0
  6
CONTINUOUS
 10
7.453600
 20
1.977800
  0
VERTEX
  8
0
  6
CONTINUOUS
 10
6.809880
 20
1.603800
  0
VERTEX
  8
0
  6
CONTINUOUS
 10
6.765440
 20
1.643400
  0
SEQEND
  8
0
  0
SOLID
  8
0
 62
    15
 10
6.809880
 20
1.603800
 11
7.453600
 21
1.977800
 12
6.859160
 22
1.567720
 13
7.502880
 23
1.941720
  0
POLYLINE
  8
0
  6
CONTINUOUS
 66
     1
 40
0.000000
 41
0.000000
  0
VERTEX
  8
0
  6
CONTINUOUS
 10
6.809880
 20
1.603800
  0
VERTEX
  8
0
  6
CONTINUOUS
 10
7.453600
 20
1.977800
  0
VERTEX
  8
0
  6
CONTINUOUS
 10
7.502880
 20
1.941720
  0
VERTEX
  8
0
  6
CONTINUOUS
 10
6.859160
 20
1.567720
  0
VERTEX
  8
0
  6
CONTINUOUS
 10
6.809880
 20
1.603800
  0
SEQEND
  8
0
  0
SOLID
  8
0
 62
    15
 10
6.859160
 20
1.567720
 11
7.502880
 21
1.941720
 12
6.913720
 22
1.536480
 13
7.557440
 23
1.910480
  0
POLYLINE
  8
0
  6
CONTINUOUS
 66
     1
 40
0.000000
 41
0.000000
  0
VERTEX
  8
0
  6
CONTINUOUS
 10
6.859160
 20
1.567720
  0
VERTEX
  8
0
  6
CONTINUOUS
 10
7.502880
 20
1.941720
  0
VERTEX
  8
0
  6
CONTINUOUS
 10
7.557440
 20
1.910480
  0
VERTEX
  8
0
  6
CONTINUOUS
 10
6.913720
 20
1.536480
  0
VERTEX
  8
0
  6
CONTINUOUS
 10
6.859160
 20
1.567720
  0
SEQEND
  8
0
  0
SOLID
  8
0
 62
    15
 10
6.913720
 20
1.536480
 11
7.557440
 21
1.910480
 12
6.973120
 22
1.510520
 13
7.616840
 23
1.884520
  0
POLYLINE
  8
0
  6
CONTINUOUS
 66
     1
 40
0.000000
 41
0.000000
  0
VERTEX
  8
0
  6
CONTINUOUS
 10
6.913720
 20
1.536480
  0
VERTEX
  8
0
  6
CONTINUOUS
 10
7.557440
 20
1.910480
  0
VERTEX
  8
0
  6
CONTINUOUS
 10
7.616840
 20
1.884520
  0
VERTEX
  8
0
  6
CONTINUOUS
 10
6.973120
 20
1.510520
  0
VERTEX
  8
0
  6
CONTINUOUS
 10
6.913720
 20
1.536480
  0
SEQEND
  8
0
  0
SOLID
  8
0
 62
    15
 10
6.973120
 20
1.510520
 11
7.616840
 21
1.884520
 12
7.038240
 22
1.489840
 13
7.681960
 23
1.863840
  0
POLYLINE
  8
0
  6
CONTINUOUS
 66
     1
 40
0.000000
 41
0.000000
  0
VERTEX
  8
0
  6
CONTINUOUS
 10
6.973120
 20
1.510520
  0
VERTEX
  8
0
  6
CONTINUOUS
 10
7.616840
 20
1.884520
  0
VERTEX
  8
0
  6
CONTINUOUS
 10
7.681960
 20
1.863840
  0
VERTEX
  8
0
  6
CONTINUOUS
 10
7.038240
 20
1.489840
  0
VERTEX
  8
0
  6
CONTINUOUS
 10
6.973120
 20
1.510520
  0
SEQEND
  8
0
  0
SOLID
  8
0
 62
    15
 10
7.038240
 20
1.489840
 11
7.681960
 21
1.863840
 12
7.109080
 22
1.475760
 13
7.752800
 23
1.849760
  0
POLYLINE
  8
0
  6
CONTINUOUS
 66
     1
 40
0.000000
 41
0.000000
  0
VERTEX
  8
0
  6
CONTINUOUS
 10
7.038240
 20
1.489840
  0
VERTEX
  8
0
  6
CONTINUOUS
 10
7.681960
 20
1.863840
  0
VERTEX
  8
0
  6
CONTINUOUS
 10
7.752800
 20
1.849760
  0
VERTEX
  8
0
  6
CONTINUOUS
 10
7.109080
 20
1.475760
  0
VERTEX
  8
0
  6
CONTINUOUS
 10
7.038240
 20
1.489840
  0
SEQEND
  8
0
  0
SOLID
  8
0
 62
    15
 10
7.109080
 20
1.475760
 11
7.752800
 21
1.849760
 12
7.185640
 22
1.468720
 13
7.829360
 23
1.842720
  0
POLYLINE
  8
0
  6
CONTINUOUS
 66
     1
 40
0.000000
 41
0.000000
  0
VERTEX
  8
0
  6
CONTINUOUS
 10
7.109080
 20
1.475760
  0
VERTEX
  8
0
  6
CONTINUOUS
 10
7.752800
 20
1.849760
  0
VERTEX
  8
0
  6
CONTINUOUS
 10
7.829360
 20
1.842720
  0
VERTEX
  8
0
  6
CONTINUOUS
 10
7.185640
 20
1.468720
  0
VERTEX
  8
0
  6
CONTINUOUS
 10
7.109080
 20
1.475760
  0
SEQEND
  8
0
  0
SOLID
  8
0
 62
    15
 10
7.185640
 20
1.468720
 11
7.829360
 21
1.842720
 12
7.185640
 22
1.194600
 13
7.829360
 23
1.568600
  0
POLYLINE
  8
0
  6
CONTINUOUS
 66
     1
 40
0.000000
 41
0.000000
  0
VERTEX
  8
0
  6
CONTINUOUS
 10
7.185640
 20
1.468720
  0
VERTEX
  8
0
  6
CONTINUOUS
 10
7.829360
 20
1.842720
  0
VERTEX
  8
0
  6
CONTINUOUS
 10
7.829360
 20
1.568600
  0
VERTEX
  8
0
  6
CONTINUOUS
 10
7.185640
 20
1.194600
  0
VERTEX
  8
0
  6
CONTINUOUS
 10
7.185640
 20
1.468720
  0
SEQEND
  8
0
  0
POLYLINE
  8
0
  6
CONTINUOUS
 66
     1
 40
0.000000
 41
0.000000
  0
VERTEX
  8
0
  6
CONTINUOUS
 10
3.872880
 20
1.194600
  0
VERTEX
  8
0
  6
CONTINUOUS
 10
3.884760
 20
1.271600
  0
VERTEX
  8
0
  6
CONTINUOUS
 10
3.901480
 20
1.345960
  0
VERTEX
  8
0
  6
CONTINUOUS
 10
3.922600
 20
1.416800
  0
VERTEX
  8
0
  6
CONTINUOUS
 10
3.948560
 20
1.484560
  0
VERTEX
  8
0
  6
CONTINUOUS
 10
3.979360
 20
1.548360
  0
VERTEX
  8
0
  6
CONTINUOUS
 10
4.014560
 20
1.608200
  0
VERTEX
  8
0
  6
CONTINUOUS
 10
4.053720
 20
1.663200
  0
VERTEX
  8
0
  6
CONTINUOUS
 10
4.097720
 20
1.713800
  0
VERTEX
  8
0
  6
CONTINUOUS
 10
4.145680
 20
1.759120
  0
VERTEX
  8
0
  6
CONTINUOUS
 10
4.198040
 20
1.798720
  0
VERTEX
  8
0
  6
CONTINUOUS
 10
4.254800
 20
1.833040
  0
VERTEX
  8
0
  6
CONTINUOUS
 10
4.315520
 20
1.860760
  0
VERTEX
  8
0
  6
CONTINUOUS
 10
4.379760
 20
1.882320
  0
VERTEX
  8
0
  6
CONTINUOUS
 10
4.448400
 20
1.896840
  0
VERTEX
  8
0
  6
CONTINUOUS
 10
4.521000
 20
1.904320
  0
VERTEX
  8
0
  6
CONTINUOUS
 10
4.597120
 20
1.904320
  0
VERTEX
  8
0
  6
CONTINUOUS
 10
4.631880
 20
2.075040
  0
VERTEX
  8
0
  6
CONTINUOUS
 10
6.560400
 20
2.075040
  0
VERTEX
  8
0
  6
CONTINUOUS
 10
6.578880
 20
1.978680
  0
VERTEX
  8
0
  6
CONTINUOUS
 10
6.611440
 20
1.878800
  0
VERTEX
  8
0
  6
CONTINUOUS
 10
6.633880
 20
1.828640
  0
VERTEX
  8
0
  6
CONTINUOUS
 10
6.660280
 20
1.779800
  0
VERTEX
  8
0
  6
CONTINUOUS
 10
6.691080
 20
1.731840
  0
VERTEX
  8
0
  6
CONTINUOUS
 10
6.725840
 20
1.686080
  0
VERTEX
  8
0
  6
CONTINUOUS
 10
6.765440
 20
1.643400
  0
VERTEX
  8
0
  6
CONTINUOUS
 10
6.809880
 20
1.603800
  0
VERTEX
  8
0
  6
CONTINUOUS
 10
6.859160
 20
1.567720
  0
VERTEX
  8
0
  6
CONTINUOUS
 10
6.913720
 20
1.536480
  0
VERTEX
  8
0
  6
CONTINUOUS
 10
6.973120
 20
1.510520
  0
VERTEX
  8
0
  6
CONTINUOUS
 10
7.038240
 20
1.489840
  0
VERTEX
  8
0
  6
CONTINUOUS
 10
7.109080
 20
1.475760
  0
VERTEX
  8
0
  6
CONTINUOUS
 10
7.185640
 20
1.468720
  0
VERTEX
  8
0
  6
CONTINUOUS
 10
7.185640
 20
1.194600
  0
VERTEX
  8
0
  6
CONTINUOUS
 10
3.872880
 20
1.194600
  0
SEQEND
  8
0
  0
TEXT
  8
0
 10
5.555880
 20
0.946440
 40
0.138019
  1
BA  740
 41
1.000000
  7
SN0
 71
     0
 72
     5
 11
6.145857
 21
0.946440
  0
TEXT
  8
0
 10
5.353920
 20
0.755040
 40
0.138019
  1
7/8" x 3-5/16"
 41
1.000000
  7
SN0
 71
     0
 72
     5
 11
6.346513
 21
0.755040
  0
ENDSEC
  0
EOF
