  0
SECTION
  2
HEADER
  9
$ACADVER
  1
AC1006
  9
$EXTMIN
 10
2.164800
 20
4.634960
  9
$EXTMAX
 10
6.334680
 20
6.364600
  9
$LTSCALE
 40
0.044000
  9
$PDMODE
 70
    35
  9
$PDSIZE
 40
0.035200
  0
ENDSEC
  0
SECTION
  2
TABLES
  0
TABLE
  2
LTYPE
 70
     9
  0
LTYPE
  2
CONTINUOUS
 70
    64
  3
Solid line
 72
    65
 73
     0
 40
0.000000
  0
LTYPE
  2
DASHED
 70
    64
  3
__ __ __ __ __ __ __ __ __ __ __ __ __ __ __
 72
    65
 73
     2
 40
0.000330
 49
0.000220
 49
-0.000110
  0
LTYPE
  2
HIDDEN
 70
    64
  3
 _ _ _ _ _ _ _ _ _ _ _ _ _ _ _ _ _ _ _ _ _ _
 72
    65
 73
     2
 40
0.000165
 49
0.000110
 49
-0.000055
  0
LTYPE
  2
CENTER
 70
    64
  3
____ _ ____ _ ____ _ ____ _ ____ _ ____ _ ____
 72
    65
 73
     4
 40
0.000880
 49
0.000550
 49
-0.000110
 49
0.000110
 49
-0.000110
  0
LTYPE
  2
PHANTOM
 70
    64
  3
_____ _ _ _____ _ _ _____ _ _ _____ _ _ ____
 72
    65
 73
     6
 40
0.001100
 49
0.000550
 49
-0.000110
 49
0.000110
 49
-0.000110
 49
0.000110
 49
-0.000110
  0
LTYPE
  2
DOT
 70
    64
  3
...............................................
 72
    65
 73
     2
 40
0.000110
 49
0.000000
 49
-0.000110
  0
LTYPE
  2
DASHDOT
 70
    64
  3
__ . __ . __ . __ . __ . __ . __ . __ . __ . __
 72
    65
 73
     4
 40
0.000440
 49
0.000220
 49
-0.000110
 49
0.000000
 49
-0.000110
  0
LTYPE
  2
BORDER
 70
    64
  3
__ __ . __ __ . __ __ . __ __ . __ __ . __ __
 72
    65
 73
     6
 40
0.000770
 49
0.000220
 49
-0.000110
 49
0.000220
 49
-0.000110
 49
0.000000
 49
-0.000110
  0
LTYPE
  2
DIVIDE
 70
    64
  3
__ . . __ . . __ . . __ . . __ . . __ . . __
 72
    65
 73
     6
 40
0.000550
 49
0.000220
 49
-0.000110
 49
0.000000
 49
-0.000110
 49
0.000000
 49
-0.000110
  0
LTYPE
  2
DOTDOT
 70
    64
  3
 . .  . .  . .  . .  . .  . . 
 72
    65
 73
     5
 40
0.000242
 49
-0.000110
 49
0.000000
 49
-0.000110
 49
0.000000
 49
-0.000110
  0
ENDTAB
  0
TABLE
  2
STYLE
 70
     2
  0
STYLE
 70
     0
  2
SN0
 40
0.000000
 41
0.000440
 50
0.000000
 71
     0
 42
0.000000
  3
ROMAND
  0
STYLE
 70
    68
  2
SV0
 40
0.000000
 41
0.000440
 50
0.000000
 71
     0
 42
0.000000
  3
ROMAND
  0
ENDTAB
  0
TABLE
  2
LAYER
 70
     3
  0
LAYER
  2
FOREGROUND
 70
    64
 62
     7
  6
CONTINUOUS
  0
LAYER
  2
BACKGROUND
 70
    65
 62
    -7
  6
CONTINUOUS
  0
LAYER
  2
0
 70
    64
 62
     7
  6
CONTINUOUS
  0
ENDTAB
  0
ENDSEC
  0
SECTION
  2
ENTITIES
  0
POLYLINE
  8
FOREGROUND
  6
CONTINUOUS
 66
     1
 40
0.000000
 41
0.000000
  0
VERTEX
  8
FOREGROUND
  6
CONTINUOUS
 10
0.000000
 20
10.999560
  0
VERTEX
  8
FOREGROUND
  6
CONTINUOUS
 10
8.499920
 20
10.999560
  0
VERTEX
  8
FOREGROUND
  6
CONTINUOUS
 10
8.499920
 20
-0.000440
  0
VERTEX
  8
FOREGROUND
  6
CONTINUOUS
 10
0.000000
 20
-0.000440
  0
VERTEX
  8
FOREGROUND
  6
CONTINUOUS
 10
0.000000
 20
10.999560
  0
SEQEND
  8
0
  0
POLYLINE
  8
FOREGROUND
  6
CONTINUOUS
 66
     1
 40
0.000000
 41
0.000000
  0
VERTEX
  8
FOREGROUND
  6
CONTINUOUS
 10
0.000000
 20
10.999560
  0
VERTEX
  8
FOREGROUND
  6
CONTINUOUS
 10
8.499920
 20
10.999560
  0
VERTEX
  8
FOREGROUND
  6
CONTINUOUS
 10
8.499920
 20
-0.000440
  0
VERTEX
  8
FOREGROUND
  6
CONTINUOUS
 10
0.000000
 20
-0.000440
  0
VERTEX
  8
FOREGROUND
  6
CONTINUOUS
 10
0.000000
 20
10.999560
  0
SEQEND
  8
0
  0
SOLID
  8
0
 62
    15
 10
3.725480
 20
5.678640
 11
4.373600
 21
6.056160
 12
3.736040
 22
5.637280
 13
4.384600
 23
6.014800
  0
POLYLINE
  8
0
  6
CONTINUOUS
 66
     1
 40
0.000000
 41
0.000000
  0
VERTEX
  8
0
  6
CONTINUOUS
 10
3.725480
 20
5.678640
  0
VERTEX
  8
0
  6
CONTINUOUS
 10
4.373600
 20
6.056160
  0
VERTEX
  8
0
  6
CONTINUOUS
 10
4.384600
 20
6.014800
  0
VERTEX
  8
0
  6
CONTINUOUS
 10
3.736040
 20
5.637280
  0
VERTEX
  8
0
  6
CONTINUOUS
 10
3.725480
 20
5.678640
  0
SEQEND
  8
0
  0
SOLID
  8
0
 62
    15
 10
3.312320
 20
5.982240
 11
3.960880
 21
6.360200
 12
3.356760
 22
5.980040
 13
4.005320
 23
6.358000
  0
POLYLINE
  8
0
  6
CONTINUOUS
 66
     1
 40
0.000000
 41
0.000000
  0
VERTEX
  8
0
  6
CONTINUOUS
 10
3.312320
 20
5.982240
  0
VERTEX
  8
0
  6
CONTINUOUS
 10
3.960880
 20
6.360200
  0
VERTEX
  8
0
  6
CONTINUOUS
 10
4.005320
 20
6.358000
  0
VERTEX
  8
0
  6
CONTINUOUS
 10
3.356760
 20
5.980040
  0
VERTEX
  8
0
  6
CONTINUOUS
 10
3.312320
 20
5.982240
  0
SEQEND
  8
0
  0
SOLID
  8
0
 62
    15
 10
3.356760
 20
5.980040
 11
4.005320
 21
6.358000
 12
3.399440
 22
5.973440
 13
4.048000
 23
6.351400
  0
POLYLINE
  8
0
  6
CONTINUOUS
 66
     1
 40
0.000000
 41
0.000000
  0
VERTEX
  8
0
  6
CONTINUOUS
 10
3.356760
 20
5.980040
  0
VERTEX
  8
0
  6
CONTINUOUS
 10
4.005320
 20
6.358000
  0
VERTEX
  8
0
  6
CONTINUOUS
 10
4.048000
 20
6.351400
  0
VERTEX
  8
0
  6
CONTINUOUS
 10
3.399440
 20
5.973440
  0
VERTEX
  8
0
  6
CONTINUOUS
 10
3.356760
 20
5.980040
  0
SEQEND
  8
0
  0
SOLID
  8
0
 62
    15
 10
3.399440
 20
5.973440
 11
4.048000
 21
6.351400
 12
3.440800
 22
5.962880
 13
4.089360
 23
6.340840
  0
POLYLINE
  8
0
  6
CONTINUOUS
 66
     1
 40
0.000000
 41
0.000000
  0
VERTEX
  8
0
  6
CONTINUOUS
 10
3.399440
 20
5.973440
  0
VERTEX
  8
0
  6
CONTINUOUS
 10
4.048000
 20
6.351400
  0
VERTEX
  8
0
  6
CONTINUOUS
 10
4.089360
 20
6.340840
  0
VERTEX
  8
0
  6
CONTINUOUS
 10
3.440800
 20
5.962880
  0
VERTEX
  8
0
  6
CONTINUOUS
 10
3.399440
 20
5.973440
  0
SEQEND
  8
0
  0
SOLID
  8
0
 62
    15
 10
3.440800
 20
5.962880
 11
4.089360
 21
6.340840
 12
3.480840
 22
5.948360
 13
4.128960
 23
6.326320
  0
POLYLINE
  8
0
  6
CONTINUOUS
 66
     1
 40
0.000000
 41
0.000000
  0
VERTEX
  8
0
  6
CONTINUOUS
 10
3.440800
 20
5.962880
  0
VERTEX
  8
0
  6
CONTINUOUS
 10
4.089360
 20
6.340840
  0
VERTEX
  8
0
  6
CONTINUOUS
 10
4.128960
 20
6.326320
  0
VERTEX
  8
0
  6
CONTINUOUS
 10
3.480840
 20
5.948360
  0
VERTEX
  8
0
  6
CONTINUOUS
 10
3.440800
 20
5.962880
  0
SEQEND
  8
0
  0
SOLID
  8
0
 62
    15
 10
3.480840
 20
5.948360
 11
4.128960
 21
6.326320
 12
3.518680
 22
5.930320
 13
4.166800
 23
6.307840
  0
POLYLINE
  8
0
  6
CONTINUOUS
 66
     1
 40
0.000000
 41
0.000000
  0
VERTEX
  8
0
  6
CONTINUOUS
 10
3.480840
 20
5.948360
  0
VERTEX
  8
0
  6
CONTINUOUS
 10
4.128960
 20
6.326320
  0
VERTEX
  8
0
  6
CONTINUOUS
 10
4.166800
 20
6.307840
  0
VERTEX
  8
0
  6
CONTINUOUS
 10
3.518680
 20
5.930320
  0
VERTEX
  8
0
  6
CONTINUOUS
 10
3.480840
 20
5.948360
  0
SEQEND
  8
0
  0
SOLID
  8
0
 62
     7
 10
3.518680
 20
5.930320
 11
4.166800
 21
6.307840
 12
3.554320
 22
5.908320
 13
4.202440
 23
6.286280
  0
POLYLINE
  8
0
  6
CONTINUOUS
 66
     1
 40
0.000000
 41
0.000000
  0
VERTEX
  8
0
  6
CONTINUOUS
 10
3.518680
 20
5.930320
  0
VERTEX
  8
0
  6
CONTINUOUS
 10
4.166800
 20
6.307840
  0
VERTEX
  8
0
  6
CONTINUOUS
 10
4.202440
 20
6.286280
  0
VERTEX
  8
0
  6
CONTINUOUS
 10
3.554320
 20
5.908320
  0
VERTEX
  8
0
  6
CONTINUOUS
 10
3.518680
 20
5.930320
  0
SEQEND
  8
0
  0
SOLID
  8
0
 62
     7
 10
3.554320
 20
5.908320
 11
4.202440
 21
6.286280
 12
3.618120
 22
5.855520
 13
4.266680
 23
6.233480
  0
POLYLINE
  8
0
  6
CONTINUOUS
 66
     1
 40
0.000000
 41
0.000000
  0
VERTEX
  8
0
  6
CONTINUOUS
 10
3.554320
 20
5.908320
  0
VERTEX
  8
0
  6
CONTINUOUS
 10
4.202440
 20
6.286280
  0
VERTEX
  8
0
  6
CONTINUOUS
 10
4.266680
 20
6.233480
  0
VERTEX
  8
0
  6
CONTINUOUS
 10
3.618120
 20
5.855520
  0
VERTEX
  8
0
  6
CONTINUOUS
 10
3.554320
 20
5.908320
  0
SEQEND
  8
0
  0
SOLID
  8
0
 62
    15
 10
3.618120
 20
5.855520
 11
4.266680
 21
6.233480
 12
3.670920
 22
5.791720
 13
4.319480
 23
6.169680
  0
POLYLINE
  8
0
  6
CONTINUOUS
 66
     1
 40
0.000000
 41
0.000000
  0
VERTEX
  8
0
  6
CONTINUOUS
 10
3.618120
 20
5.855520
  0
VERTEX
  8
0
  6
CONTINUOUS
 10
4.266680
 20
6.233480
  0
VERTEX
  8
0
  6
CONTINUOUS
 10
4.319480
 20
6.169680
  0
VERTEX
  8
0
  6
CONTINUOUS
 10
3.670920
 20
5.791720
  0
VERTEX
  8
0
  6
CONTINUOUS
 10
3.618120
 20
5.855520
  0
SEQEND
  8
0
  0
SOLID
  8
0
 62
    15
 10
3.670920
 20
5.791720
 11
4.319480
 21
6.169680
 12
3.692480
 22
5.756080
 13
4.341040
 23
6.134040
  0
POLYLINE
  8
0
  6
CONTINUOUS
 66
     1
 40
0.000000
 41
0.000000
  0
VERTEX
  8
0
  6
CONTINUOUS
 10
3.670920
 20
5.791720
  0
VERTEX
  8
0
  6
CONTINUOUS
 10
4.319480
 20
6.169680
  0
VERTEX
  8
0
  6
CONTINUOUS
 10
4.341040
 20
6.134040
  0
VERTEX
  8
0
  6
CONTINUOUS
 10
3.692480
 20
5.756080
  0
VERTEX
  8
0
  6
CONTINUOUS
 10
3.670920
 20
5.791720
  0
SEQEND
  8
0
  0
SOLID
  8
0
 62
    15
 10
3.692480
 20
5.756080
 11
4.341040
 21
6.134040
 12
3.710960
 22
5.718240
 13
4.359080
 23
6.096200
  0
POLYLINE
  8
0
  6
CONTINUOUS
 66
     1
 40
0.000000
 41
0.000000
  0
VERTEX
  8
0
  6
CONTINUOUS
 10
3.692480
 20
5.756080
  0
VERTEX
  8
0
  6
CONTINUOUS
 10
4.341040
 20
6.134040
  0
VERTEX
  8
0
  6
CONTINUOUS
 10
4.359080
 20
6.096200
  0
VERTEX
  8
0
  6
CONTINUOUS
 10
3.710960
 20
5.718240
  0
VERTEX
  8
0
  6
CONTINUOUS
 10
3.692480
 20
5.756080
  0
SEQEND
  8
0
  0
SOLID
  8
0
 62
    15
 10
3.710960
 20
5.718240
 11
4.359080
 21
6.096200
 12
3.725480
 22
5.678640
 13
4.373600
 23
6.056160
  0
POLYLINE
  8
0
  6
CONTINUOUS
 66
     1
 40
0.000000
 41
0.000000
  0
VERTEX
  8
0
  6
CONTINUOUS
 10
3.710960
 20
5.718240
  0
VERTEX
  8
0
  6
CONTINUOUS
 10
4.359080
 20
6.096200
  0
VERTEX
  8
0
  6
CONTINUOUS
 10
4.373600
 20
6.056160
  0
VERTEX
  8
0
  6
CONTINUOUS
 10
3.725480
 20
5.678640
  0
VERTEX
  8
0
  6
CONTINUOUS
 10
3.710960
 20
5.718240
  0
SEQEND
  8
0
  0
SOLID
  8
0
 62
    15
 10
2.165680
 20
5.982240
 11
2.814240
 21
6.360200
 12
3.312320
 22
5.982240
 13
3.960880
 23
6.360200
  0
POLYLINE
  8
0
  6
CONTINUOUS
 66
     1
 40
0.000000
 41
0.000000
  0
VERTEX
  8
0
  6
CONTINUOUS
 10
2.165680
 20
5.982240
  0
VERTEX
  8
0
  6
CONTINUOUS
 10
2.814240
 20
6.360200
  0
VERTEX
  8
0
  6
CONTINUOUS
 10
3.960880
 20
6.360200
  0
VERTEX
  8
0
  6
CONTINUOUS
 10
3.312320
 20
5.982240
  0
VERTEX
  8
0
  6
CONTINUOUS
 10
2.165680
 20
5.982240
  0
SEQEND
  8
0
  0
SOLID
  8
0
 62
    15
 10
3.736040
 20
5.637280
 11
4.384600
 21
6.014800
 12
3.742640
 22
5.594160
 13
4.391200
 23
5.972120
  0
POLYLINE
  8
0
  6
CONTINUOUS
 66
     1
 40
0.000000
 41
0.000000
  0
VERTEX
  8
0
  6
CONTINUOUS
 10
3.736040
 20
5.637280
  0
VERTEX
  8
0
  6
CONTINUOUS
 10
4.384600
 20
6.014800
  0
VERTEX
  8
0
  6
CONTINUOUS
 10
4.391200
 20
5.972120
  0
VERTEX
  8
0
  6
CONTINUOUS
 10
3.742640
 20
5.594160
  0
VERTEX
  8
0
  6
CONTINUOUS
 10
3.736040
 20
5.637280
  0
SEQEND
  8
0
  0
SOLID
  8
0
 62
    15
 10
3.742640
 20
5.594160
 11
4.391200
 21
5.972120
 12
3.744840
 22
5.550160
 13
4.393400
 23
5.927680
  0
POLYLINE
  8
0
  6
CONTINUOUS
 66
     1
 40
0.000000
 41
0.000000
  0
VERTEX
  8
0
  6
CONTINUOUS
 10
3.742640
 20
5.594160
  0
VERTEX
  8
0
  6
CONTINUOUS
 10
4.391200
 20
5.972120
  0
VERTEX
  8
0
  6
CONTINUOUS
 10
4.393400
 20
5.927680
  0
VERTEX
  8
0
  6
CONTINUOUS
 10
3.744840
 20
5.550160
  0
VERTEX
  8
0
  6
CONTINUOUS
 10
3.742640
 20
5.594160
  0
SEQEND
  8
0
  0
SOLID
  8
0
 62
    15
 10
3.744840
 20
5.550160
 11
4.393400
 21
5.927680
 12
3.742640
 22
5.505720
 13
4.391200
 23
5.883680
  0
POLYLINE
  8
0
  6
CONTINUOUS
 66
     1
 40
0.000000
 41
0.000000
  0
VERTEX
  8
0
  6
CONTINUOUS
 10
3.744840
 20
5.550160
  0
VERTEX
  8
0
  6
CONTINUOUS
 10
4.393400
 20
5.927680
  0
VERTEX
  8
0
  6
CONTINUOUS
 10
4.391200
 20
5.883680
  0
VERTEX
  8
0
  6
CONTINUOUS
 10
3.742640
 20
5.505720
  0
VERTEX
  8
0
  6
CONTINUOUS
 10
3.744840
 20
5.550160
  0
SEQEND
  8
0
  0
SOLID
  8
0
 62
    15
 10
3.742640
 20
5.505720
 11
4.391200
 21
5.883680
 12
3.736040
 22
5.463040
 13
4.384600
 23
5.840560
  0
POLYLINE
  8
0
  6
CONTINUOUS
 66
     1
 40
0.000000
 41
0.000000
  0
VERTEX
  8
0
  6
CONTINUOUS
 10
3.742640
 20
5.505720
  0
VERTEX
  8
0
  6
CONTINUOUS
 10
4.391200
 20
5.883680
  0
VERTEX
  8
0
  6
CONTINUOUS
 10
4.384600
 20
5.840560
  0
VERTEX
  8
0
  6
CONTINUOUS
 10
3.736040
 20
5.463040
  0
VERTEX
  8
0
  6
CONTINUOUS
 10
3.742640
 20
5.505720
  0
SEQEND
  8
0
  0
SOLID
  8
0
 62
    15
 10
3.736040
 20
5.463040
 11
4.384600
 21
5.840560
 12
3.725480
 22
5.421680
 13
4.373600
 23
5.799200
  0
POLYLINE
  8
0
  6
CONTINUOUS
 66
     1
 40
0.000000
 41
0.000000
  0
VERTEX
  8
0
  6
CONTINUOUS
 10
3.736040
 20
5.463040
  0
VERTEX
  8
0
  6
CONTINUOUS
 10
4.384600
 20
5.840560
  0
VERTEX
  8
0
  6
CONTINUOUS
 10
4.373600
 20
5.799200
  0
VERTEX
  8
0
  6
CONTINUOUS
 10
3.725480
 20
5.421680
  0
VERTEX
  8
0
  6
CONTINUOUS
 10
3.736040
 20
5.463040
  0
SEQEND
  8
0
  0
SOLID
  8
0
 62
    15
 10
3.725480
 20
5.421680
 11
4.373600
 21
5.799200
 12
3.710960
 22
5.381640
 13
4.359080
 23
5.759600
  0
POLYLINE
  8
0
  6
CONTINUOUS
 66
     1
 40
0.000000
 41
0.000000
  0
VERTEX
  8
0
  6
CONTINUOUS
 10
3.725480
 20
5.421680
  0
VERTEX
  8
0
  6
CONTINUOUS
 10
4.373600
 20
5.799200
  0
VERTEX
  8
0
  6
CONTINUOUS
 10
4.359080
 20
5.759600
  0
VERTEX
  8
0
  6
CONTINUOUS
 10
3.710960
 20
5.381640
  0
VERTEX
  8
0
  6
CONTINUOUS
 10
3.725480
 20
5.421680
  0
SEQEND
  8
0
  0
SOLID
  8
0
 62
    15
 10
3.710960
 20
5.381640
 11
4.359080
 21
5.759600
 12
3.692480
 22
5.343800
 13
4.341040
 23
5.721760
  0
POLYLINE
  8
0
  6
CONTINUOUS
 66
     1
 40
0.000000
 41
0.000000
  0
VERTEX
  8
0
  6
CONTINUOUS
 10
3.710960
 20
5.381640
  0
VERTEX
  8
0
  6
CONTINUOUS
 10
4.359080
 20
5.759600
  0
VERTEX
  8
0
  6
CONTINUOUS
 10
4.341040
 20
5.721760
  0
VERTEX
  8
0
  6
CONTINUOUS
 10
3.692480
 20
5.343800
  0
VERTEX
  8
0
  6
CONTINUOUS
 10
3.710960
 20
5.381640
  0
SEQEND
  8
0
  0
SOLID
  8
0
 62
    15
 10
3.692480
 20
5.343800
 11
4.341040
 21
5.721760
 12
3.670920
 22
5.308160
 13
4.319480
 23
5.686120
  0
POLYLINE
  8
0
  6
CONTINUOUS
 66
     1
 40
0.000000
 41
0.000000
  0
VERTEX
  8
0
  6
CONTINUOUS
 10
3.692480
 20
5.343800
  0
VERTEX
  8
0
  6
CONTINUOUS
 10
4.341040
 20
5.721760
  0
VERTEX
  8
0
  6
CONTINUOUS
 10
4.319480
 20
5.686120
  0
VERTEX
  8
0
  6
CONTINUOUS
 10
3.670920
 20
5.308160
  0
VERTEX
  8
0
  6
CONTINUOUS
 10
3.692480
 20
5.343800
  0
SEQEND
  8
0
  0
SOLID
  8
0
 62
    15
 10
3.670920
 20
5.308160
 11
4.319480
 21
5.686120
 12
3.618120
 22
5.244360
 13
4.266680
 23
5.622320
  0
POLYLINE
  8
0
  6
CONTINUOUS
 66
     1
 40
0.000000
 41
0.000000
  0
VERTEX
  8
0
  6
CONTINUOUS
 10
3.670920
 20
5.308160
  0
VERTEX
  8
0
  6
CONTINUOUS
 10
4.319480
 20
5.686120
  0
VERTEX
  8
0
  6
CONTINUOUS
 10
4.266680
 20
5.622320
  0
VERTEX
  8
0
  6
CONTINUOUS
 10
3.618120
 20
5.244360
  0
VERTEX
  8
0
  6
CONTINUOUS
 10
3.670920
 20
5.308160
  0
SEQEND
  8
0
  0
SOLID
  8
0
 62
    15
 10
3.554320
 20
5.191560
 11
4.202440
 21
5.569520
 12
3.518680
 22
5.170000
 13
4.166800
 23
5.547520
  0
POLYLINE
  8
0
  6
CONTINUOUS
 66
     1
 40
0.000000
 41
0.000000
  0
VERTEX
  8
0
  6
CONTINUOUS
 10
3.554320
 20
5.191560
  0
VERTEX
  8
0
  6
CONTINUOUS
 10
4.202440
 20
5.569520
  0
VERTEX
  8
0
  6
CONTINUOUS
 10
4.166800
 20
5.547520
  0
VERTEX
  8
0
  6
CONTINUOUS
 10
3.518680
 20
5.170000
  0
VERTEX
  8
0
  6
CONTINUOUS
 10
3.554320
 20
5.191560
  0
SEQEND
  8
0
  0
SOLID
  8
0
 62
    15
 10
3.618120
 20
5.244360
 11
4.266680
 21
5.622320
 12
3.554320
 22
5.191560
 13
4.202440
 23
5.569520
  0
POLYLINE
  8
0
  6
CONTINUOUS
 66
     1
 40
0.000000
 41
0.000000
  0
VERTEX
  8
0
  6
CONTINUOUS
 10
3.618120
 20
5.244360
  0
VERTEX
  8
0
  6
CONTINUOUS
 10
4.266680
 20
5.622320
  0
VERTEX
  8
0
  6
CONTINUOUS
 10
4.202440
 20
5.569520
  0
VERTEX
  8
0
  6
CONTINUOUS
 10
3.554320
 20
5.191560
  0
VERTEX
  8
0
  6
CONTINUOUS
 10
3.618120
 20
5.244360
  0
SEQEND
  8
0
  0
POLYLINE
  8
0
  6
CONTINUOUS
 66
     1
 40
0.000000
 41
0.000000
  0
VERTEX
  8
0
  6
CONTINUOUS
 10
3.312320
 20
5.119400
  0
VERTEX
  8
0
  6
CONTINUOUS
 10
3.032040
 20
5.119400
  0
VERTEX
  8
0
  6
CONTINUOUS
 10
3.032040
 20
5.270320
  0
VERTEX
  8
0
  6
CONTINUOUS
 10
2.165680
 20
5.270320
  0
VERTEX
  8
0
  6
CONTINUOUS
 10
2.165680
 20
5.982240
  0
VERTEX
  8
0
  6
CONTINUOUS
 10
3.312320
 20
5.982240
  0
VERTEX
  8
0
  6
CONTINUOUS
 10
3.356760
 20
5.980040
  0
VERTEX
  8
0
  6
CONTINUOUS
 10
3.399440
 20
5.973440
  0
VERTEX
  8
0
  6
CONTINUOUS
 10
3.440800
 20
5.962880
  0
VERTEX
  8
0
  6
CONTINUOUS
 10
3.480840
 20
5.948360
  0
VERTEX
  8
0
  6
CONTINUOUS
 10
3.518680
 20
5.930320
  0
VERTEX
  8
0
  6
CONTINUOUS
 10
3.554320
 20
5.908320
  0
VERTEX
  8
0
  6
CONTINUOUS
 10
3.618120
 20
5.855520
  0
VERTEX
  8
0
  6
CONTINUOUS
 10
3.670920
 20
5.791720
  0
VERTEX
  8
0
  6
CONTINUOUS
 10
3.692480
 20
5.756080
  0
VERTEX
  8
0
  6
CONTINUOUS
 10
3.710960
 20
5.718240
  0
VERTEX
  8
0
  6
CONTINUOUS
 10
3.725480
 20
5.678640
  0
VERTEX
  8
0
  6
CONTINUOUS
 10
3.736040
 20
5.637280
  0
VERTEX
  8
0
  6
CONTINUOUS
 10
3.742640
 20
5.594160
  0
VERTEX
  8
0
  6
CONTINUOUS
 10
3.744840
 20
5.550160
  0
VERTEX
  8
0
  6
CONTINUOUS
 10
3.742640
 20
5.505720
  0
VERTEX
  8
0
  6
CONTINUOUS
 10
3.736040
 20
5.463040
  0
VERTEX
  8
0
  6
CONTINUOUS
 10
3.725480
 20
5.421680
  0
VERTEX
  8
0
  6
CONTINUOUS
 10
3.710960
 20
5.381640
  0
VERTEX
  8
0
  6
CONTINUOUS
 10
3.692480
 20
5.343800
  0
VERTEX
  8
0
  6
CONTINUOUS
 10
3.670920
 20
5.308160
  0
VERTEX
  8
0
  6
CONTINUOUS
 10
3.618120
 20
5.244360
  0
VERTEX
  8
0
  6
CONTINUOUS
 10
3.554320
 20
5.191560
  0
VERTEX
  8
0
  6
CONTINUOUS
 10
3.518680
 20
5.170000
  0
VERTEX
  8
0
  6
CONTINUOUS
 10
3.480840
 20
5.151520
  0
VERTEX
  8
0
  6
CONTINUOUS
 10
3.440800
 20
5.137000
  0
VERTEX
  8
0
  6
CONTINUOUS
 10
3.399440
 20
5.126440
  0
VERTEX
  8
0
  6
CONTINUOUS
 10
3.356760
 20
5.119840
  0
VERTEX
  8
0
  6
CONTINUOUS
 10
3.312320
 20
5.117640
  0
VERTEX
  8
0
  6
CONTINUOUS
 10
3.312320
 20
5.119400
  0
SEQEND
  8
0
  0
TEXT
  8
0
 10
2.984960
 20
4.869920
 40
0.137993
  1
BA  739
 41
1.000000
  7
SN0
 71
     0
 72
     5
 11
3.574581
 21
4.869920
  0
TEXT
  8
0
 10
2.783000
 20
4.678080
 40
0.137993
  1
7/8" x 1-9/16"
 41
1.000000
  7
SN0
 71
     0
 72
     5
 11
3.774806
 21
4.678080
  0
POLYLINE
  8
0
  6
CONTINUOUS
 66
     1
 40
0.014080
 41
0.014080
  0
VERTEX
  8
0
  6
CONTINUOUS
 10
5.895120
 20
5.492080
  0
VERTEX
  8
0
  6
CONTINUOUS
 10
5.939560
 20
5.494280
  0
VERTEX
  8
0
  6
CONTINUOUS
 10
5.982240
 20
5.500880
  0
VERTEX
  8
0
  6
CONTINUOUS
 10
6.023600
 20
5.511440
  0
VERTEX
  8
0
  6
CONTINUOUS
 10
6.063640
 20
5.525960
  0
VERTEX
  8
0
  6
CONTINUOUS
 10
6.119520
 20
5.554560
  0
VERTEX
  8
0
  6
CONTINUOUS
 10
6.153840
 20
5.577880
  0
VERTEX
  8
0
  6
CONTINUOUS
 10
6.185960
 20
5.604280
  0
VERTEX
  8
0
  6
CONTINUOUS
 10
6.215440
 20
5.633760
  0
VERTEX
  8
0
  6
CONTINUOUS
 10
6.241840
 20
5.665880
  0
VERTEX
  8
0
  6
CONTINUOUS
 10
6.265160
 20
5.700200
  0
VERTEX
  8
0
  6
CONTINUOUS
 10
6.293760
 20
5.756080
  0
VERTEX
  8
0
  6
CONTINUOUS
 10
6.308280
 20
5.796120
  0
VERTEX
  8
0
  6
CONTINUOUS
 10
6.318840
 20
5.837480
  0
VERTEX
  8
0
  6
CONTINUOUS
 10
6.325440
 20
5.880160
  0
VERTEX
  8
0
  6
CONTINUOUS
 10
6.327640
 20
5.924600
  0
VERTEX
  8
0
  6
CONTINUOUS
 10
6.325440
 20
5.968600
  0
VERTEX
  8
0
  6
CONTINUOUS
 10
6.318840
 20
6.011720
  0
VERTEX
  8
0
  6
CONTINUOUS
 10
6.308280
 20
6.053080
  0
VERTEX
  8
0
  6
CONTINUOUS
 10
6.293760
 20
6.092680
  0
VERTEX
  8
0
  6
CONTINUOUS
 10
6.275280
 20
6.130520
  0
VERTEX
  8
0
  6
CONTINUOUS
 10
6.253720
 20
6.166160
  0
VERTEX
  8
0
  6
CONTINUOUS
 10
6.229080
 20
6.199600
  0
VERTEX
  8
0
  6
CONTINUOUS
 10
6.185960
 20
6.244480
  0
VERTEX
  8
0
  6
CONTINUOUS
 10
6.153840
 20
6.270880
  0
VERTEX
  8
0
  6
CONTINUOUS
 10
6.119520
 20
6.294200
  0
VERTEX
  8
0
  6
CONTINUOUS
 10
6.063640
 20
6.322800
  0
VERTEX
  8
0
  6
CONTINUOUS
 10
6.023600
 20
6.337320
  0
VERTEX
  8
0
  6
CONTINUOUS
 10
5.982240
 20
6.347880
  0
VERTEX
  8
0
  6
CONTINUOUS
 10
5.939560
 20
6.354480
  0
VERTEX
  8
0
  6
CONTINUOUS
 10
5.895120
 20
6.356680
  0
VERTEX
  8
0
  6
CONTINUOUS
 10
4.748480
 20
6.356680
  0
VERTEX
  8
0
  6
CONTINUOUS
 10
4.748480
 20
5.645200
  0
VERTEX
  8
0
  6
CONTINUOUS
 10
5.614840
 20
5.645200
  0
VERTEX
  8
0
  6
CONTINUOUS
 10
5.614840
 20
5.493840
  0
VERTEX
  8
0
  6
CONTINUOUS
 10
5.895120
 20
5.493840
  0
VERTEX
  8
0
  6
CONTINUOUS
 10
5.895120
 20
5.492080
  0
SEQEND
  8
0
  0
TEXT
  8
0
 10
5.213560
 20
5.969920
 40
0.137993
  1
BA  739
 41
1.000000
  7
SN0
 71
     0
 72
     5
 11
5.803181
 21
5.969920
  0
TEXT
  8
0
 10
5.011600
 20
5.778080
 40
0.137993
  1
7/8" x 1-9/16"
 41
1.000000
  7
SN0
 71
     0
 72
     5
 11
6.003406
 21
5.778080
  0
ENDSEC
  0
EOF
