  0
SECTION
  2
HEADER
  9
$ACADVER
  1
AC1006
  9
$EXTMIN
 10
3.340480
 20
0.653840
  9
$EXTMAX
 10
7.238440
 20
3.814800
  9
$LTSCALE
 40
0.044000
  9
$PDMODE
 70
    35
  9
$PDSIZE
 40
0.035200
  0
ENDSEC
  0
SECTION
  2
TABLES
  0
TABLE
  2
LTYPE
 70
     9
  0
LTYPE
  2
CONTINUOUS
 70
    64
  3
Solid line
 72
    65
 73
     0
 40
0.000000
  0
LTYPE
  2
DASHED
 70
    64
  3
__ __ __ __ __ __ __ __ __ __ __ __ __ __ __
 72
    65
 73
     2
 40
0.000330
 49
0.000220
 49
-0.000110
  0
LTYPE
  2
HIDDEN
 70
    64
  3
 _ _ _ _ _ _ _ _ _ _ _ _ _ _ _ _ _ _ _ _ _ _
 72
    65
 73
     2
 40
0.000165
 49
0.000110
 49
-0.000055
  0
LTYPE
  2
CENTER
 70
    64
  3
____ _ ____ _ ____ _ ____ _ ____ _ ____ _ ____
 72
    65
 73
     4
 40
0.000880
 49
0.000550
 49
-0.000110
 49
0.000110
 49
-0.000110
  0
LTYPE
  2
PHANTOM
 70
    64
  3
_____ _ _ _____ _ _ _____ _ _ _____ _ _ ____
 72
    65
 73
     6
 40
0.001100
 49
0.000550
 49
-0.000110
 49
0.000110
 49
-0.000110
 49
0.000110
 49
-0.000110
  0
LTYPE
  2
DOT
 70
    64
  3
...............................................
 72
    65
 73
     2
 40
0.000110
 49
0.000000
 49
-0.000110
  0
LTYPE
  2
DASHDOT
 70
    64
  3
__ . __ . __ . __ . __ . __ . __ . __ . __ . __
 72
    65
 73
     4
 40
0.000440
 49
0.000220
 49
-0.000110
 49
0.000000
 49
-0.000110
  0
LTYPE
  2
BORDER
 70
    64
  3
__ __ . __ __ . __ __ . __ __ . __ __ . __ __
 72
    65
 73
     6
 40
0.000770
 49
0.000220
 49
-0.000110
 49
0.000220
 49
-0.000110
 49
0.000000
 49
-0.000110
  0
LTYPE
  2
DIVIDE
 70
    64
  3
__ . . __ . . __ . . __ . . __ . . __ . . __
 72
    65
 73
     6
 40
0.000550
 49
0.000220
 49
-0.000110
 49
0.000000
 49
-0.000110
 49
0.000000
 49
-0.000110
  0
LTYPE
  2
DOTDOT
 70
    64
  3
 . .  . .  . .  . .  . .  . . 
 72
    65
 73
     5
 40
0.000242
 49
-0.000110
 49
0.000000
 49
-0.000110
 49
0.000000
 49
-0.000110
  0
ENDTAB
  0
TABLE
  2
STYLE
 70
     2
  0
STYLE
 70
     0
  2
SN0
 40
0.000000
 41
0.000440
 50
0.000000
 71
     0
 42
0.000000
  3
ROMAND
  0
STYLE
 70
    68
  2
SV0
 40
0.000000
 41
0.000440
 50
0.000000
 71
     0
 42
0.000000
  3
ROMAND
  0
ENDTAB
  0
TABLE
  2
LAYER
 70
     3
  0
LAYER
  2
FOREGROUND
 70
    64
 62
     7
  6
CONTINUOUS
  0
LAYER
  2
BACKGROUND
 70
    65
 62
    -7
  6
CONTINUOUS
  0
LAYER
  2
0
 70
    64
 62
     7
  6
CONTINUOUS
  0
ENDTAB
  0
ENDSEC
  0
SECTION
  2
ENTITIES
  0
POLYLINE
  8
FOREGROUND
  6
CONTINUOUS
 66
     1
 40
0.000000
 41
0.000000
  0
VERTEX
  8
FOREGROUND
  6
CONTINUOUS
 10
0.000000
 20
4.468640
  0
VERTEX
  8
FOREGROUND
  6
CONTINUOUS
 10
8.499920
 20
4.468640
  0
VERTEX
  8
FOREGROUND
  6
CONTINUOUS
 10
8.499920
 20
-6.531360
  0
VERTEX
  8
FOREGROUND
  6
CONTINUOUS
 10
0.000000
 20
-6.531360
  0
VERTEX
  8
FOREGROUND
  6
CONTINUOUS
 10
0.000000
 20
4.468640
  0
SEQEND
  8
0
  0
POLYLINE
  8
FOREGROUND
  6
CONTINUOUS
 66
     1
 40
0.000000
 41
0.000000
  0
VERTEX
  8
FOREGROUND
  6
CONTINUOUS
 10
0.000000
 20
4.468640
  0
VERTEX
  8
FOREGROUND
  6
CONTINUOUS
 10
8.499920
 20
4.468640
  0
VERTEX
  8
FOREGROUND
  6
CONTINUOUS
 10
8.499920
 20
-6.531360
  0
VERTEX
  8
FOREGROUND
  6
CONTINUOUS
 10
0.000000
 20
-6.531360
  0
VERTEX
  8
FOREGROUND
  6
CONTINUOUS
 10
0.000000
 20
4.468640
  0
SEQEND
  8
0
  0
POLYLINE
  8
0
  6
CONTINUOUS
 66
     1
 40
0.014080
 41
0.014080
  0
VERTEX
  8
0
  6
CONTINUOUS
 10
4.323000
 20
3.507680
  0
VERTEX
  8
0
  6
CONTINUOUS
 10
4.343240
 20
3.472480
  0
VERTEX
  8
0
  6
CONTINUOUS
 10
4.467320
 20
3.472480
  0
VERTEX
  8
0
  6
CONTINUOUS
 10
4.469960
 20
3.453560
  0
VERTEX
  8
0
  6
CONTINUOUS
 10
4.479640
 20
3.430680
  0
VERTEX
  8
0
  6
CONTINUOUS
 10
4.497240
 20
3.405600
  0
VERTEX
  8
0
  6
CONTINUOUS
 10
4.517040
 20
3.386240
  0
VERTEX
  8
0
  6
CONTINUOUS
 10
4.542560
 20
3.367760
  0
VERTEX
  8
0
  6
CONTINUOUS
 10
4.575120
 20
3.350600
  0
VERTEX
  8
0
  6
CONTINUOUS
 10
4.615160
 20
3.336080
  0
VERTEX
  8
0
  6
CONTINUOUS
 10
4.663560
 20
3.324200
  0
VERTEX
  8
0
  6
CONTINUOUS
 10
4.720320
 20
3.316280
  0
VERTEX
  8
0
  6
CONTINUOUS
 10
4.763440
 20
3.313200
  0
VERTEX
  8
0
  6
CONTINUOUS
 10
4.809200
 20
3.314960
  0
VERTEX
  8
0
  6
CONTINUOUS
 10
4.869920
 20
3.322440
  0
VERTEX
  8
0
  6
CONTINUOUS
 10
4.920520
 20
3.333440
  0
VERTEX
  8
0
  6
CONTINUOUS
 10
4.962760
 20
3.348400
  0
VERTEX
  8
0
  6
CONTINUOUS
 10
4.996640
 20
3.365560
  0
VERTEX
  8
0
  6
CONTINUOUS
 10
5.023480
 20
3.384480
  0
VERTEX
  8
0
  6
CONTINUOUS
 10
5.043720
 20
3.403840
  0
VERTEX
  8
0
  6
CONTINUOUS
 10
5.061760
 20
3.429800
  0
VERTEX
  8
0
  6
CONTINUOUS
 10
5.071440
 20
3.453560
  0
VERTEX
  8
0
  6
CONTINUOUS
 10
5.074080
 20
3.473360
  0
VERTEX
  8
0
  6
CONTINUOUS
 10
5.205640
 20
3.473360
  0
VERTEX
  8
0
  6
CONTINUOUS
 10
5.237760
 20
3.494920
  0
VERTEX
  8
0
  6
CONTINUOUS
 10
5.262400
 20
3.506360
  0
VERTEX
  8
0
  6
CONTINUOUS
 10
5.276480
 20
3.510760
  0
VERTEX
  8
0
  6
CONTINUOUS
 10
5.308160
 20
3.515600
  0
VERTEX
  8
0
  6
CONTINUOUS
 10
5.326200
 20
3.515600
  0
VERTEX
  8
0
  6
CONTINUOUS
 10
5.355680
 20
3.512080
  0
VERTEX
  8
0
  6
CONTINUOUS
 10
5.389120
 20
3.504160
  0
VERTEX
  8
0
  6
CONTINUOUS
 10
5.440600
 20
3.484800
  0
VERTEX
  8
0
  6
CONTINUOUS
 10
5.500440
 20
3.454440
  0
VERTEX
  8
0
  6
CONTINUOUS
 10
5.603840
 20
3.393280
  0
VERTEX
  8
0
  6
CONTINUOUS
 10
5.694920
 20
3.346640
  0
VERTEX
  8
0
  6
CONTINUOUS
 10
5.755200
 20
3.321120
  0
VERTEX
  8
0
  6
CONTINUOUS
 10
5.808880
 20
3.303960
  0
VERTEX
  8
0
  6
CONTINUOUS
 10
5.841000
 20
3.296480
  0
VERTEX
  8
0
  6
CONTINUOUS
 10
5.870040
 20
3.292960
  0
VERTEX
  8
0
  6
CONTINUOUS
 10
5.896000
 20
3.292960
  0
VERTEX
  8
0
  6
CONTINUOUS
 10
5.919320
 20
3.296480
  0
VERTEX
  8
0
  6
CONTINUOUS
 10
5.939560
 20
3.303520
  0
VERTEX
  8
0
  6
CONTINUOUS
 10
5.957160
 20
3.314080
  0
VERTEX
  8
0
  6
CONTINUOUS
 10
5.978280
 20
3.336520
  0
VERTEX
  8
0
  6
CONTINUOUS
 10
5.992800
 20
3.367320
  0
VERTEX
  8
0
  6
CONTINUOUS
 10
6.144160
 20
3.367320
  0
VERTEX
  8
0
  6
CONTINUOUS
 10
6.144160
 20
3.241040
  0
VERTEX
  8
0
  6
CONTINUOUS
 10
6.241400
 20
3.241040
  0
VERTEX
  8
0
  6
CONTINUOUS
 10
6.246240
 20
3.267440
  0
VERTEX
  8
0
  6
CONTINUOUS
 10
6.258120
 20
3.303080
  0
VERTEX
  8
0
  6
CONTINUOUS
 10
6.273960
 20
3.334760
  0
VERTEX
  8
0
  6
CONTINUOUS
 10
6.286720
 20
3.353240
  0
VERTEX
  8
0
  6
CONTINUOUS
 10
6.301240
 20
3.370400
  0
VERTEX
  8
0
  6
CONTINUOUS
 10
6.317080
 20
3.385800
  0
VERTEX
  8
0
  6
CONTINUOUS
 10
6.334240
 20
3.399000
  0
VERTEX
  8
0
  6
CONTINUOUS
 10
6.352720
 20
3.410880
  0
VERTEX
  8
0
  6
CONTINUOUS
 10
6.372080
 20
3.421000
  0
VERTEX
  8
0
  6
CONTINUOUS
 10
6.392320
 20
3.429360
  0
VERTEX
  8
0
  6
CONTINUOUS
 10
6.413000
 20
3.435960
  0
VERTEX
  8
0
  6
CONTINUOUS
 10
6.456560
 20
3.444320
  0
VERTEX
  8
0
  6
CONTINUOUS
 10
6.478560
 20
3.446080
  0
VERTEX
  8
0
  6
CONTINUOUS
 10
6.500560
 20
3.446080
  0
VERTEX
  8
0
  6
CONTINUOUS
 10
6.544560
 20
3.442120
  0
VERTEX
  8
0
  6
CONTINUOUS
 10
6.566120
 20
3.437720
  0
VERTEX
  8
0
  6
CONTINUOUS
 10
6.607480
 20
3.424520
  0
VERTEX
  8
0
  6
CONTINUOUS
 10
6.645320
 20
3.405160
  0
VERTEX
  8
0
  6
CONTINUOUS
 10
6.678760
 20
3.380520
  0
VERTEX
  8
0
  6
CONTINUOUS
 10
6.693720
 20
3.366000
  0
VERTEX
  8
0
  6
CONTINUOUS
 10
6.706920
 20
3.350160
  0
VERTEX
  8
0
  6
CONTINUOUS
 10
6.718360
 20
3.333000
  0
VERTEX
  8
0
  6
CONTINUOUS
 10
6.732000
 20
3.304840
  0
VERTEX
  8
0
  6
CONTINUOUS
 10
6.740800
 20
3.274040
  0
VERTEX
  8
0
  6
CONTINUOUS
 10
6.743880
 20
3.251600
  0
VERTEX
  8
0
  6
CONTINUOUS
 10
6.867520
 20
3.251600
  0
VERTEX
  8
0
  6
CONTINUOUS
 10
6.868840
 20
3.230480
  0
VERTEX
  8
0
  6
CONTINUOUS
 10
6.874120
 20
3.205840
  0
VERTEX
  8
0
  6
CONTINUOUS
 10
6.884680
 20
3.179880
  0
VERTEX
  8
0
  6
CONTINUOUS
 10
6.892160
 20
3.166680
  0
VERTEX
  8
0
  6
CONTINUOUS
 10
6.912400
 20
3.142040
  0
VERTEX
  8
0
  6
CONTINUOUS
 10
6.933080
 20
3.125760
  0
VERTEX
  8
0
  6
CONTINUOUS
 10
6.959040
 20
3.111680
  0
VERTEX
  8
0
  6
CONTINUOUS
 10
6.979720
 20
3.104200
  0
VERTEX
  8
0
  6
CONTINUOUS
 10
7.015800
 20
3.096720
  0
VERTEX
  8
0
  6
CONTINUOUS
 10
7.058480
 20
3.094080
  0
VERTEX
  8
0
  6
CONTINUOUS
 10
7.058480
 20
3.022800
  0
VERTEX
  8
0
  6
CONTINUOUS
 10
7.075200
 20
3.022360
  0
VERTEX
  8
0
  6
CONTINUOUS
 10
7.106000
 20
3.017960
  0
VERTEX
  8
0
  6
CONTINUOUS
 10
7.133720
 20
3.009160
  0
VERTEX
  8
0
  6
CONTINUOUS
 10
7.157920
 20
2.995960
  0
VERTEX
  8
0
  6
CONTINUOUS
 10
7.178160
 20
2.977920
  0
VERTEX
  8
0
  6
CONTINUOUS
 10
7.194000
 20
2.955040
  0
VERTEX
  8
0
  6
CONTINUOUS
 10
7.204560
 20
2.927760
  0
VERTEX
  8
0
  6
CONTINUOUS
 10
7.208080
 20
2.911920
  0
VERTEX
  8
0
  6
CONTINUOUS
 10
7.211160
 20
2.876720
  0
VERTEX
  8
0
  6
CONTINUOUS
 10
3.711840
 20
2.876720
  0
VERTEX
  8
0
  6
CONTINUOUS
 10
3.711840
 20
3.511200
  0
VERTEX
  8
0
  6
CONTINUOUS
 10
4.316400
 20
3.511200
  0
VERTEX
  8
0
  6
CONTINUOUS
 10
4.323000
 20
3.507680
  0
SEQEND
  8
0
  0
POLYLINE
  8
0
  6
CONTINUOUS
 66
     1
 40
0.014080
 41
0.014080
  0
VERTEX
  8
0
  6
CONTINUOUS
 10
4.353360
 20
3.511200
  0
VERTEX
  8
0
  6
CONTINUOUS
 10
4.374040
 20
3.517360
  0
VERTEX
  8
0
  6
CONTINUOUS
 10
4.393400
 20
3.527040
  0
VERTEX
  8
0
  6
CONTINUOUS
 10
4.411000
 20
3.539800
  0
VERTEX
  8
0
  6
CONTINUOUS
 10
4.432560
 20
3.563560
  0
VERTEX
  8
0
  6
CONTINUOUS
 10
4.443560
 20
3.582040
  0
VERTEX
  8
0
  6
CONTINUOUS
 10
4.451480
 20
3.601840
  0
VERTEX
  8
0
  6
CONTINUOUS
 10
4.455440
 20
3.622960
  0
VERTEX
  8
0
  6
CONTINUOUS
 10
4.455440
 20
3.646280
  0
VERTEX
  8
0
  6
CONTINUOUS
 10
4.450160
 20
3.669600
  0
VERTEX
  8
0
  6
CONTINUOUS
 10
4.440920
 20
3.691160
  0
VERTEX
  8
0
  6
CONTINUOUS
 10
4.427280
 20
3.710520
  0
VERTEX
  8
0
  6
CONTINUOUS
 10
4.410120
 20
3.726800
  0
VERTEX
  8
0
  6
CONTINUOUS
 10
4.390320
 20
3.740000
  0
VERTEX
  8
0
  6
CONTINUOUS
 10
4.367880
 20
3.749240
  0
VERTEX
  8
0
  6
CONTINUOUS
 10
4.343240
 20
3.754080
  0
VERTEX
  8
0
  6
CONTINUOUS
 10
4.330480
 20
3.754520
  0
VERTEX
  8
0
  6
CONTINUOUS
 10
4.305400
 20
3.751880
  0
VERTEX
  8
0
  6
CONTINUOUS
 10
4.282080
 20
3.743960
  0
VERTEX
  8
0
  6
CONTINUOUS
 10
4.260960
 20
3.731640
  0
VERTEX
  8
0
  6
CONTINUOUS
 10
4.242920
 20
3.715360
  0
VERTEX
  8
0
  6
CONTINUOUS
 10
4.227960
 20
3.696440
  0
VERTEX
  8
0
  6
CONTINUOUS
 10
4.216960
 20
3.674440
  0
VERTEX
  8
0
  6
CONTINUOUS
 10
4.210360
 20
3.650680
  0
VERTEX
  8
0
  6
CONTINUOUS
 10
4.209040
 20
3.626040
  0
VERTEX
  8
0
  6
CONTINUOUS
 10
4.164600
 20
3.626480
  0
VERTEX
  8
0
  6
CONTINUOUS
 10
4.106520
 20
3.632200
  0
VERTEX
  8
0
  6
CONTINUOUS
 10
4.056360
 20
3.641440
  0
VERTEX
  8
0
  6
CONTINUOUS
 10
4.014120
 20
3.654640
  0
VERTEX
  8
0
  6
CONTINUOUS
 10
3.978920
 20
3.670920
  0
VERTEX
  8
0
  6
CONTINUOUS
 10
3.950320
 20
3.689840
  0
VERTEX
  8
0
  6
CONTINUOUS
 10
3.927440
 20
3.710960
  0
VERTEX
  8
0
  6
CONTINUOUS
 10
3.905440
 20
3.741760
  0
VERTEX
  8
0
  6
CONTINUOUS
 10
3.891800
 20
3.774320
  0
VERTEX
  8
0
  6
CONTINUOUS
 10
3.885200
 20
3.807320
  0
VERTEX
  8
0
  6
CONTINUOUS
 10
3.379640
 20
3.807320
  0
VERTEX
  8
0
  6
CONTINUOUS
 10
3.359400
 20
3.804240
  0
VERTEX
  8
0
  6
CONTINUOUS
 10
3.351480
 20
3.796320
  0
VERTEX
  8
0
  6
CONTINUOUS
 10
3.348840
 20
3.787960
  0
VERTEX
  8
0
  6
CONTINUOUS
 10
3.347960
 20
3.776520
  0
VERTEX
  8
0
  6
CONTINUOUS
 10
3.349280
 20
2.875840
  0
VERTEX
  8
0
  6
CONTINUOUS
 10
3.712280
 20
2.875840
  0
VERTEX
  8
0
  6
CONTINUOUS
 10
3.713600
 20
3.511640
  0
VERTEX
  8
0
  6
CONTINUOUS
 10
4.353360
 20
3.511200
  0
SEQEND
  8
0
  0
SOLID
  8
0
 62
    15
 10
5.897320
 20
1.542640
 11
5.896440
 21
2.280080
 12
5.923280
 22
1.542640
 13
5.922400
 23
2.280080
  0
POLYLINE
  8
0
  6
CONTINUOUS
 66
     1
 40
0.000000
 41
0.000000
  0
VERTEX
  8
0
  6
CONTINUOUS
 10
5.897320
 20
1.542640
  0
VERTEX
  8
0
  6
CONTINUOUS
 10
5.896440
 20
2.280080
  0
VERTEX
  8
0
  6
CONTINUOUS
 10
5.922400
 20
2.280080
  0
VERTEX
  8
0
  6
CONTINUOUS
 10
5.923280
 20
1.542640
  0
VERTEX
  8
0
  6
CONTINUOUS
 10
5.897320
 20
1.542640
  0
SEQEND
  8
0
  0
SOLID
  8
0
 62
    15
 10
4.370960
 20
1.722600
 11
4.369640
 21
2.460040
 12
4.495040
 22
1.722600
 13
4.494160
 23
2.460040
  0
POLYLINE
  8
0
  6
CONTINUOUS
 66
     1
 40
0.000000
 41
0.000000
  0
VERTEX
  8
0
  6
CONTINUOUS
 10
4.370960
 20
1.722600
  0
VERTEX
  8
0
  6
CONTINUOUS
 10
4.369640
 20
2.460040
  0
VERTEX
  8
0
  6
CONTINUOUS
 10
4.494160
 20
2.460040
  0
VERTEX
  8
0
  6
CONTINUOUS
 10
4.495040
 20
1.722600
  0
VERTEX
  8
0
  6
CONTINUOUS
 10
4.370960
 20
1.722600
  0
SEQEND
  8
0
  0
SOLID
  8
0
 62
    15
 10
4.495040
 20
1.722600
 11
4.494160
 21
2.460040
 12
4.497680
 22
1.703240
 13
4.496800
 23
2.441120
  0
POLYLINE
  8
0
  6
CONTINUOUS
 66
     1
 40
0.000000
 41
0.000000
  0
VERTEX
  8
0
  6
CONTINUOUS
 10
4.495040
 20
1.722600
  0
VERTEX
  8
0
  6
CONTINUOUS
 10
4.494160
 20
2.460040
  0
VERTEX
  8
0
  6
CONTINUOUS
 10
4.496800
 20
2.441120
  0
VERTEX
  8
0
  6
CONTINUOUS
 10
4.497680
 20
1.703240
  0
VERTEX
  8
0
  6
CONTINUOUS
 10
4.495040
 20
1.722600
  0
SEQEND
  8
0
  0
SOLID
  8
0
 62
    15
 10
4.497680
 20
1.703240
 11
4.496800
 21
2.441120
 12
4.507360
 22
1.680360
 13
4.506040
 23
2.417800
  0
POLYLINE
  8
0
  6
CONTINUOUS
 66
     1
 40
0.000000
 41
0.000000
  0
VERTEX
  8
0
  6
CONTINUOUS
 10
4.497680
 20
1.703240
  0
VERTEX
  8
0
  6
CONTINUOUS
 10
4.496800
 20
2.441120
  0
VERTEX
  8
0
  6
CONTINUOUS
 10
4.506040
 20
2.417800
  0
VERTEX
  8
0
  6
CONTINUOUS
 10
4.507360
 20
1.680360
  0
VERTEX
  8
0
  6
CONTINUOUS
 10
4.497680
 20
1.703240
  0
SEQEND
  8
0
  0
SOLID
  8
0
 62
    15
 10
4.507360
 20
1.680360
 11
4.506040
 21
2.417800
 12
4.524960
 22
1.655280
 13
4.524080
 23
2.392720
  0
POLYLINE
  8
0
  6
CONTINUOUS
 66
     1
 40
0.000000
 41
0.000000
  0
VERTEX
  8
0
  6
CONTINUOUS
 10
4.507360
 20
1.680360
  0
VERTEX
  8
0
  6
CONTINUOUS
 10
4.506040
 20
2.417800
  0
VERTEX
  8
0
  6
CONTINUOUS
 10
4.524080
 20
2.392720
  0
VERTEX
  8
0
  6
CONTINUOUS
 10
4.524960
 20
1.655280
  0
VERTEX
  8
0
  6
CONTINUOUS
 10
4.507360
 20
1.680360
  0
SEQEND
  8
0
  0
SOLID
  8
0
 62
    15
 10
4.524960
 20
1.655280
 11
4.524080
 21
2.392720
 12
4.552240
 22
1.629760
 13
4.551360
 23
2.367200
  0
POLYLINE
  8
0
  6
CONTINUOUS
 66
     1
 40
0.000000
 41
0.000000
  0
VERTEX
  8
0
  6
CONTINUOUS
 10
4.524960
 20
1.655280
  0
VERTEX
  8
0
  6
CONTINUOUS
 10
4.524080
 20
2.392720
  0
VERTEX
  8
0
  6
CONTINUOUS
 10
4.551360
 20
2.367200
  0
VERTEX
  8
0
  6
CONTINUOUS
 10
4.552240
 20
1.629760
  0
VERTEX
  8
0
  6
CONTINUOUS
 10
4.524960
 20
1.655280
  0
SEQEND
  8
0
  0
SOLID
  8
0
 62
    15
 10
4.552240
 20
1.629760
 11
4.551360
 21
2.367200
 12
4.570280
 22
1.617440
 13
4.568960
 23
2.355320
  0
POLYLINE
  8
0
  6
CONTINUOUS
 66
     1
 40
0.000000
 41
0.000000
  0
VERTEX
  8
0
  6
CONTINUOUS
 10
4.552240
 20
1.629760
  0
VERTEX
  8
0
  6
CONTINUOUS
 10
4.551360
 20
2.367200
  0
VERTEX
  8
0
  6
CONTINUOUS
 10
4.568960
 20
2.355320
  0
VERTEX
  8
0
  6
CONTINUOUS
 10
4.570280
 20
1.617440
  0
VERTEX
  8
0
  6
CONTINUOUS
 10
4.552240
 20
1.629760
  0
SEQEND
  8
0
  0
SOLID
  8
0
 62
    15
 10
4.570280
 20
1.617440
 11
4.568960
 21
2.355320
 12
4.590960
 22
1.606000
 13
4.590080
 23
2.343440
  0
POLYLINE
  8
0
  6
CONTINUOUS
 66
     1
 40
0.000000
 41
0.000000
  0
VERTEX
  8
0
  6
CONTINUOUS
 10
4.570280
 20
1.617440
  0
VERTEX
  8
0
  6
CONTINUOUS
 10
4.568960
 20
2.355320
  0
VERTEX
  8
0
  6
CONTINUOUS
 10
4.590080
 20
2.343440
  0
VERTEX
  8
0
  6
CONTINUOUS
 10
4.590960
 20
1.606000
  0
VERTEX
  8
0
  6
CONTINUOUS
 10
4.570280
 20
1.617440
  0
SEQEND
  8
0
  0
SOLID
  8
0
 62
    15
 10
4.590960
 20
1.606000
 11
4.590080
 21
2.343440
 12
4.615160
 22
1.595440
 13
4.614280
 23
2.332880
  0
POLYLINE
  8
0
  6
CONTINUOUS
 66
     1
 40
0.000000
 41
0.000000
  0
VERTEX
  8
0
  6
CONTINUOUS
 10
4.590960
 20
1.606000
  0
VERTEX
  8
0
  6
CONTINUOUS
 10
4.590080
 20
2.343440
  0
VERTEX
  8
0
  6
CONTINUOUS
 10
4.614280
 20
2.332880
  0
VERTEX
  8
0
  6
CONTINUOUS
 10
4.615160
 20
1.595440
  0
VERTEX
  8
0
  6
CONTINUOUS
 10
4.590960
 20
1.606000
  0
SEQEND
  8
0
  0
SOLID
  8
0
 62
    15
 10
4.615160
 20
1.595440
 11
4.614280
 21
2.332880
 12
4.642880
 22
1.585760
 13
4.641560
 23
2.323200
  0
POLYLINE
  8
0
  6
CONTINUOUS
 66
     1
 40
0.000000
 41
0.000000
  0
VERTEX
  8
0
  6
CONTINUOUS
 10
4.615160
 20
1.595440
  0
VERTEX
  8
0
  6
CONTINUOUS
 10
4.614280
 20
2.332880
  0
VERTEX
  8
0
  6
CONTINUOUS
 10
4.641560
 20
2.323200
  0
VERTEX
  8
0
  6
CONTINUOUS
 10
4.642880
 20
1.585760
  0
VERTEX
  8
0
  6
CONTINUOUS
 10
4.615160
 20
1.595440
  0
SEQEND
  8
0
  0
SOLID
  8
0
 62
    15
 10
4.642880
 20
1.585760
 11
4.641560
 21
2.323200
 12
4.673680
 22
1.577400
 13
4.672800
 23
2.315280
  0
POLYLINE
  8
0
  6
CONTINUOUS
 66
     1
 40
0.000000
 41
0.000000
  0
VERTEX
  8
0
  6
CONTINUOUS
 10
4.642880
 20
1.585760
  0
VERTEX
  8
0
  6
CONTINUOUS
 10
4.641560
 20
2.323200
  0
VERTEX
  8
0
  6
CONTINUOUS
 10
4.672800
 20
2.315280
  0
VERTEX
  8
0
  6
CONTINUOUS
 10
4.673680
 20
1.577400
  0
VERTEX
  8
0
  6
CONTINUOUS
 10
4.642880
 20
1.585760
  0
SEQEND
  8
0
  0
SOLID
  8
0
 62
    15
 10
4.673680
 20
1.577400
 11
4.672800
 21
2.315280
 12
4.708880
 22
1.570800
 13
4.708000
 23
2.308680
  0
POLYLINE
  8
0
  6
CONTINUOUS
 66
     1
 40
0.000000
 41
0.000000
  0
VERTEX
  8
0
  6
CONTINUOUS
 10
4.673680
 20
1.577400
  0
VERTEX
  8
0
  6
CONTINUOUS
 10
4.672800
 20
2.315280
  0
VERTEX
  8
0
  6
CONTINUOUS
 10
4.708000
 20
2.308680
  0
VERTEX
  8
0
  6
CONTINUOUS
 10
4.708880
 20
1.570800
  0
VERTEX
  8
0
  6
CONTINUOUS
 10
4.673680
 20
1.577400
  0
SEQEND
  8
0
  0
SOLID
  8
0
 62
    15
 10
4.708880
 20
1.570800
 11
4.708000
 21
2.308680
 12
4.748040
 22
1.565960
 13
4.746720
 23
2.303840
  0
POLYLINE
  8
0
  6
CONTINUOUS
 66
     1
 40
0.000000
 41
0.000000
  0
VERTEX
  8
0
  6
CONTINUOUS
 10
4.708880
 20
1.570800
  0
VERTEX
  8
0
  6
CONTINUOUS
 10
4.708000
 20
2.308680
  0
VERTEX
  8
0
  6
CONTINUOUS
 10
4.746720
 20
2.303840
  0
VERTEX
  8
0
  6
CONTINUOUS
 10
4.748040
 20
1.565960
  0
VERTEX
  8
0
  6
CONTINUOUS
 10
4.708880
 20
1.570800
  0
SEQEND
  8
0
  0
SOLID
  8
0
 62
    15
 10
4.790720
 20
1.563320
 11
4.789840
 21
2.300760
 12
4.836920
 22
1.565080
 13
4.835600
 23
2.302520
  0
POLYLINE
  8
0
  6
CONTINUOUS
 66
     1
 40
0.000000
 41
0.000000
  0
VERTEX
  8
0
  6
CONTINUOUS
 10
4.790720
 20
1.563320
  0
VERTEX
  8
0
  6
CONTINUOUS
 10
4.789840
 20
2.300760
  0
VERTEX
  8
0
  6
CONTINUOUS
 10
4.835600
 20
2.302520
  0
VERTEX
  8
0
  6
CONTINUOUS
 10
4.836920
 20
1.565080
  0
VERTEX
  8
0
  6
CONTINUOUS
 10
4.790720
 20
1.563320
  0
SEQEND
  8
0
  0
SOLID
  8
0
 62
    15
 10
4.748040
 20
1.565960
 11
4.746720
 21
2.303840
 12
4.791160
 22
1.563320
 13
4.789840
 23
2.300760
  0
POLYLINE
  8
0
  6
CONTINUOUS
 66
     1
 40
0.000000
 41
0.000000
  0
VERTEX
  8
0
  6
CONTINUOUS
 10
4.748040
 20
1.565960
  0
VERTEX
  8
0
  6
CONTINUOUS
 10
4.746720
 20
2.303840
  0
VERTEX
  8
0
  6
CONTINUOUS
 10
4.789840
 20
2.300760
  0
VERTEX
  8
0
  6
CONTINUOUS
 10
4.791160
 20
1.563320
  0
VERTEX
  8
0
  6
CONTINUOUS
 10
4.748040
 20
1.565960
  0
SEQEND
  8
0
  0
SOLID
  8
0
 62
    15
 10
4.836920
 20
1.565080
 11
4.835600
 21
2.302520
 12
4.878280
 22
1.569480
 13
4.876960
 23
2.306920
  0
POLYLINE
  8
0
  6
CONTINUOUS
 66
     1
 40
0.000000
 41
0.000000
  0
VERTEX
  8
0
  6
CONTINUOUS
 10
4.836920
 20
1.565080
  0
VERTEX
  8
0
  6
CONTINUOUS
 10
4.835600
 20
2.302520
  0
VERTEX
  8
0
  6
CONTINUOUS
 10
4.876960
 20
2.306920
  0
VERTEX
  8
0
  6
CONTINUOUS
 10
4.878280
 20
1.569480
  0
VERTEX
  8
0
  6
CONTINUOUS
 10
4.836920
 20
1.565080
  0
SEQEND
  8
0
  0
SOLID
  8
0
 62
    15
 10
4.878280
 20
1.569480
 11
4.876960
 21
2.306920
 12
4.915240
 22
1.575640
 13
4.914360
 23
2.313080
  0
POLYLINE
  8
0
  6
CONTINUOUS
 66
     1
 40
0.000000
 41
0.000000
  0
VERTEX
  8
0
  6
CONTINUOUS
 10
4.878280
 20
1.569480
  0
VERTEX
  8
0
  6
CONTINUOUS
 10
4.876960
 20
2.306920
  0
VERTEX
  8
0
  6
CONTINUOUS
 10
4.914360
 20
2.313080
  0
VERTEX
  8
0
  6
CONTINUOUS
 10
4.915240
 20
1.575640
  0
VERTEX
  8
0
  6
CONTINUOUS
 10
4.878280
 20
1.569480
  0
SEQEND
  8
0
  0
SOLID
  8
0
 62
    15
 10
4.915240
 20
1.575640
 11
4.914360
 21
2.313080
 12
4.948240
 22
1.583560
 13
4.946920
 23
2.321000
  0
POLYLINE
  8
0
  6
CONTINUOUS
 66
     1
 40
0.000000
 41
0.000000
  0
VERTEX
  8
0
  6
CONTINUOUS
 10
4.915240
 20
1.575640
  0
VERTEX
  8
0
  6
CONTINUOUS
 10
4.914360
 20
2.313080
  0
VERTEX
  8
0
  6
CONTINUOUS
 10
4.946920
 20
2.321000
  0
VERTEX
  8
0
  6
CONTINUOUS
 10
4.948240
 20
1.583560
  0
VERTEX
  8
0
  6
CONTINUOUS
 10
4.915240
 20
1.575640
  0
SEQEND
  8
0
  0
SOLID
  8
0
 62
    15
 10
4.948240
 20
1.583560
 11
4.946920
 21
2.321000
 12
4.976840
 22
1.592800
 13
4.975960
 23
2.330680
  0
POLYLINE
  8
0
  6
CONTINUOUS
 66
     1
 40
0.000000
 41
0.000000
  0
VERTEX
  8
0
  6
CONTINUOUS
 10
4.948240
 20
1.583560
  0
VERTEX
  8
0
  6
CONTINUOUS
 10
4.946920
 20
2.321000
  0
VERTEX
  8
0
  6
CONTINUOUS
 10
4.975960
 20
2.330680
  0
VERTEX
  8
0
  6
CONTINUOUS
 10
4.976840
 20
1.592800
  0
VERTEX
  8
0
  6
CONTINUOUS
 10
4.948240
 20
1.583560
  0
SEQEND
  8
0
  0
SOLID
  8
0
 62
    15
 10
4.976840
 20
1.592800
 11
4.975960
 21
2.330680
 12
5.002360
 22
1.603800
 13
5.001480
 23
2.341240
  0
POLYLINE
  8
0
  6
CONTINUOUS
 66
     1
 40
0.000000
 41
0.000000
  0
VERTEX
  8
0
  6
CONTINUOUS
 10
4.976840
 20
1.592800
  0
VERTEX
  8
0
  6
CONTINUOUS
 10
4.975960
 20
2.330680
  0
VERTEX
  8
0
  6
CONTINUOUS
 10
5.001480
 20
2.341240
  0
VERTEX
  8
0
  6
CONTINUOUS
 10
5.002360
 20
1.603800
  0
VERTEX
  8
0
  6
CONTINUOUS
 10
4.976840
 20
1.592800
  0
SEQEND
  8
0
  0
SOLID
  8
0
 62
    15
 10
5.002360
 20
1.603800
 11
5.001480
 21
2.341240
 12
5.024360
 22
1.615240
 13
5.023040
 23
2.353120
  0
POLYLINE
  8
0
  6
CONTINUOUS
 66
     1
 40
0.000000
 41
0.000000
  0
VERTEX
  8
0
  6
CONTINUOUS
 10
5.002360
 20
1.603800
  0
VERTEX
  8
0
  6
CONTINUOUS
 10
5.001480
 20
2.341240
  0
VERTEX
  8
0
  6
CONTINUOUS
 10
5.023040
 20
2.353120
  0
VERTEX
  8
0
  6
CONTINUOUS
 10
5.024360
 20
1.615240
  0
VERTEX
  8
0
  6
CONTINUOUS
 10
5.002360
 20
1.603800
  0
SEQEND
  8
0
  0
SOLID
  8
0
 62
    15
 10
5.024360
 20
1.615240
 11
5.023040
 21
2.353120
 12
5.042840
 22
1.627560
 13
5.041960
 23
2.365440
  0
POLYLINE
  8
0
  6
CONTINUOUS
 66
     1
 40
0.000000
 41
0.000000
  0
VERTEX
  8
0
  6
CONTINUOUS
 10
5.024360
 20
1.615240
  0
VERTEX
  8
0
  6
CONTINUOUS
 10
5.023040
 20
2.353120
  0
VERTEX
  8
0
  6
CONTINUOUS
 10
5.041960
 20
2.365440
  0
VERTEX
  8
0
  6
CONTINUOUS
 10
5.042840
 20
1.627560
  0
VERTEX
  8
0
  6
CONTINUOUS
 10
5.024360
 20
1.615240
  0
SEQEND
  8
0
  0
SOLID
  8
0
 62
    15
 10
5.042840
 20
1.627560
 11
5.041960
 21
2.365440
 12
5.071000
 22
1.653960
 13
5.070120
 23
2.391400
  0
POLYLINE
  8
0
  6
CONTINUOUS
 66
     1
 40
0.000000
 41
0.000000
  0
VERTEX
  8
0
  6
CONTINUOUS
 10
5.042840
 20
1.627560
  0
VERTEX
  8
0
  6
CONTINUOUS
 10
5.041960
 20
2.365440
  0
VERTEX
  8
0
  6
CONTINUOUS
 10
5.070120
 20
2.391400
  0
VERTEX
  8
0
  6
CONTINUOUS
 10
5.071000
 20
1.653960
  0
VERTEX
  8
0
  6
CONTINUOUS
 10
5.042840
 20
1.627560
  0
SEQEND
  8
0
  0
SOLID
  8
0
 62
    15
 10
5.071000
 20
1.653960
 11
5.070120
 21
2.391400
 12
5.089040
 22
1.679920
 13
5.088160
 23
2.417360
  0
POLYLINE
  8
0
  6
CONTINUOUS
 66
     1
 40
0.000000
 41
0.000000
  0
VERTEX
  8
0
  6
CONTINUOUS
 10
5.071000
 20
1.653960
  0
VERTEX
  8
0
  6
CONTINUOUS
 10
5.070120
 20
2.391400
  0
VERTEX
  8
0
  6
CONTINUOUS
 10
5.088160
 20
2.417360
  0
VERTEX
  8
0
  6
CONTINUOUS
 10
5.089040
 20
1.679920
  0
VERTEX
  8
0
  6
CONTINUOUS
 10
5.071000
 20
1.653960
  0
SEQEND
  8
0
  0
SOLID
  8
0
 62
    15
 10
5.089040
 20
1.679920
 11
5.088160
 21
2.417360
 12
5.098720
 22
1.703680
 13
5.097840
 23
2.441120
  0
POLYLINE
  8
0
  6
CONTINUOUS
 66
     1
 40
0.000000
 41
0.000000
  0
VERTEX
  8
0
  6
CONTINUOUS
 10
5.089040
 20
1.679920
  0
VERTEX
  8
0
  6
CONTINUOUS
 10
5.088160
 20
2.417360
  0
VERTEX
  8
0
  6
CONTINUOUS
 10
5.097840
 20
2.441120
  0
VERTEX
  8
0
  6
CONTINUOUS
 10
5.098720
 20
1.703680
  0
VERTEX
  8
0
  6
CONTINUOUS
 10
5.089040
 20
1.679920
  0
SEQEND
  8
0
  0
SOLID
  8
0
 62
    15
 10
5.098720
 20
1.703680
 11
5.097840
 21
2.441120
 12
5.101360
 22
1.723040
 13
5.100480
 23
2.460920
  0
POLYLINE
  8
0
  6
CONTINUOUS
 66
     1
 40
0.000000
 41
0.000000
  0
VERTEX
  8
0
  6
CONTINUOUS
 10
5.098720
 20
1.703680
  0
VERTEX
  8
0
  6
CONTINUOUS
 10
5.097840
 20
2.441120
  0
VERTEX
  8
0
  6
CONTINUOUS
 10
5.100480
 20
2.460920
  0
VERTEX
  8
0
  6
CONTINUOUS
 10
5.101360
 20
1.723040
  0
VERTEX
  8
0
  6
CONTINUOUS
 10
5.098720
 20
1.703680
  0
SEQEND
  8
0
  0
SOLID
  8
0
 62
    15
 10
5.101360
 20
1.723040
 11
5.100480
 21
2.460920
 12
5.233360
 22
1.723040
 13
5.232480
 23
2.460920
  0
POLYLINE
  8
0
  6
CONTINUOUS
 66
     1
 40
0.000000
 41
0.000000
  0
VERTEX
  8
0
  6
CONTINUOUS
 10
5.101360
 20
1.723040
  0
VERTEX
  8
0
  6
CONTINUOUS
 10
5.100480
 20
2.460920
  0
VERTEX
  8
0
  6
CONTINUOUS
 10
5.232480
 20
2.460920
  0
VERTEX
  8
0
  6
CONTINUOUS
 10
5.233360
 20
1.723040
  0
VERTEX
  8
0
  6
CONTINUOUS
 10
5.101360
 20
1.723040
  0
SEQEND
  8
0
  0
SOLID
  8
0
 62
    15
 10
5.233360
 20
1.723040
 11
5.232480
 21
2.460920
 12
5.254040
 22
1.738000
 13
5.252720
 23
2.475440
  0
POLYLINE
  8
0
  6
CONTINUOUS
 66
     1
 40
0.000000
 41
0.000000
  0
VERTEX
  8
0
  6
CONTINUOUS
 10
5.233360
 20
1.723040
  0
VERTEX
  8
0
  6
CONTINUOUS
 10
5.232480
 20
2.460920
  0
VERTEX
  8
0
  6
CONTINUOUS
 10
5.252720
 20
2.475440
  0
VERTEX
  8
0
  6
CONTINUOUS
 10
5.254040
 20
1.738000
  0
VERTEX
  8
0
  6
CONTINUOUS
 10
5.233360
 20
1.723040
  0
SEQEND
  8
0
  0
SOLID
  8
0
 62
    15
 10
5.254040
 20
1.738000
 11
5.252720
 21
2.475440
 12
5.277360
 22
1.750760
 13
5.276040
 23
2.488640
  0
POLYLINE
  8
0
  6
CONTINUOUS
 66
     1
 40
0.000000
 41
0.000000
  0
VERTEX
  8
0
  6
CONTINUOUS
 10
5.254040
 20
1.738000
  0
VERTEX
  8
0
  6
CONTINUOUS
 10
5.252720
 20
2.475440
  0
VERTEX
  8
0
  6
CONTINUOUS
 10
5.276040
 20
2.488640
  0
VERTEX
  8
0
  6
CONTINUOUS
 10
5.277360
 20
1.750760
  0
VERTEX
  8
0
  6
CONTINUOUS
 10
5.254040
 20
1.738000
  0
SEQEND
  8
0
  0
SOLID
  8
0
 62
    15
 10
5.277360
 20
1.750760
 11
5.276040
 21
2.488640
 12
5.304200
 22
1.760440
 13
5.303320
 23
2.498320
  0
POLYLINE
  8
0
  6
CONTINUOUS
 66
     1
 40
0.000000
 41
0.000000
  0
VERTEX
  8
0
  6
CONTINUOUS
 10
5.277360
 20
1.750760
  0
VERTEX
  8
0
  6
CONTINUOUS
 10
5.276040
 20
2.488640
  0
VERTEX
  8
0
  6
CONTINUOUS
 10
5.303320
 20
2.498320
  0
VERTEX
  8
0
  6
CONTINUOUS
 10
5.304200
 20
1.760440
  0
VERTEX
  8
0
  6
CONTINUOUS
 10
5.277360
 20
1.750760
  0
SEQEND
  8
0
  0
SOLID
  8
0
 62
    15
 10
5.304200
 20
1.760440
 11
5.303320
 21
2.498320
 12
5.335440
 22
1.765280
 13
5.334560
 23
2.502720
  0
POLYLINE
  8
0
  6
CONTINUOUS
 66
     1
 40
0.000000
 41
0.000000
  0
VERTEX
  8
0
  6
CONTINUOUS
 10
5.304200
 20
1.760440
  0
VERTEX
  8
0
  6
CONTINUOUS
 10
5.303320
 20
2.498320
  0
VERTEX
  8
0
  6
CONTINUOUS
 10
5.334560
 20
2.502720
  0
VERTEX
  8
0
  6
CONTINUOUS
 10
5.335440
 20
1.765280
  0
VERTEX
  8
0
  6
CONTINUOUS
 10
5.304200
 20
1.760440
  0
SEQEND
  8
0
  0
SOLID
  8
0
 62
    15
 10
5.335440
 20
1.765280
 11
5.334560
 21
2.502720
 12
5.372840
 22
1.763520
 13
5.371960
 23
2.501400
  0
POLYLINE
  8
0
  6
CONTINUOUS
 66
     1
 40
0.000000
 41
0.000000
  0
VERTEX
  8
0
  6
CONTINUOUS
 10
5.335440
 20
1.765280
  0
VERTEX
  8
0
  6
CONTINUOUS
 10
5.334560
 20
2.502720
  0
VERTEX
  8
0
  6
CONTINUOUS
 10
5.371960
 20
2.501400
  0
VERTEX
  8
0
  6
CONTINUOUS
 10
5.372840
 20
1.763520
  0
VERTEX
  8
0
  6
CONTINUOUS
 10
5.335440
 20
1.765280
  0
SEQEND
  8
0
  0
SOLID
  8
0
 62
    15
 10
5.372840
 20
1.763520
 11
5.371960
 21
2.501400
 12
5.416400
 22
1.753840
 13
5.415520
 23
2.491280
  0
POLYLINE
  8
0
  6
CONTINUOUS
 66
     1
 40
0.000000
 41
0.000000
  0
VERTEX
  8
0
  6
CONTINUOUS
 10
5.372840
 20
1.763520
  0
VERTEX
  8
0
  6
CONTINUOUS
 10
5.371960
 20
2.501400
  0
VERTEX
  8
0
  6
CONTINUOUS
 10
5.415520
 20
2.491280
  0
VERTEX
  8
0
  6
CONTINUOUS
 10
5.416400
 20
1.753840
  0
VERTEX
  8
0
  6
CONTINUOUS
 10
5.372840
 20
1.763520
  0
SEQEND
  8
0
  0
SOLID
  8
0
 62
    15
 10
5.416400
 20
1.753840
 11
5.415520
 21
2.491280
 12
5.441040
 22
1.745480
 13
5.440160
 23
2.482920
  0
POLYLINE
  8
0
  6
CONTINUOUS
 66
     1
 40
0.000000
 41
0.000000
  0
VERTEX
  8
0
  6
CONTINUOUS
 10
5.416400
 20
1.753840
  0
VERTEX
  8
0
  6
CONTINUOUS
 10
5.415520
 20
2.491280
  0
VERTEX
  8
0
  6
CONTINUOUS
 10
5.440160
 20
2.482920
  0
VERTEX
  8
0
  6
CONTINUOUS
 10
5.441040
 20
1.745480
  0
VERTEX
  8
0
  6
CONTINUOUS
 10
5.416400
 20
1.753840
  0
SEQEND
  8
0
  0
SOLID
  8
0
 62
    15
 10
5.441040
 20
1.745480
 11
5.440160
 21
2.482920
 12
5.467880
 22
1.734480
 13
5.467000
 23
2.472360
  0
POLYLINE
  8
0
  6
CONTINUOUS
 66
     1
 40
0.000000
 41
0.000000
  0
VERTEX
  8
0
  6
CONTINUOUS
 10
5.441040
 20
1.745480
  0
VERTEX
  8
0
  6
CONTINUOUS
 10
5.440160
 20
2.482920
  0
VERTEX
  8
0
  6
CONTINUOUS
 10
5.467000
 20
2.472360
  0
VERTEX
  8
0
  6
CONTINUOUS
 10
5.467880
 20
1.734480
  0
VERTEX
  8
0
  6
CONTINUOUS
 10
5.441040
 20
1.745480
  0
SEQEND
  8
0
  0
SOLID
  8
0
 62
    15
 10
5.467880
 20
1.734480
 11
5.467000
 21
2.472360
 12
5.496920
 22
1.720840
 13
5.496040
 23
2.458280
  0
POLYLINE
  8
0
  6
CONTINUOUS
 66
     1
 40
0.000000
 41
0.000000
  0
VERTEX
  8
0
  6
CONTINUOUS
 10
5.467880
 20
1.734480
  0
VERTEX
  8
0
  6
CONTINUOUS
 10
5.467000
 20
2.472360
  0
VERTEX
  8
0
  6
CONTINUOUS
 10
5.496040
 20
2.458280
  0
VERTEX
  8
0
  6
CONTINUOUS
 10
5.496920
 20
1.720840
  0
VERTEX
  8
0
  6
CONTINUOUS
 10
5.467880
 20
1.734480
  0
SEQEND
  8
0
  0
SOLID
  8
0
 62
    15
 10
5.496920
 20
1.720840
 11
5.496040
 21
2.458280
 12
5.527720
 22
1.704120
 13
5.526840
 23
2.441560
  0
POLYLINE
  8
0
  6
CONTINUOUS
 66
     1
 40
0.000000
 41
0.000000
  0
VERTEX
  8
0
  6
CONTINUOUS
 10
5.496920
 20
1.720840
  0
VERTEX
  8
0
  6
CONTINUOUS
 10
5.496040
 20
2.458280
  0
VERTEX
  8
0
  6
CONTINUOUS
 10
5.526840
 20
2.441560
  0
VERTEX
  8
0
  6
CONTINUOUS
 10
5.527720
 20
1.704120
  0
VERTEX
  8
0
  6
CONTINUOUS
 10
5.496920
 20
1.720840
  0
SEQEND
  8
0
  0
SOLID
  8
0
 62
    15
 10
5.527720
 20
1.704120
 11
5.526840
 21
2.441560
 12
5.581400
 22
1.672000
 13
5.580080
 23
2.409440
  0
POLYLINE
  8
0
  6
CONTINUOUS
 66
     1
 40
0.000000
 41
0.000000
  0
VERTEX
  8
0
  6
CONTINUOUS
 10
5.527720
 20
1.704120
  0
VERTEX
  8
0
  6
CONTINUOUS
 10
5.526840
 20
2.441560
  0
VERTEX
  8
0
  6
CONTINUOUS
 10
5.580080
 20
2.409440
  0
VERTEX
  8
0
  6
CONTINUOUS
 10
5.581400
 20
1.672000
  0
VERTEX
  8
0
  6
CONTINUOUS
 10
5.527720
 20
1.704120
  0
SEQEND
  8
0
  0
SOLID
  8
0
 62
    15
 10
5.581400
 20
1.672000
 11
5.580080
 21
2.409440
 12
5.631560
 22
1.643400
 13
5.630240
 23
2.380840
  0
POLYLINE
  8
0
  6
CONTINUOUS
 66
     1
 40
0.000000
 41
0.000000
  0
VERTEX
  8
0
  6
CONTINUOUS
 10
5.581400
 20
1.672000
  0
VERTEX
  8
0
  6
CONTINUOUS
 10
5.580080
 20
2.409440
  0
VERTEX
  8
0
  6
CONTINUOUS
 10
5.630240
 20
2.380840
  0
VERTEX
  8
0
  6
CONTINUOUS
 10
5.631560
 20
1.643400
  0
VERTEX
  8
0
  6
CONTINUOUS
 10
5.581400
 20
1.672000
  0
SEQEND
  8
0
  0
SOLID
  8
0
 62
    15
 10
5.631560
 20
1.643400
 11
5.630240
 21
2.380840
 12
5.678640
 22
1.618320
 13
5.677320
 23
2.355760
  0
POLYLINE
  8
0
  6
CONTINUOUS
 66
     1
 40
0.000000
 41
0.000000
  0
VERTEX
  8
0
  6
CONTINUOUS
 10
5.631560
 20
1.643400
  0
VERTEX
  8
0
  6
CONTINUOUS
 10
5.630240
 20
2.380840
  0
VERTEX
  8
0
  6
CONTINUOUS
 10
5.677320
 20
2.355760
  0
VERTEX
  8
0
  6
CONTINUOUS
 10
5.678640
 20
1.618320
  0
VERTEX
  8
0
  6
CONTINUOUS
 10
5.631560
 20
1.643400
  0
SEQEND
  8
0
  0
SOLID
  8
0
 62
    15
 10
5.678640
 20
1.618320
 11
5.677320
 21
2.355760
 12
5.722640
 22
1.596760
 13
5.721320
 23
2.334200
  0
POLYLINE
  8
0
  6
CONTINUOUS
 66
     1
 40
0.000000
 41
0.000000
  0
VERTEX
  8
0
  6
CONTINUOUS
 10
5.678640
 20
1.618320
  0
VERTEX
  8
0
  6
CONTINUOUS
 10
5.677320
 20
2.355760
  0
VERTEX
  8
0
  6
CONTINUOUS
 10
5.721320
 20
2.334200
  0
VERTEX
  8
0
  6
CONTINUOUS
 10
5.722640
 20
1.596760
  0
VERTEX
  8
0
  6
CONTINUOUS
 10
5.678640
 20
1.618320
  0
SEQEND
  8
0
  0
SOLID
  8
0
 62
    15
 10
5.722640
 20
1.596760
 11
5.721320
 21
2.334200
 12
5.763560
 22
1.578720
 13
5.762680
 23
2.316160
  0
POLYLINE
  8
0
  6
CONTINUOUS
 66
     1
 40
0.000000
 41
0.000000
  0
VERTEX
  8
0
  6
CONTINUOUS
 10
5.722640
 20
1.596760
  0
VERTEX
  8
0
  6
CONTINUOUS
 10
5.721320
 20
2.334200
  0
VERTEX
  8
0
  6
CONTINUOUS
 10
5.762680
 20
2.316160
  0
VERTEX
  8
0
  6
CONTINUOUS
 10
5.763560
 20
1.578720
  0
VERTEX
  8
0
  6
CONTINUOUS
 10
5.722640
 20
1.596760
  0
SEQEND
  8
0
  0
SOLID
  8
0
 62
    15
 10
5.763560
 20
1.578720
 11
5.762680
 21
2.316160
 12
5.801400
 22
1.564200
 13
5.800520
 23
2.302080
  0
POLYLINE
  8
0
  6
CONTINUOUS
 66
     1
 40
0.000000
 41
0.000000
  0
VERTEX
  8
0
  6
CONTINUOUS
 10
5.763560
 20
1.578720
  0
VERTEX
  8
0
  6
CONTINUOUS
 10
5.762680
 20
2.316160
  0
VERTEX
  8
0
  6
CONTINUOUS
 10
5.800520
 20
2.302080
  0
VERTEX
  8
0
  6
CONTINUOUS
 10
5.801400
 20
1.564200
  0
VERTEX
  8
0
  6
CONTINUOUS
 10
5.763560
 20
1.578720
  0
SEQEND
  8
0
  0
SOLID
  8
0
 62
    15
 10
5.801400
 20
1.564200
 11
5.800520
 21
2.302080
 12
5.836160
 22
1.553640
 13
5.835280
 23
2.291080
  0
POLYLINE
  8
0
  6
CONTINUOUS
 66
     1
 40
0.000000
 41
0.000000
  0
VERTEX
  8
0
  6
CONTINUOUS
 10
5.801400
 20
1.564200
  0
VERTEX
  8
0
  6
CONTINUOUS
 10
5.800520
 20
2.302080
  0
VERTEX
  8
0
  6
CONTINUOUS
 10
5.835280
 20
2.291080
  0
VERTEX
  8
0
  6
CONTINUOUS
 10
5.836160
 20
1.553640
  0
VERTEX
  8
0
  6
CONTINUOUS
 10
5.801400
 20
1.564200
  0
SEQEND
  8
0
  0
SOLID
  8
0
 62
    15
 10
5.836160
 20
1.553640
 11
5.835280
 21
2.291080
 12
5.868280
 22
1.546160
 13
5.867400
 23
2.284040
  0
POLYLINE
  8
0
  6
CONTINUOUS
 66
     1
 40
0.000000
 41
0.000000
  0
VERTEX
  8
0
  6
CONTINUOUS
 10
5.836160
 20
1.553640
  0
VERTEX
  8
0
  6
CONTINUOUS
 10
5.835280
 20
2.291080
  0
VERTEX
  8
0
  6
CONTINUOUS
 10
5.867400
 20
2.284040
  0
VERTEX
  8
0
  6
CONTINUOUS
 10
5.868280
 20
1.546160
  0
VERTEX
  8
0
  6
CONTINUOUS
 10
5.836160
 20
1.553640
  0
SEQEND
  8
0
  0
SOLID
  8
0
 62
    15
 10
5.868280
 20
1.546160
 11
5.867400
 21
2.284040
 12
5.897320
 22
1.542640
 13
5.896440
 23
2.280080
  0
POLYLINE
  8
0
  6
CONTINUOUS
 66
     1
 40
0.000000
 41
0.000000
  0
VERTEX
  8
0
  6
CONTINUOUS
 10
5.868280
 20
1.546160
  0
VERTEX
  8
0
  6
CONTINUOUS
 10
5.867400
 20
2.284040
  0
VERTEX
  8
0
  6
CONTINUOUS
 10
5.896440
 20
2.280080
  0
VERTEX
  8
0
  6
CONTINUOUS
 10
5.897320
 20
1.542640
  0
VERTEX
  8
0
  6
CONTINUOUS
 10
5.868280
 20
1.546160
  0
SEQEND
  8
0
  0
SOLID
  8
0
 62
    15
 10
4.350720
 20
1.757360
 11
4.349400
 21
2.494800
 12
4.370960
 22
1.722600
 13
4.369640
 23
2.460040
  0
POLYLINE
  8
0
  6
CONTINUOUS
 66
     1
 40
0.000000
 41
0.000000
  0
VERTEX
  8
0
  6
CONTINUOUS
 10
4.350720
 20
1.757360
  0
VERTEX
  8
0
  6
CONTINUOUS
 10
4.349400
 20
2.494800
  0
VERTEX
  8
0
  6
CONTINUOUS
 10
4.369640
 20
2.460040
  0
VERTEX
  8
0
  6
CONTINUOUS
 10
4.370960
 20
1.722600
  0
VERTEX
  8
0
  6
CONTINUOUS
 10
4.350720
 20
1.757360
  0
SEQEND
  8
0
  0
SOLID
  8
0
 62
    15
 10
5.923280
 20
1.542640
 11
5.922400
 21
2.280080
 12
5.946600
 22
1.546160
 13
5.945720
 23
2.283600
  0
POLYLINE
  8
0
  6
CONTINUOUS
 66
     1
 40
0.000000
 41
0.000000
  0
VERTEX
  8
0
  6
CONTINUOUS
 10
5.923280
 20
1.542640
  0
VERTEX
  8
0
  6
CONTINUOUS
 10
5.922400
 20
2.280080
  0
VERTEX
  8
0
  6
CONTINUOUS
 10
5.945720
 20
2.283600
  0
VERTEX
  8
0
  6
CONTINUOUS
 10
5.946600
 20
1.546160
  0
VERTEX
  8
0
  6
CONTINUOUS
 10
5.923280
 20
1.542640
  0
SEQEND
  8
0
  0
SOLID
  8
0
 62
    15
 10
5.946600
 20
1.546160
 11
5.945720
 21
2.283600
 12
5.966840
 22
1.553200
 13
5.965960
 23
2.290640
  0
POLYLINE
  8
0
  6
CONTINUOUS
 66
     1
 40
0.000000
 41
0.000000
  0
VERTEX
  8
0
  6
CONTINUOUS
 10
5.946600
 20
1.546160
  0
VERTEX
  8
0
  6
CONTINUOUS
 10
5.945720
 20
2.283600
  0
VERTEX
  8
0
  6
CONTINUOUS
 10
5.965960
 20
2.290640
  0
VERTEX
  8
0
  6
CONTINUOUS
 10
5.966840
 20
1.553200
  0
VERTEX
  8
0
  6
CONTINUOUS
 10
5.946600
 20
1.546160
  0
SEQEND
  8
0
  0
SOLID
  8
0
 62
    15
 10
5.966840
 20
1.553200
 11
5.965960
 21
2.290640
 12
5.984440
 22
1.563760
 13
5.983560
 23
2.301640
  0
POLYLINE
  8
0
  6
CONTINUOUS
 66
     1
 40
0.000000
 41
0.000000
  0
VERTEX
  8
0
  6
CONTINUOUS
 10
5.966840
 20
1.553200
  0
VERTEX
  8
0
  6
CONTINUOUS
 10
5.965960
 20
2.290640
  0
VERTEX
  8
0
  6
CONTINUOUS
 10
5.983560
 20
2.301640
  0
VERTEX
  8
0
  6
CONTINUOUS
 10
5.984440
 20
1.563760
  0
VERTEX
  8
0
  6
CONTINUOUS
 10
5.966840
 20
1.553200
  0
SEQEND
  8
0
  0
SOLID
  8
0
 62
    15
 10
5.984440
 20
1.563760
 11
5.983560
 21
2.301640
 12
5.999400
 22
1.577840
 13
5.998080
 23
2.315720
  0
POLYLINE
  8
0
  6
CONTINUOUS
 66
     1
 40
0.000000
 41
0.000000
  0
VERTEX
  8
0
  6
CONTINUOUS
 10
5.984440
 20
1.563760
  0
VERTEX
  8
0
  6
CONTINUOUS
 10
5.983560
 20
2.301640
  0
VERTEX
  8
0
  6
CONTINUOUS
 10
5.998080
 20
2.315720
  0
VERTEX
  8
0
  6
CONTINUOUS
 10
5.999400
 20
1.577840
  0
VERTEX
  8
0
  6
CONTINUOUS
 10
5.984440
 20
1.563760
  0
SEQEND
  8
0
  0
SOLID
  8
0
 62
    15
 10
5.999400
 20
1.577840
 11
5.998080
 21
2.315720
 12
6.011280
 22
1.595880
 13
6.009960
 23
2.333320
  0
POLYLINE
  8
0
  6
CONTINUOUS
 66
     1
 40
0.000000
 41
0.000000
  0
VERTEX
  8
0
  6
CONTINUOUS
 10
5.999400
 20
1.577840
  0
VERTEX
  8
0
  6
CONTINUOUS
 10
5.998080
 20
2.315720
  0
VERTEX
  8
0
  6
CONTINUOUS
 10
6.009960
 20
2.333320
  0
VERTEX
  8
0
  6
CONTINUOUS
 10
6.011280
 20
1.595880
  0
VERTEX
  8
0
  6
CONTINUOUS
 10
5.999400
 20
1.577840
  0
SEQEND
  8
0
  0
SOLID
  8
0
 62
    15
 10
6.011280
 20
1.595880
 11
6.009960
 21
2.333320
 12
6.020080
 22
1.617440
 13
6.019200
 23
2.354880
  0
POLYLINE
  8
0
  6
CONTINUOUS
 66
     1
 40
0.000000
 41
0.000000
  0
VERTEX
  8
0
  6
CONTINUOUS
 10
6.011280
 20
1.595880
  0
VERTEX
  8
0
  6
CONTINUOUS
 10
6.009960
 20
2.333320
  0
VERTEX
  8
0
  6
CONTINUOUS
 10
6.019200
 20
2.354880
  0
VERTEX
  8
0
  6
CONTINUOUS
 10
6.020080
 20
1.617440
  0
VERTEX
  8
0
  6
CONTINUOUS
 10
6.011280
 20
1.595880
  0
SEQEND
  8
0
  0
SOLID
  8
0
 62
    15
 10
6.171440
 20
1.490720
 11
6.170560
 21
2.228160
 12
6.269120
 22
1.490720
 13
6.268240
 23
2.228160
  0
POLYLINE
  8
0
  6
CONTINUOUS
 66
     1
 40
0.000000
 41
0.000000
  0
VERTEX
  8
0
  6
CONTINUOUS
 10
6.171440
 20
1.490720
  0
VERTEX
  8
0
  6
CONTINUOUS
 10
6.170560
 20
2.228160
  0
VERTEX
  8
0
  6
CONTINUOUS
 10
6.268240
 20
2.228160
  0
VERTEX
  8
0
  6
CONTINUOUS
 10
6.269120
 20
1.490720
  0
VERTEX
  8
0
  6
CONTINUOUS
 10
6.171440
 20
1.490720
  0
SEQEND
  8
0
  0
SOLID
  8
0
 62
    15
 10
6.020080
 20
1.617440
 11
6.019200
 21
2.354880
 12
6.171440
 22
1.617440
 13
6.170560
 23
2.354880
  0
POLYLINE
  8
0
  6
CONTINUOUS
 66
     1
 40
0.000000
 41
0.000000
  0
VERTEX
  8
0
  6
CONTINUOUS
 10
6.020080
 20
1.617440
  0
VERTEX
  8
0
  6
CONTINUOUS
 10
6.019200
 20
2.354880
  0
VERTEX
  8
0
  6
CONTINUOUS
 10
6.170560
 20
2.354880
  0
VERTEX
  8
0
  6
CONTINUOUS
 10
6.171440
 20
1.617440
  0
VERTEX
  8
0
  6
CONTINUOUS
 10
6.020080
 20
1.617440
  0
SEQEND
  8
0
  0
SOLID
  8
0
 62
    15
 10
6.269120
 20
1.490720
 11
6.268240
 21
2.228160
 12
6.281000
 22
1.541320
 13
6.280120
 23
2.278760
  0
POLYLINE
  8
0
  6
CONTINUOUS
 66
     1
 40
0.000000
 41
0.000000
  0
VERTEX
  8
0
  6
CONTINUOUS
 10
6.269120
 20
1.490720
  0
VERTEX
  8
0
  6
CONTINUOUS
 10
6.268240
 20
2.228160
  0
VERTEX
  8
0
  6
CONTINUOUS
 10
6.280120
 20
2.278760
  0
VERTEX
  8
0
  6
CONTINUOUS
 10
6.281000
 20
1.541320
  0
VERTEX
  8
0
  6
CONTINUOUS
 10
6.269120
 20
1.490720
  0
SEQEND
  8
0
  0
SOLID
  8
0
 62
    15
 10
6.281000
 20
1.541320
 11
6.280120
 21
2.278760
 12
6.301680
 22
1.584440
 13
6.300360
 23
2.321880
  0
POLYLINE
  8
0
  6
CONTINUOUS
 66
     1
 40
0.000000
 41
0.000000
  0
VERTEX
  8
0
  6
CONTINUOUS
 10
6.281000
 20
1.541320
  0
VERTEX
  8
0
  6
CONTINUOUS
 10
6.280120
 20
2.278760
  0
VERTEX
  8
0
  6
CONTINUOUS
 10
6.300360
 20
2.321880
  0
VERTEX
  8
0
  6
CONTINUOUS
 10
6.301680
 20
1.584440
  0
VERTEX
  8
0
  6
CONTINUOUS
 10
6.281000
 20
1.541320
  0
SEQEND
  8
0
  0
SOLID
  8
0
 62
    15
 10
6.301680
 20
1.584440
 11
6.300360
 21
2.321880
 12
6.328960
 22
1.620080
 13
6.327640
 23
2.357520
  0
POLYLINE
  8
0
  6
CONTINUOUS
 66
     1
 40
0.000000
 41
0.000000
  0
VERTEX
  8
0
  6
CONTINUOUS
 10
6.301680
 20
1.584440
  0
VERTEX
  8
0
  6
CONTINUOUS
 10
6.300360
 20
2.321880
  0
VERTEX
  8
0
  6
CONTINUOUS
 10
6.327640
 20
2.357520
  0
VERTEX
  8
0
  6
CONTINUOUS
 10
6.328960
 20
1.620080
  0
VERTEX
  8
0
  6
CONTINUOUS
 10
6.301680
 20
1.584440
  0
SEQEND
  8
0
  0
SOLID
  8
0
 62
    15
 10
6.328960
 20
1.620080
 11
6.327640
 21
2.357520
 12
6.361960
 22
1.648680
 13
6.361080
 23
2.386560
  0
POLYLINE
  8
0
  6
CONTINUOUS
 66
     1
 40
0.000000
 41
0.000000
  0
VERTEX
  8
0
  6
CONTINUOUS
 10
6.328960
 20
1.620080
  0
VERTEX
  8
0
  6
CONTINUOUS
 10
6.327640
 20
2.357520
  0
VERTEX
  8
0
  6
CONTINUOUS
 10
6.361080
 20
2.386560
  0
VERTEX
  8
0
  6
CONTINUOUS
 10
6.361960
 20
1.648680
  0
VERTEX
  8
0
  6
CONTINUOUS
 10
6.328960
 20
1.620080
  0
SEQEND
  8
0
  0
SOLID
  8
0
 62
    15
 10
6.361960
 20
1.648680
 11
6.361080
 21
2.386560
 12
6.399360
 22
1.670680
 13
6.398480
 23
2.408120
  0
POLYLINE
  8
0
  6
CONTINUOUS
 66
     1
 40
0.000000
 41
0.000000
  0
VERTEX
  8
0
  6
CONTINUOUS
 10
6.361960
 20
1.648680
  0
VERTEX
  8
0
  6
CONTINUOUS
 10
6.361080
 20
2.386560
  0
VERTEX
  8
0
  6
CONTINUOUS
 10
6.398480
 20
2.408120
  0
VERTEX
  8
0
  6
CONTINUOUS
 10
6.399360
 20
1.670680
  0
VERTEX
  8
0
  6
CONTINUOUS
 10
6.361960
 20
1.648680
  0
SEQEND
  8
0
  0
SOLID
  8
0
 62
    15
 10
6.399360
 20
1.670680
 11
6.398480
 21
2.408120
 12
6.440720
 22
1.685640
 13
6.439400
 23
2.423080
  0
POLYLINE
  8
0
  6
CONTINUOUS
 66
     1
 40
0.000000
 41
0.000000
  0
VERTEX
  8
0
  6
CONTINUOUS
 10
6.399360
 20
1.670680
  0
VERTEX
  8
0
  6
CONTINUOUS
 10
6.398480
 20
2.408120
  0
VERTEX
  8
0
  6
CONTINUOUS
 10
6.439400
 20
2.423080
  0
VERTEX
  8
0
  6
CONTINUOUS
 10
6.440720
 20
1.685640
  0
VERTEX
  8
0
  6
CONTINUOUS
 10
6.399360
 20
1.670680
  0
SEQEND
  8
0
  0
SOLID
  8
0
 62
    15
 10
6.440720
 20
1.685640
 11
6.439400
 21
2.423080
 12
6.483840
 22
1.694000
 13
6.482960
 23
2.431880
  0
POLYLINE
  8
0
  6
CONTINUOUS
 66
     1
 40
0.000000
 41
0.000000
  0
VERTEX
  8
0
  6
CONTINUOUS
 10
6.440720
 20
1.685640
  0
VERTEX
  8
0
  6
CONTINUOUS
 10
6.439400
 20
2.423080
  0
VERTEX
  8
0
  6
CONTINUOUS
 10
6.482960
 20
2.431880
  0
VERTEX
  8
0
  6
CONTINUOUS
 10
6.483840
 20
1.694000
  0
VERTEX
  8
0
  6
CONTINUOUS
 10
6.440720
 20
1.685640
  0
SEQEND
  8
0
  0
SOLID
  8
0
 62
    15
 10
6.483840
 20
1.694000
 11
6.482960
 21
2.431880
 12
6.527840
 22
1.696200
 13
6.526960
 23
2.433640
  0
POLYLINE
  8
0
  6
CONTINUOUS
 66
     1
 40
0.000000
 41
0.000000
  0
VERTEX
  8
0
  6
CONTINUOUS
 10
6.483840
 20
1.694000
  0
VERTEX
  8
0
  6
CONTINUOUS
 10
6.482960
 20
2.431880
  0
VERTEX
  8
0
  6
CONTINUOUS
 10
6.526960
 20
2.433640
  0
VERTEX
  8
0
  6
CONTINUOUS
 10
6.527840
 20
1.696200
  0
VERTEX
  8
0
  6
CONTINUOUS
 10
6.483840
 20
1.694000
  0
SEQEND
  8
0
  0
SOLID
  8
0
 62
    15
 10
6.527840
 20
1.696200
 11
6.526960
 21
2.433640
 12
6.571840
 22
1.691800
 13
6.570960
 23
2.429240
  0
POLYLINE
  8
0
  6
CONTINUOUS
 66
     1
 40
0.000000
 41
0.000000
  0
VERTEX
  8
0
  6
CONTINUOUS
 10
6.527840
 20
1.696200
  0
VERTEX
  8
0
  6
CONTINUOUS
 10
6.526960
 20
2.433640
  0
VERTEX
  8
0
  6
CONTINUOUS
 10
6.570960
 20
2.429240
  0
VERTEX
  8
0
  6
CONTINUOUS
 10
6.571840
 20
1.691800
  0
VERTEX
  8
0
  6
CONTINUOUS
 10
6.527840
 20
1.696200
  0
SEQEND
  8
0
  0
SOLID
  8
0
 62
    15
 10
6.571840
 20
1.691800
 11
6.570960
 21
2.429240
 12
6.614520
 22
1.681680
 13
6.613640
 23
2.419120
  0
POLYLINE
  8
0
  6
CONTINUOUS
 66
     1
 40
0.000000
 41
0.000000
  0
VERTEX
  8
0
  6
CONTINUOUS
 10
6.571840
 20
1.691800
  0
VERTEX
  8
0
  6
CONTINUOUS
 10
6.570960
 20
2.429240
  0
VERTEX
  8
0
  6
CONTINUOUS
 10
6.613640
 20
2.419120
  0
VERTEX
  8
0
  6
CONTINUOUS
 10
6.614520
 20
1.681680
  0
VERTEX
  8
0
  6
CONTINUOUS
 10
6.571840
 20
1.691800
  0
SEQEND
  8
0
  0
SOLID
  8
0
 62
    15
 10
6.614520
 20
1.681680
 11
6.613640
 21
2.419120
 12
6.654120
 22
1.665400
 13
6.653240
 23
2.402840
  0
POLYLINE
  8
0
  6
CONTINUOUS
 66
     1
 40
0.000000
 41
0.000000
  0
VERTEX
  8
0
  6
CONTINUOUS
 10
6.614520
 20
1.681680
  0
VERTEX
  8
0
  6
CONTINUOUS
 10
6.613640
 20
2.419120
  0
VERTEX
  8
0
  6
CONTINUOUS
 10
6.653240
 20
2.402840
  0
VERTEX
  8
0
  6
CONTINUOUS
 10
6.654120
 20
1.665400
  0
VERTEX
  8
0
  6
CONTINUOUS
 10
6.614520
 20
1.681680
  0
SEQEND
  8
0
  0
SOLID
  8
0
 62
    15
 10
6.654120
 20
1.665400
 11
6.653240
 21
2.402840
 12
6.690200
 22
1.643400
 13
6.689320
 23
2.380840
  0
POLYLINE
  8
0
  6
CONTINUOUS
 66
     1
 40
0.000000
 41
0.000000
  0
VERTEX
  8
0
  6
CONTINUOUS
 10
6.654120
 20
1.665400
  0
VERTEX
  8
0
  6
CONTINUOUS
 10
6.653240
 20
2.402840
  0
VERTEX
  8
0
  6
CONTINUOUS
 10
6.689320
 20
2.380840
  0
VERTEX
  8
0
  6
CONTINUOUS
 10
6.690200
 20
1.643400
  0
VERTEX
  8
0
  6
CONTINUOUS
 10
6.654120
 20
1.665400
  0
SEQEND
  8
0
  0
SOLID
  8
0
 62
    15
 10
6.690200
 20
1.643400
 11
6.689320
 21
2.380840
 12
6.721000
 22
1.615680
 13
6.720120
 23
2.353560
  0
POLYLINE
  8
0
  6
CONTINUOUS
 66
     1
 40
0.000000
 41
0.000000
  0
VERTEX
  8
0
  6
CONTINUOUS
 10
6.690200
 20
1.643400
  0
VERTEX
  8
0
  6
CONTINUOUS
 10
6.689320
 20
2.380840
  0
VERTEX
  8
0
  6
CONTINUOUS
 10
6.720120
 20
2.353560
  0
VERTEX
  8
0
  6
CONTINUOUS
 10
6.721000
 20
1.615680
  0
VERTEX
  8
0
  6
CONTINUOUS
 10
6.690200
 20
1.643400
  0
SEQEND
  8
0
  0
SOLID
  8
0
 62
    15
 10
6.721000
 20
1.615680
 11
6.720120
 21
2.353560
 12
6.745640
 22
1.582680
 13
6.744760
 23
2.320560
  0
POLYLINE
  8
0
  6
CONTINUOUS
 66
     1
 40
0.000000
 41
0.000000
  0
VERTEX
  8
0
  6
CONTINUOUS
 10
6.721000
 20
1.615680
  0
VERTEX
  8
0
  6
CONTINUOUS
 10
6.720120
 20
2.353560
  0
VERTEX
  8
0
  6
CONTINUOUS
 10
6.744760
 20
2.320560
  0
VERTEX
  8
0
  6
CONTINUOUS
 10
6.745640
 20
1.582680
  0
VERTEX
  8
0
  6
CONTINUOUS
 10
6.721000
 20
1.615680
  0
SEQEND
  8
0
  0
SOLID
  8
0
 62
    15
 10
6.896120
 20
1.480600
 11
6.895240
 21
2.218040
 12
6.901400
 22
1.455960
 13
6.900520
 23
2.193400
  0
POLYLINE
  8
0
  6
CONTINUOUS
 66
     1
 40
0.000000
 41
0.000000
  0
VERTEX
  8
0
  6
CONTINUOUS
 10
6.896120
 20
1.480600
  0
VERTEX
  8
0
  6
CONTINUOUS
 10
6.895240
 20
2.218040
  0
VERTEX
  8
0
  6
CONTINUOUS
 10
6.900520
 20
2.193400
  0
VERTEX
  8
0
  6
CONTINUOUS
 10
6.901400
 20
1.455960
  0
VERTEX
  8
0
  6
CONTINUOUS
 10
6.896120
 20
1.480600
  0
SEQEND
  8
0
  0
SOLID
  8
0
 62
    15
 10
6.894800
 20
1.501280
 11
6.893920
 21
2.239160
 12
6.896120
 22
1.480600
 13
6.895240
 23
2.218040
  0
POLYLINE
  8
0
  6
CONTINUOUS
 66
     1
 40
0.000000
 41
0.000000
  0
VERTEX
  8
0
  6
CONTINUOUS
 10
6.894800
 20
1.501280
  0
VERTEX
  8
0
  6
CONTINUOUS
 10
6.893920
 20
2.239160
  0
VERTEX
  8
0
  6
CONTINUOUS
 10
6.895240
 20
2.218040
  0
VERTEX
  8
0
  6
CONTINUOUS
 10
6.896120
 20
1.480600
  0
VERTEX
  8
0
  6
CONTINUOUS
 10
6.894800
 20
1.501280
  0
SEQEND
  8
0
  0
SOLID
  8
0
 62
    15
 10
6.771160
 20
1.501280
 11
6.770280
 21
2.239160
 12
6.894800
 22
1.501280
 13
6.893920
 23
2.239160
  0
POLYLINE
  8
0
  6
CONTINUOUS
 66
     1
 40
0.000000
 41
0.000000
  0
VERTEX
  8
0
  6
CONTINUOUS
 10
6.771160
 20
1.501280
  0
VERTEX
  8
0
  6
CONTINUOUS
 10
6.770280
 20
2.239160
  0
VERTEX
  8
0
  6
CONTINUOUS
 10
6.893920
 20
2.239160
  0
VERTEX
  8
0
  6
CONTINUOUS
 10
6.894800
 20
1.501280
  0
VERTEX
  8
0
  6
CONTINUOUS
 10
6.771160
 20
1.501280
  0
SEQEND
  8
0
  0
SOLID
  8
0
 62
    15
 10
6.762800
 20
1.544840
 11
6.761920
 21
2.282280
 12
6.771160
 22
1.501280
 13
6.770280
 23
2.239160
  0
POLYLINE
  8
0
  6
CONTINUOUS
 66
     1
 40
0.000000
 41
0.000000
  0
VERTEX
  8
0
  6
CONTINUOUS
 10
6.762800
 20
1.544840
  0
VERTEX
  8
0
  6
CONTINUOUS
 10
6.761920
 20
2.282280
  0
VERTEX
  8
0
  6
CONTINUOUS
 10
6.770280
 20
2.239160
  0
VERTEX
  8
0
  6
CONTINUOUS
 10
6.771160
 20
1.501280
  0
VERTEX
  8
0
  6
CONTINUOUS
 10
6.762800
 20
1.544840
  0
SEQEND
  8
0
  0
SOLID
  8
0
 62
    15
 10
6.745640
 20
1.582680
 11
6.744760
 21
2.320560
 12
6.762800
 22
1.544840
 13
6.761920
 23
2.282280
  0
POLYLINE
  8
0
  6
CONTINUOUS
 66
     1
 40
0.000000
 41
0.000000
  0
VERTEX
  8
0
  6
CONTINUOUS
 10
6.745640
 20
1.582680
  0
VERTEX
  8
0
  6
CONTINUOUS
 10
6.744760
 20
2.320560
  0
VERTEX
  8
0
  6
CONTINUOUS
 10
6.761920
 20
2.282280
  0
VERTEX
  8
0
  6
CONTINUOUS
 10
6.762800
 20
1.544840
  0
VERTEX
  8
0
  6
CONTINUOUS
 10
6.745640
 20
1.582680
  0
SEQEND
  8
0
  0
SOLID
  8
0
 62
    15
 10
6.901400
 20
1.455960
 11
6.900520
 21
2.193400
 12
6.911960
 22
1.430000
 13
6.911080
 23
2.167440
  0
POLYLINE
  8
0
  6
CONTINUOUS
 66
     1
 40
0.000000
 41
0.000000
  0
VERTEX
  8
0
  6
CONTINUOUS
 10
6.901400
 20
1.455960
  0
VERTEX
  8
0
  6
CONTINUOUS
 10
6.900520
 20
2.193400
  0
VERTEX
  8
0
  6
CONTINUOUS
 10
6.911080
 20
2.167440
  0
VERTEX
  8
0
  6
CONTINUOUS
 10
6.911960
 20
1.430000
  0
VERTEX
  8
0
  6
CONTINUOUS
 10
6.901400
 20
1.455960
  0
SEQEND
  8
0
  0
SOLID
  8
0
 62
    15
 10
6.911960
 20
1.430000
 11
6.911080
 21
2.167440
 12
6.928680
 22
1.404040
 13
6.927800
 23
2.141480
  0
POLYLINE
  8
0
  6
CONTINUOUS
 66
     1
 40
0.000000
 41
0.000000
  0
VERTEX
  8
0
  6
CONTINUOUS
 10
6.911960
 20
1.430000
  0
VERTEX
  8
0
  6
CONTINUOUS
 10
6.911080
 20
2.167440
  0
VERTEX
  8
0
  6
CONTINUOUS
 10
6.927800
 20
2.141480
  0
VERTEX
  8
0
  6
CONTINUOUS
 10
6.928680
 20
1.404040
  0
VERTEX
  8
0
  6
CONTINUOUS
 10
6.911960
 20
1.430000
  0
SEQEND
  8
0
  0
SOLID
  8
0
 62
    15
 10
6.928680
 20
1.404040
 11
6.927800
 21
2.141480
 12
6.953320
 22
1.380720
 13
6.952000
 23
2.118160
  0
POLYLINE
  8
0
  6
CONTINUOUS
 66
     1
 40
0.000000
 41
0.000000
  0
VERTEX
  8
0
  6
CONTINUOUS
 10
6.928680
 20
1.404040
  0
VERTEX
  8
0
  6
CONTINUOUS
 10
6.927800
 20
2.141480
  0
VERTEX
  8
0
  6
CONTINUOUS
 10
6.952000
 20
2.118160
  0
VERTEX
  8
0
  6
CONTINUOUS
 10
6.953320
 20
1.380720
  0
VERTEX
  8
0
  6
CONTINUOUS
 10
6.928680
 20
1.404040
  0
SEQEND
  8
0
  0
SOLID
  8
0
 62
    15
 10
6.953320
 20
1.380720
 11
6.952000
 21
2.118160
 12
6.986760
 22
1.361360
 13
6.985880
 23
2.098800
  0
POLYLINE
  8
0
  6
CONTINUOUS
 66
     1
 40
0.000000
 41
0.000000
  0
VERTEX
  8
0
  6
CONTINUOUS
 10
6.953320
 20
1.380720
  0
VERTEX
  8
0
  6
CONTINUOUS
 10
6.952000
 20
2.118160
  0
VERTEX
  8
0
  6
CONTINUOUS
 10
6.985880
 20
2.098800
  0
VERTEX
  8
0
  6
CONTINUOUS
 10
6.986760
 20
1.361360
  0
VERTEX
  8
0
  6
CONTINUOUS
 10
6.953320
 20
1.380720
  0
SEQEND
  8
0
  0
SOLID
  8
0
 62
    15
 10
6.986760
 20
1.361360
 11
6.985880
 21
2.098800
 12
7.007000
 22
1.353880
 13
7.006120
 23
2.091760
  0
POLYLINE
  8
0
  6
CONTINUOUS
 66
     1
 40
0.000000
 41
0.000000
  0
VERTEX
  8
0
  6
CONTINUOUS
 10
6.986760
 20
1.361360
  0
VERTEX
  8
0
  6
CONTINUOUS
 10
6.985880
 20
2.098800
  0
VERTEX
  8
0
  6
CONTINUOUS
 10
7.006120
 20
2.091760
  0
VERTEX
  8
0
  6
CONTINUOUS
 10
7.007000
 20
1.353880
  0
VERTEX
  8
0
  6
CONTINUOUS
 10
6.986760
 20
1.361360
  0
SEQEND
  8
0
  0
SOLID
  8
0
 62
    15
 10
7.007000
 20
1.353880
 11
7.006120
 21
2.091760
 12
7.030320
 22
1.348600
 13
7.029440
 23
2.086040
  0
POLYLINE
  8
0
  6
CONTINUOUS
 66
     1
 40
0.000000
 41
0.000000
  0
VERTEX
  8
0
  6
CONTINUOUS
 10
7.007000
 20
1.353880
  0
VERTEX
  8
0
  6
CONTINUOUS
 10
7.006120
 20
2.091760
  0
VERTEX
  8
0
  6
CONTINUOUS
 10
7.029440
 20
2.086040
  0
VERTEX
  8
0
  6
CONTINUOUS
 10
7.030320
 20
1.348600
  0
VERTEX
  8
0
  6
CONTINUOUS
 10
7.007000
 20
1.353880
  0
SEQEND
  8
0
  0
SOLID
  8
0
 62
    15
 10
7.030320
 20
1.348600
 11
7.029440
 21
2.086040
 12
7.056720
 22
1.345080
 13
7.055840
 23
2.082520
  0
POLYLINE
  8
0
  6
CONTINUOUS
 66
     1
 40
0.000000
 41
0.000000
  0
VERTEX
  8
0
  6
CONTINUOUS
 10
7.030320
 20
1.348600
  0
VERTEX
  8
0
  6
CONTINUOUS
 10
7.029440
 20
2.086040
  0
VERTEX
  8
0
  6
CONTINUOUS
 10
7.055840
 20
2.082520
  0
VERTEX
  8
0
  6
CONTINUOUS
 10
7.056720
 20
1.345080
  0
VERTEX
  8
0
  6
CONTINUOUS
 10
7.030320
 20
1.348600
  0
SEQEND
  8
0
  0
SOLID
  8
0
 62
    15
 10
7.086200
 20
1.272920
 11
7.084880
 21
2.010360
 12
7.118320
 22
1.270720
 13
7.117440
 23
2.008160
  0
POLYLINE
  8
0
  6
CONTINUOUS
 66
     1
 40
0.000000
 41
0.000000
  0
VERTEX
  8
0
  6
CONTINUOUS
 10
7.086200
 20
1.272920
  0
VERTEX
  8
0
  6
CONTINUOUS
 10
7.084880
 20
2.010360
  0
VERTEX
  8
0
  6
CONTINUOUS
 10
7.117440
 20
2.008160
  0
VERTEX
  8
0
  6
CONTINUOUS
 10
7.118320
 20
1.270720
  0
VERTEX
  8
0
  6
CONTINUOUS
 10
7.086200
 20
1.272920
  0
SEQEND
  8
0
  0
SOLID
  8
0
 62
    15
 10
7.056720
 20
1.345080
 11
7.055840
 21
2.082520
 12
7.086200
 22
1.343760
 13
7.084880
 23
2.081200
  0
POLYLINE
  8
0
  6
CONTINUOUS
 66
     1
 40
0.000000
 41
0.000000
  0
VERTEX
  8
0
  6
CONTINUOUS
 10
7.056720
 20
1.345080
  0
VERTEX
  8
0
  6
CONTINUOUS
 10
7.055840
 20
2.082520
  0
VERTEX
  8
0
  6
CONTINUOUS
 10
7.084880
 20
2.081200
  0
VERTEX
  8
0
  6
CONTINUOUS
 10
7.086200
 20
1.343760
  0
VERTEX
  8
0
  6
CONTINUOUS
 10
7.056720
 20
1.345080
  0
SEQEND
  8
0
  0
SOLID
  8
0
 62
    15
 10
7.118320
 20
1.270720
 11
7.117440
 21
2.008160
 12
7.147800
 22
1.264120
 13
7.146920
 23
2.001560
  0
POLYLINE
  8
0
  6
CONTINUOUS
 66
     1
 40
0.000000
 41
0.000000
  0
VERTEX
  8
0
  6
CONTINUOUS
 10
7.118320
 20
1.270720
  0
VERTEX
  8
0
  6
CONTINUOUS
 10
7.117440
 20
2.008160
  0
VERTEX
  8
0
  6
CONTINUOUS
 10
7.146920
 20
2.001560
  0
VERTEX
  8
0
  6
CONTINUOUS
 10
7.147800
 20
1.264120
  0
VERTEX
  8
0
  6
CONTINUOUS
 10
7.118320
 20
1.270720
  0
SEQEND
  8
0
  0
SOLID
  8
0
 62
    15
 10
7.147800
 20
1.264120
 11
7.146920
 21
2.001560
 12
7.173760
 22
1.253120
 13
7.172880
 23
1.990560
  0
POLYLINE
  8
0
  6
CONTINUOUS
 66
     1
 40
0.000000
 41
0.000000
  0
VERTEX
  8
0
  6
CONTINUOUS
 10
7.147800
 20
1.264120
  0
VERTEX
  8
0
  6
CONTINUOUS
 10
7.146920
 20
2.001560
  0
VERTEX
  8
0
  6
CONTINUOUS
 10
7.172880
 20
1.990560
  0
VERTEX
  8
0
  6
CONTINUOUS
 10
7.173760
 20
1.253120
  0
VERTEX
  8
0
  6
CONTINUOUS
 10
7.147800
 20
1.264120
  0
SEQEND
  8
0
  0
SOLID
  8
0
 62
    15
 10
7.173760
 20
1.253120
 11
7.172880
 21
1.990560
 12
7.195760
 22
1.237280
 13
7.194880
 23
1.975160
  0
POLYLINE
  8
0
  6
CONTINUOUS
 66
     1
 40
0.000000
 41
0.000000
  0
VERTEX
  8
0
  6
CONTINUOUS
 10
7.173760
 20
1.253120
  0
VERTEX
  8
0
  6
CONTINUOUS
 10
7.172880
 20
1.990560
  0
VERTEX
  8
0
  6
CONTINUOUS
 10
7.194880
 20
1.975160
  0
VERTEX
  8
0
  6
CONTINUOUS
 10
7.195760
 20
1.237280
  0
VERTEX
  8
0
  6
CONTINUOUS
 10
7.173760
 20
1.253120
  0
SEQEND
  8
0
  0
SOLID
  8
0
 62
    15
 10
7.195760
 20
1.237280
 11
7.194880
 21
1.975160
 12
7.213800
 22
1.217040
 13
7.212920
 23
1.954480
  0
POLYLINE
  8
0
  6
CONTINUOUS
 66
     1
 40
0.000000
 41
0.000000
  0
VERTEX
  8
0
  6
CONTINUOUS
 10
7.195760
 20
1.237280
  0
VERTEX
  8
0
  6
CONTINUOUS
 10
7.194880
 20
1.975160
  0
VERTEX
  8
0
  6
CONTINUOUS
 10
7.212920
 20
1.954480
  0
VERTEX
  8
0
  6
CONTINUOUS
 10
7.213800
 20
1.217040
  0
VERTEX
  8
0
  6
CONTINUOUS
 10
7.195760
 20
1.237280
  0
SEQEND
  8
0
  0
SOLID
  8
0
 62
    15
 10
7.213800
 20
1.217040
 11
7.212920
 21
1.954480
 12
7.227000
 22
1.191960
 13
7.226120
 23
1.929400
  0
POLYLINE
  8
0
  6
CONTINUOUS
 66
     1
 40
0.000000
 41
0.000000
  0
VERTEX
  8
0
  6
CONTINUOUS
 10
7.213800
 20
1.217040
  0
VERTEX
  8
0
  6
CONTINUOUS
 10
7.212920
 20
1.954480
  0
VERTEX
  8
0
  6
CONTINUOUS
 10
7.226120
 20
1.929400
  0
VERTEX
  8
0
  6
CONTINUOUS
 10
7.227000
 20
1.191960
  0
VERTEX
  8
0
  6
CONTINUOUS
 10
7.213800
 20
1.217040
  0
SEQEND
  8
0
  0
SOLID
  8
0
 62
    15
 10
7.235360
 20
1.161600
 11
7.234480
 21
1.899480
 12
7.238440
 22
1.126400
 13
7.237560
 23
1.864280
  0
POLYLINE
  8
0
  6
CONTINUOUS
 66
     1
 40
0.000000
 41
0.000000
  0
VERTEX
  8
0
  6
CONTINUOUS
 10
7.235360
 20
1.161600
  0
VERTEX
  8
0
  6
CONTINUOUS
 10
7.234480
 20
1.899480
  0
VERTEX
  8
0
  6
CONTINUOUS
 10
7.237560
 20
1.864280
  0
VERTEX
  8
0
  6
CONTINUOUS
 10
7.238440
 20
1.126400
  0
VERTEX
  8
0
  6
CONTINUOUS
 10
7.235360
 20
1.161600
  0
SEQEND
  8
0
  0
SOLID
  8
0
 62
    15
 10
7.227000
 20
1.191960
 11
7.226120
 21
1.929400
 12
7.235360
 22
1.161600
 13
7.234480
 23
1.899480
  0
POLYLINE
  8
0
  6
CONTINUOUS
 66
     1
 40
0.000000
 41
0.000000
  0
VERTEX
  8
0
  6
CONTINUOUS
 10
7.227000
 20
1.191960
  0
VERTEX
  8
0
  6
CONTINUOUS
 10
7.226120
 20
1.929400
  0
VERTEX
  8
0
  6
CONTINUOUS
 10
7.234480
 20
1.899480
  0
VERTEX
  8
0
  6
CONTINUOUS
 10
7.235360
 20
1.161600
  0
VERTEX
  8
0
  6
CONTINUOUS
 10
7.227000
 20
1.191960
  0
SEQEND
  8
0
  0
SOLID
  8
0
 62
    15
 10
3.739560
 20
1.126400
 11
3.738680
 21
1.864280
 12
3.739560
 22
1.760880
 13
3.738680
 23
2.498760
  0
POLYLINE
  8
0
  6
CONTINUOUS
 66
     1
 40
0.000000
 41
0.000000
  0
VERTEX
  8
0
  6
CONTINUOUS
 10
3.739560
 20
1.126400
  0
VERTEX
  8
0
  6
CONTINUOUS
 10
3.738680
 20
1.864280
  0
VERTEX
  8
0
  6
CONTINUOUS
 10
3.738680
 20
2.498760
  0
VERTEX
  8
0
  6
CONTINUOUS
 10
3.739560
 20
1.760880
  0
VERTEX
  8
0
  6
CONTINUOUS
 10
3.739560
 20
1.126400
  0
SEQEND
  8
0
  0
SOLID
  8
0
 62
    15
 10
3.739560
 20
1.760880
 11
3.738680
 21
2.498760
 12
4.343680
 22
1.760880
 13
4.342800
 23
2.498760
  0
POLYLINE
  8
0
  6
CONTINUOUS
 66
     1
 40
0.000000
 41
0.000000
  0
VERTEX
  8
0
  6
CONTINUOUS
 10
3.739560
 20
1.760880
  0
VERTEX
  8
0
  6
CONTINUOUS
 10
3.738680
 20
2.498760
  0
VERTEX
  8
0
  6
CONTINUOUS
 10
4.342800
 20
2.498760
  0
VERTEX
  8
0
  6
CONTINUOUS
 10
4.343680
 20
1.760880
  0
VERTEX
  8
0
  6
CONTINUOUS
 10
3.739560
 20
1.760880
  0
SEQEND
  8
0
  0
SOLID
  8
0
 62
    15
 10
4.343680
 20
1.760880
 11
4.342800
 21
2.498760
 12
4.350720
 22
1.757360
 13
4.349400
 23
2.494800
  0
POLYLINE
  8
0
  6
CONTINUOUS
 66
     1
 40
0.000000
 41
0.000000
  0
VERTEX
  8
0
  6
CONTINUOUS
 10
4.343680
 20
1.760880
  0
VERTEX
  8
0
  6
CONTINUOUS
 10
4.342800
 20
2.498760
  0
VERTEX
  8
0
  6
CONTINUOUS
 10
4.349400
 20
2.494800
  0
VERTEX
  8
0
  6
CONTINUOUS
 10
4.350720
 20
1.757360
  0
VERTEX
  8
0
  6
CONTINUOUS
 10
4.343680
 20
1.760880
  0
SEQEND
  8
0
  0
POLYLINE
  8
0
  6
CONTINUOUS
 66
     1
 40
0.000000
 41
0.000000
  0
VERTEX
  8
0
  6
CONTINUOUS
 10
4.350720
 20
1.757360
  0
VERTEX
  8
0
  6
CONTINUOUS
 10
4.370960
 20
1.722600
  0
VERTEX
  8
0
  6
CONTINUOUS
 10
4.495040
 20
1.722600
  0
VERTEX
  8
0
  6
CONTINUOUS
 10
4.497680
 20
1.703240
  0
VERTEX
  8
0
  6
CONTINUOUS
 10
4.507360
 20
1.680360
  0
VERTEX
  8
0
  6
CONTINUOUS
 10
4.524960
 20
1.655280
  0
VERTEX
  8
0
  6
CONTINUOUS
 10
4.552240
 20
1.629760
  0
VERTEX
  8
0
  6
CONTINUOUS
 10
4.570280
 20
1.617440
  0
VERTEX
  8
0
  6
CONTINUOUS
 10
4.590960
 20
1.606000
  0
VERTEX
  8
0
  6
CONTINUOUS
 10
4.615160
 20
1.595440
  0
VERTEX
  8
0
  6
CONTINUOUS
 10
4.642880
 20
1.585760
  0
VERTEX
  8
0
  6
CONTINUOUS
 10
4.673680
 20
1.577400
  0
VERTEX
  8
0
  6
CONTINUOUS
 10
4.708880
 20
1.570800
  0
VERTEX
  8
0
  6
CONTINUOUS
 10
4.748040
 20
1.565960
  0
VERTEX
  8
0
  6
CONTINUOUS
 10
4.791160
 20
1.563320
  0
VERTEX
  8
0
  6
CONTINUOUS
 10
4.790720
 20
1.563320
  0
VERTEX
  8
0
  6
CONTINUOUS
 10
4.836920
 20
1.565080
  0
VERTEX
  8
0
  6
CONTINUOUS
 10
4.878280
 20
1.569480
  0
VERTEX
  8
0
  6
CONTINUOUS
 10
4.915240
 20
1.575640
  0
VERTEX
  8
0
  6
CONTINUOUS
 10
4.948240
 20
1.583560
  0
VERTEX
  8
0
  6
CONTINUOUS
 10
4.976840
 20
1.592800
  0
VERTEX
  8
0
  6
CONTINUOUS
 10
5.002360
 20
1.603800
  0
VERTEX
  8
0
  6
CONTINUOUS
 10
5.024360
 20
1.615240
  0
VERTEX
  8
0
  6
CONTINUOUS
 10
5.042840
 20
1.627560
  0
VERTEX
  8
0
  6
CONTINUOUS
 10
5.071000
 20
1.653960
  0
VERTEX
  8
0
  6
CONTINUOUS
 10
5.089040
 20
1.679920
  0
VERTEX
  8
0
  6
CONTINUOUS
 10
5.098720
 20
1.703680
  0
VERTEX
  8
0
  6
CONTINUOUS
 10
5.101360
 20
1.723040
  0
VERTEX
  8
0
  6
CONTINUOUS
 10
5.233360
 20
1.723040
  0
VERTEX
  8
0
  6
CONTINUOUS
 10
5.254040
 20
1.738000
  0
VERTEX
  8
0
  6
CONTINUOUS
 10
5.277360
 20
1.750760
  0
VERTEX
  8
0
  6
CONTINUOUS
 10
5.304200
 20
1.760440
  0
VERTEX
  8
0
  6
CONTINUOUS
 10
5.335440
 20
1.765280
  0
VERTEX
  8
0
  6
CONTINUOUS
 10
5.372840
 20
1.763520
  0
VERTEX
  8
0
  6
CONTINUOUS
 10
5.416400
 20
1.753840
  0
VERTEX
  8
0
  6
CONTINUOUS
 10
5.467880
 20
1.734480
  0
VERTEX
  8
0
  6
CONTINUOUS
 10
5.496920
 20
1.720840
  0
VERTEX
  8
0
  6
CONTINUOUS
 10
5.631560
 20
1.643400
  0
VERTEX
  8
0
  6
CONTINUOUS
 10
5.722640
 20
1.596760
  0
VERTEX
  8
0
  6
CONTINUOUS
 10
5.763560
 20
1.578720
  0
VERTEX
  8
0
  6
CONTINUOUS
 10
5.801400
 20
1.564200
  0
VERTEX
  8
0
  6
CONTINUOUS
 10
5.836160
 20
1.553640
  0
VERTEX
  8
0
  6
CONTINUOUS
 10
5.868280
 20
1.546160
  0
VERTEX
  8
0
  6
CONTINUOUS
 10
5.897320
 20
1.542640
  0
VERTEX
  8
0
  6
CONTINUOUS
 10
5.923280
 20
1.542640
  0
VERTEX
  8
0
  6
CONTINUOUS
 10
5.946600
 20
1.546160
  0
VERTEX
  8
0
  6
CONTINUOUS
 10
5.966840
 20
1.553200
  0
VERTEX
  8
0
  6
CONTINUOUS
 10
5.984440
 20
1.563760
  0
VERTEX
  8
0
  6
CONTINUOUS
 10
5.999400
 20
1.577840
  0
VERTEX
  8
0
  6
CONTINUOUS
 10
6.011280
 20
1.595880
  0
VERTEX
  8
0
  6
CONTINUOUS
 10
6.020080
 20
1.617440
  0
VERTEX
  8
0
  6
CONTINUOUS
 10
6.171440
 20
1.617440
  0
VERTEX
  8
0
  6
CONTINUOUS
 10
6.171440
 20
1.490720
  0
VERTEX
  8
0
  6
CONTINUOUS
 10
6.269120
 20
1.490720
  0
VERTEX
  8
0
  6
CONTINUOUS
 10
6.281000
 20
1.541320
  0
VERTEX
  8
0
  6
CONTINUOUS
 10
6.301680
 20
1.584440
  0
VERTEX
  8
0
  6
CONTINUOUS
 10
6.328960
 20
1.620080
  0
VERTEX
  8
0
  6
CONTINUOUS
 10
6.361960
 20
1.648680
  0
VERTEX
  8
0
  6
CONTINUOUS
 10
6.399360
 20
1.670680
  0
VERTEX
  8
0
  6
CONTINUOUS
 10
6.440720
 20
1.685640
  0
VERTEX
  8
0
  6
CONTINUOUS
 10
6.483840
 20
1.694000
  0
VERTEX
  8
0
  6
CONTINUOUS
 10
6.527840
 20
1.696200
  0
VERTEX
  8
0
  6
CONTINUOUS
 10
6.571840
 20
1.691800
  0
VERTEX
  8
0
  6
CONTINUOUS
 10
6.614520
 20
1.681680
  0
VERTEX
  8
0
  6
CONTINUOUS
 10
6.654120
 20
1.665400
  0
VERTEX
  8
0
  6
CONTINUOUS
 10
6.690200
 20
1.643400
  0
VERTEX
  8
0
  6
CONTINUOUS
 10
6.721000
 20
1.615680
  0
VERTEX
  8
0
  6
CONTINUOUS
 10
6.745640
 20
1.582680
  0
VERTEX
  8
0
  6
CONTINUOUS
 10
6.762800
 20
1.544840
  0
VERTEX
  8
0
  6
CONTINUOUS
 10
6.771160
 20
1.501280
  0
VERTEX
  8
0
  6
CONTINUOUS
 10
6.894800
 20
1.501280
  0
VERTEX
  8
0
  6
CONTINUOUS
 10
6.896120
 20
1.480600
  0
VERTEX
  8
0
  6
CONTINUOUS
 10
6.901400
 20
1.455960
  0
VERTEX
  8
0
  6
CONTINUOUS
 10
6.911960
 20
1.430000
  0
VERTEX
  8
0
  6
CONTINUOUS
 10
6.928680
 20
1.404040
  0
VERTEX
  8
0
  6
CONTINUOUS
 10
6.953320
 20
1.380720
  0
VERTEX
  8
0
  6
CONTINUOUS
 10
6.986760
 20
1.361360
  0
VERTEX
  8
0
  6
CONTINUOUS
 10
7.007000
 20
1.353880
  0
VERTEX
  8
0
  6
CONTINUOUS
 10
7.030320
 20
1.348600
  0
VERTEX
  8
0
  6
CONTINUOUS
 10
7.056720
 20
1.345080
  0
VERTEX
  8
0
  6
CONTINUOUS
 10
7.086200
 20
1.343760
  0
VERTEX
  8
0
  6
CONTINUOUS
 10
7.086200
 20
1.272920
  0
VERTEX
  8
0
  6
CONTINUOUS
 10
7.118320
 20
1.270720
  0
VERTEX
  8
0
  6
CONTINUOUS
 10
7.147800
 20
1.264120
  0
VERTEX
  8
0
  6
CONTINUOUS
 10
7.173760
 20
1.253120
  0
VERTEX
  8
0
  6
CONTINUOUS
 10
7.195760
 20
1.237280
  0
VERTEX
  8
0
  6
CONTINUOUS
 10
7.213800
 20
1.217040
  0
VERTEX
  8
0
  6
CONTINUOUS
 10
7.227000
 20
1.191960
  0
VERTEX
  8
0
  6
CONTINUOUS
 10
7.235360
 20
1.161600
  0
VERTEX
  8
0
  6
CONTINUOUS
 10
7.238440
 20
1.126400
  0
VERTEX
  8
0
  6
CONTINUOUS
 10
3.739560
 20
1.126400
  0
VERTEX
  8
0
  6
CONTINUOUS
 10
3.739560
 20
1.760880
  0
VERTEX
  8
0
  6
CONTINUOUS
 10
4.343680
 20
1.760880
  0
VERTEX
  8
0
  6
CONTINUOUS
 10
4.350720
 20
1.757360
  0
SEQEND
  8
0
  0
SOLID
  8
0
 62
    15
 10
4.235880
 20
1.874840
 11
4.235880
 21
2.512840
 12
4.237640
 22
1.899920
 13
4.237640
 23
2.537480
  0
POLYLINE
  8
0
  6
CONTINUOUS
 66
     1
 40
0.000000
 41
0.000000
  0
VERTEX
  8
0
  6
CONTINUOUS
 10
4.235880
 20
1.874840
  0
VERTEX
  8
0
  6
CONTINUOUS
 10
4.235880
 20
2.512840
  0
VERTEX
  8
0
  6
CONTINUOUS
 10
4.237640
 20
2.537480
  0
VERTEX
  8
0
  6
CONTINUOUS
 10
4.237640
 20
1.899920
  0
VERTEX
  8
0
  6
CONTINUOUS
 10
4.235880
 20
1.874840
  0
SEQEND
  8
0
  0
SOLID
  8
0
 62
    15
 10
3.378320
 20
2.045120
 11
3.378320
 21
2.683120
 12
3.386680
 22
2.053040
 13
3.386680
 23
2.691040
  0
POLYLINE
  8
0
  6
CONTINUOUS
 66
     1
 40
0.000000
 41
0.000000
  0
VERTEX
  8
0
  6
CONTINUOUS
 10
3.378320
 20
2.045120
  0
VERTEX
  8
0
  6
CONTINUOUS
 10
3.378320
 20
2.683120
  0
VERTEX
  8
0
  6
CONTINUOUS
 10
3.386680
 20
2.691040
  0
VERTEX
  8
0
  6
CONTINUOUS
 10
3.386680
 20
2.053040
  0
VERTEX
  8
0
  6
CONTINUOUS
 10
3.378320
 20
2.045120
  0
SEQEND
  8
0
  0
SOLID
  8
0
 62
    15
 10
3.386680
 20
2.053040
 11
3.386680
 21
2.691040
 12
3.396800
 22
2.055240
 13
3.396800
 23
2.692800
  0
POLYLINE
  8
0
  6
CONTINUOUS
 66
     1
 40
0.000000
 41
0.000000
  0
VERTEX
  8
0
  6
CONTINUOUS
 10
3.386680
 20
2.053040
  0
VERTEX
  8
0
  6
CONTINUOUS
 10
3.386680
 20
2.691040
  0
VERTEX
  8
0
  6
CONTINUOUS
 10
3.396800
 20
2.692800
  0
VERTEX
  8
0
  6
CONTINUOUS
 10
3.396800
 20
2.055240
  0
VERTEX
  8
0
  6
CONTINUOUS
 10
3.386680
 20
2.053040
  0
SEQEND
  8
0
  0
SOLID
  8
0
 62
     7
 10
3.396800
 20
2.055240
 11
3.396800
 21
2.692800
 12
3.402080
 22
2.055240
 13
3.402080
 23
2.693240
  0
POLYLINE
  8
0
  6
CONTINUOUS
 66
     1
 40
0.000000
 41
0.000000
  0
VERTEX
  8
0
  6
CONTINUOUS
 10
3.396800
 20
2.055240
  0
VERTEX
  8
0
  6
CONTINUOUS
 10
3.396800
 20
2.692800
  0
VERTEX
  8
0
  6
CONTINUOUS
 10
3.402080
 20
2.693240
  0
VERTEX
  8
0
  6
CONTINUOUS
 10
3.402080
 20
2.055240
  0
VERTEX
  8
0
  6
CONTINUOUS
 10
3.396800
 20
2.055240
  0
SEQEND
  8
0
  0
SOLID
  8
0
 62
    15
 10
3.402080
 20
2.055240
 11
3.402080
 21
2.693240
 12
3.406920
 22
2.056120
 13
3.406920
 23
2.694120
  0
POLYLINE
  8
0
  6
CONTINUOUS
 66
     1
 40
0.000000
 41
0.000000
  0
VERTEX
  8
0
  6
CONTINUOUS
 10
3.402080
 20
2.055240
  0
VERTEX
  8
0
  6
CONTINUOUS
 10
3.402080
 20
2.693240
  0
VERTEX
  8
0
  6
CONTINUOUS
 10
3.406920
 20
2.694120
  0
VERTEX
  8
0
  6
CONTINUOUS
 10
3.406920
 20
2.056120
  0
VERTEX
  8
0
  6
CONTINUOUS
 10
3.402080
 20
2.055240
  0
SEQEND
  8
0
  0
SOLID
  8
0
 62
     7
 10
3.406920
 20
2.056120
 11
3.406920
 21
2.694120
 12
3.912480
 22
2.056120
 13
3.912480
 23
2.694120
  0
POLYLINE
  8
0
  6
CONTINUOUS
 66
     1
 40
0.000000
 41
0.000000
  0
VERTEX
  8
0
  6
CONTINUOUS
 10
3.406920
 20
2.056120
  0
VERTEX
  8
0
  6
CONTINUOUS
 10
3.406920
 20
2.694120
  0
VERTEX
  8
0
  6
CONTINUOUS
 10
3.912480
 20
2.694120
  0
VERTEX
  8
0
  6
CONTINUOUS
 10
3.912480
 20
2.056120
  0
VERTEX
  8
0
  6
CONTINUOUS
 10
3.406920
 20
2.056120
  0
SEQEND
  8
0
  0
SOLID
  8
0
 62
    15
 10
3.912480
 20
2.056120
 11
3.912480
 21
2.694120
 12
3.919080
 22
2.023120
 13
3.919080
 23
2.661120
  0
POLYLINE
  8
0
  6
CONTINUOUS
 66
     1
 40
0.000000
 41
0.000000
  0
VERTEX
  8
0
  6
CONTINUOUS
 10
3.912480
 20
2.056120
  0
VERTEX
  8
0
  6
CONTINUOUS
 10
3.912480
 20
2.694120
  0
VERTEX
  8
0
  6
CONTINUOUS
 10
3.919080
 20
2.661120
  0
VERTEX
  8
0
  6
CONTINUOUS
 10
3.919080
 20
2.023120
  0
VERTEX
  8
0
  6
CONTINUOUS
 10
3.912480
 20
2.056120
  0
SEQEND
  8
0
  0
SOLID
  8
0
 62
    15
 10
3.919080
 20
2.023120
 11
3.919080
 21
2.661120
 12
3.932720
 22
1.990560
 13
3.932720
 23
2.628560
  0
POLYLINE
  8
0
  6
CONTINUOUS
 66
     1
 40
0.000000
 41
0.000000
  0
VERTEX
  8
0
  6
CONTINUOUS
 10
3.919080
 20
2.023120
  0
VERTEX
  8
0
  6
CONTINUOUS
 10
3.919080
 20
2.661120
  0
VERTEX
  8
0
  6
CONTINUOUS
 10
3.932720
 20
2.628560
  0
VERTEX
  8
0
  6
CONTINUOUS
 10
3.932720
 20
1.990560
  0
VERTEX
  8
0
  6
CONTINUOUS
 10
3.919080
 20
2.023120
  0
SEQEND
  8
0
  0
SOLID
  8
0
 62
    15
 10
3.932720
 20
1.990560
 11
3.932720
 21
2.628560
 12
3.954720
 22
1.960200
 13
3.954720
 23
2.597760
  0
POLYLINE
  8
0
  6
CONTINUOUS
 66
     1
 40
0.000000
 41
0.000000
  0
VERTEX
  8
0
  6
CONTINUOUS
 10
3.932720
 20
1.990560
  0
VERTEX
  8
0
  6
CONTINUOUS
 10
3.932720
 20
2.628560
  0
VERTEX
  8
0
  6
CONTINUOUS
 10
3.954720
 20
2.597760
  0
VERTEX
  8
0
  6
CONTINUOUS
 10
3.954720
 20
1.960200
  0
VERTEX
  8
0
  6
CONTINUOUS
 10
3.932720
 20
1.990560
  0
SEQEND
  8
0
  0
SOLID
  8
0
 62
     7
 10
3.954720
 20
1.960200
 11
3.954720
 21
2.597760
 12
3.985960
 22
1.932480
 13
3.986400
 23
2.570040
  0
POLYLINE
  8
0
  6
CONTINUOUS
 66
     1
 40
0.000000
 41
0.000000
  0
VERTEX
  8
0
  6
CONTINUOUS
 10
3.954720
 20
1.960200
  0
VERTEX
  8
0
  6
CONTINUOUS
 10
3.954720
 20
2.597760
  0
VERTEX
  8
0
  6
CONTINUOUS
 10
3.986400
 20
2.570040
  0
VERTEX
  8
0
  6
CONTINUOUS
 10
3.985960
 20
1.932480
  0
VERTEX
  8
0
  6
CONTINUOUS
 10
3.954720
 20
1.960200
  0
SEQEND
  8
0
  0
SOLID
  8
0
 62
     7
 10
3.985960
 20
1.932480
 11
3.986400
 21
2.570040
 12
4.028640
 22
1.908720
 13
4.028640
 23
2.546720
  0
POLYLINE
  8
0
  6
CONTINUOUS
 66
     1
 40
0.000000
 41
0.000000
  0
VERTEX
  8
0
  6
CONTINUOUS
 10
3.985960
 20
1.932480
  0
VERTEX
  8
0
  6
CONTINUOUS
 10
3.986400
 20
2.570040
  0
VERTEX
  8
0
  6
CONTINUOUS
 10
4.028640
 20
2.546720
  0
VERTEX
  8
0
  6
CONTINUOUS
 10
4.028640
 20
1.908720
  0
VERTEX
  8
0
  6
CONTINUOUS
 10
3.985960
 20
1.932480
  0
SEQEND
  8
0
  0
SOLID
  8
0
 62
     7
 10
4.028640
 20
1.908720
 11
4.028640
 21
2.546720
 12
4.083640
 22
1.890680
 13
4.083640
 23
2.528240
  0
POLYLINE
  8
0
  6
CONTINUOUS
 66
     1
 40
0.000000
 41
0.000000
  0
VERTEX
  8
0
  6
CONTINUOUS
 10
4.028640
 20
1.908720
  0
VERTEX
  8
0
  6
CONTINUOUS
 10
4.028640
 20
2.546720
  0
VERTEX
  8
0
  6
CONTINUOUS
 10
4.083640
 20
2.528240
  0
VERTEX
  8
0
  6
CONTINUOUS
 10
4.083640
 20
1.890680
  0
VERTEX
  8
0
  6
CONTINUOUS
 10
4.028640
 20
1.908720
  0
SEQEND
  8
0
  0
SOLID
  8
0
 62
     7
 10
4.083640
 20
1.890680
 11
4.083640
 21
2.528240
 12
4.151840
 22
1.878800
 13
4.151840
 23
2.516800
  0
POLYLINE
  8
0
  6
CONTINUOUS
 66
     1
 40
0.000000
 41
0.000000
  0
VERTEX
  8
0
  6
CONTINUOUS
 10
4.083640
 20
1.890680
  0
VERTEX
  8
0
  6
CONTINUOUS
 10
4.083640
 20
2.528240
  0
VERTEX
  8
0
  6
CONTINUOUS
 10
4.151840
 20
2.516800
  0
VERTEX
  8
0
  6
CONTINUOUS
 10
4.151840
 20
1.878800
  0
VERTEX
  8
0
  6
CONTINUOUS
 10
4.083640
 20
1.890680
  0
SEQEND
  8
0
  0
SOLID
  8
0
 62
     7
 10
4.151840
 20
1.878800
 11
4.151840
 21
2.516800
 12
4.191440
 22
1.875720
 13
4.191440
 23
2.513720
  0
POLYLINE
  8
0
  6
CONTINUOUS
 66
     1
 40
0.000000
 41
0.000000
  0
VERTEX
  8
0
  6
CONTINUOUS
 10
4.151840
 20
1.878800
  0
VERTEX
  8
0
  6
CONTINUOUS
 10
4.151840
 20
2.516800
  0
VERTEX
  8
0
  6
CONTINUOUS
 10
4.191440
 20
2.513720
  0
VERTEX
  8
0
  6
CONTINUOUS
 10
4.191440
 20
1.875720
  0
VERTEX
  8
0
  6
CONTINUOUS
 10
4.151840
 20
1.878800
  0
SEQEND
  8
0
  0
SOLID
  8
0
 62
     7
 10
4.191440
 20
1.875720
 11
4.191440
 21
2.513720
 12
4.235000
 22
1.874840
 13
4.235000
 23
2.512400
  0
POLYLINE
  8
0
  6
CONTINUOUS
 66
     1
 40
0.000000
 41
0.000000
  0
VERTEX
  8
0
  6
CONTINUOUS
 10
4.191440
 20
1.875720
  0
VERTEX
  8
0
  6
CONTINUOUS
 10
4.191440
 20
2.513720
  0
VERTEX
  8
0
  6
CONTINUOUS
 10
4.235000
 20
2.512400
  0
VERTEX
  8
0
  6
CONTINUOUS
 10
4.235000
 20
1.874840
  0
VERTEX
  8
0
  6
CONTINUOUS
 10
4.191440
 20
1.875720
  0
SEQEND
  8
0
  0
SOLID
  8
0
 62
    15
 10
4.235000
 20
1.874840
 11
4.235000
 21
2.512400
 12
4.235880
 22
1.874840
 13
4.235880
 23
2.512840
  0
POLYLINE
  8
0
  6
CONTINUOUS
 66
     1
 40
0.000000
 41
0.000000
  0
VERTEX
  8
0
  6
CONTINUOUS
 10
4.235000
 20
1.874840
  0
VERTEX
  8
0
  6
CONTINUOUS
 10
4.235000
 20
2.512400
  0
VERTEX
  8
0
  6
CONTINUOUS
 10
4.235880
 20
2.512840
  0
VERTEX
  8
0
  6
CONTINUOUS
 10
4.235880
 20
1.874840
  0
VERTEX
  8
0
  6
CONTINUOUS
 10
4.235000
 20
1.874840
  0
SEQEND
  8
0
  0
SOLID
  8
0
 62
    15
 10
3.374800
 20
2.025320
 11
3.375240
 21
2.663320
 12
3.378320
 22
2.045120
 13
3.378320
 23
2.683120
  0
POLYLINE
  8
0
  6
CONTINUOUS
 66
     1
 40
0.000000
 41
0.000000
  0
VERTEX
  8
0
  6
CONTINUOUS
 10
3.374800
 20
2.025320
  0
VERTEX
  8
0
  6
CONTINUOUS
 10
3.375240
 20
2.663320
  0
VERTEX
  8
0
  6
CONTINUOUS
 10
3.378320
 20
2.683120
  0
VERTEX
  8
0
  6
CONTINUOUS
 10
3.378320
 20
2.045120
  0
VERTEX
  8
0
  6
CONTINUOUS
 10
3.374800
 20
2.025320
  0
SEQEND
  8
0
  0
SOLID
  8
0
 62
    15
 10
4.237640
 20
1.899920
 11
4.237640
 21
2.537480
 12
4.243800
 22
1.923680
 13
4.244240
 23
2.561240
  0
POLYLINE
  8
0
  6
CONTINUOUS
 66
     1
 40
0.000000
 41
0.000000
  0
VERTEX
  8
0
  6
CONTINUOUS
 10
4.237640
 20
1.899920
  0
VERTEX
  8
0
  6
CONTINUOUS
 10
4.237640
 20
2.537480
  0
VERTEX
  8
0
  6
CONTINUOUS
 10
4.244240
 20
2.561240
  0
VERTEX
  8
0
  6
CONTINUOUS
 10
4.243800
 20
1.923680
  0
VERTEX
  8
0
  6
CONTINUOUS
 10
4.237640
 20
1.899920
  0
SEQEND
  8
0
  0
SOLID
  8
0
 62
    15
 10
4.243800
 20
1.923680
 11
4.244240
 21
2.561240
 12
4.254800
 22
1.945240
 13
4.254800
 23
2.583240
  0
POLYLINE
  8
0
  6
CONTINUOUS
 66
     1
 40
0.000000
 41
0.000000
  0
VERTEX
  8
0
  6
CONTINUOUS
 10
4.243800
 20
1.923680
  0
VERTEX
  8
0
  6
CONTINUOUS
 10
4.244240
 20
2.561240
  0
VERTEX
  8
0
  6
CONTINUOUS
 10
4.254800
 20
2.583240
  0
VERTEX
  8
0
  6
CONTINUOUS
 10
4.254800
 20
1.945240
  0
VERTEX
  8
0
  6
CONTINUOUS
 10
4.243800
 20
1.923680
  0
SEQEND
  8
0
  0
SOLID
  8
0
 62
    15
 10
4.254800
 20
1.945240
 11
4.254800
 21
2.583240
 12
4.269760
 22
1.964600
 13
4.269760
 23
2.602160
  0
POLYLINE
  8
0
  6
CONTINUOUS
 66
     1
 40
0.000000
 41
0.000000
  0
VERTEX
  8
0
  6
CONTINUOUS
 10
4.254800
 20
1.945240
  0
VERTEX
  8
0
  6
CONTINUOUS
 10
4.254800
 20
2.583240
  0
VERTEX
  8
0
  6
CONTINUOUS
 10
4.269760
 20
2.602160
  0
VERTEX
  8
0
  6
CONTINUOUS
 10
4.269760
 20
1.964600
  0
VERTEX
  8
0
  6
CONTINUOUS
 10
4.254800
 20
1.945240
  0
SEQEND
  8
0
  0
SOLID
  8
0
 62
    15
 10
4.269760
 20
1.964600
 11
4.269760
 21
2.602160
 12
4.287800
 22
1.980440
 13
4.287800
 23
2.618440
  0
POLYLINE
  8
0
  6
CONTINUOUS
 66
     1
 40
0.000000
 41
0.000000
  0
VERTEX
  8
0
  6
CONTINUOUS
 10
4.269760
 20
1.964600
  0
VERTEX
  8
0
  6
CONTINUOUS
 10
4.269760
 20
2.602160
  0
VERTEX
  8
0
  6
CONTINUOUS
 10
4.287800
 20
2.618440
  0
VERTEX
  8
0
  6
CONTINUOUS
 10
4.287800
 20
1.980440
  0
VERTEX
  8
0
  6
CONTINUOUS
 10
4.269760
 20
1.964600
  0
SEQEND
  8
0
  0
SOLID
  8
0
 62
    15
 10
4.287800
 20
1.980440
 11
4.287800
 21
2.618440
 12
4.308920
 22
1.992760
 13
4.308920
 23
2.630760
  0
POLYLINE
  8
0
  6
CONTINUOUS
 66
     1
 40
0.000000
 41
0.000000
  0
VERTEX
  8
0
  6
CONTINUOUS
 10
4.287800
 20
1.980440
  0
VERTEX
  8
0
  6
CONTINUOUS
 10
4.287800
 20
2.618440
  0
VERTEX
  8
0
  6
CONTINUOUS
 10
4.308920
 20
2.630760
  0
VERTEX
  8
0
  6
CONTINUOUS
 10
4.308920
 20
1.992760
  0
VERTEX
  8
0
  6
CONTINUOUS
 10
4.287800
 20
1.980440
  0
SEQEND
  8
0
  0
SOLID
  8
0
 62
    15
 10
4.308920
 20
1.992760
 11
4.308920
 21
2.630760
 12
4.332240
 22
2.000680
 13
4.332240
 23
2.638680
  0
POLYLINE
  8
0
  6
CONTINUOUS
 66
     1
 40
0.000000
 41
0.000000
  0
VERTEX
  8
0
  6
CONTINUOUS
 10
4.308920
 20
1.992760
  0
VERTEX
  8
0
  6
CONTINUOUS
 10
4.308920
 20
2.630760
  0
VERTEX
  8
0
  6
CONTINUOUS
 10
4.332240
 20
2.638680
  0
VERTEX
  8
0
  6
CONTINUOUS
 10
4.332240
 20
2.000680
  0
VERTEX
  8
0
  6
CONTINUOUS
 10
4.308920
 20
1.992760
  0
SEQEND
  8
0
  0
SOLID
  8
0
 62
     7
 10
4.332240
 20
2.000680
 11
4.332240
 21
2.638680
 12
4.357320
 22
2.003320
 13
4.357760
 23
2.641320
  0
POLYLINE
  8
0
  6
CONTINUOUS
 66
     1
 40
0.000000
 41
0.000000
  0
VERTEX
  8
0
  6
CONTINUOUS
 10
4.332240
 20
2.000680
  0
VERTEX
  8
0
  6
CONTINUOUS
 10
4.332240
 20
2.638680
  0
VERTEX
  8
0
  6
CONTINUOUS
 10
4.357760
 20
2.641320
  0
VERTEX
  8
0
  6
CONTINUOUS
 10
4.357320
 20
2.003320
  0
VERTEX
  8
0
  6
CONTINUOUS
 10
4.332240
 20
2.000680
  0
SEQEND
  8
0
  0
SOLID
  8
0
 62
     7
 10
4.357320
 20
2.003320
 11
4.357760
 21
2.641320
 12
4.382840
 22
2.001120
 13
4.382840
 23
2.638680
  0
POLYLINE
  8
0
  6
CONTINUOUS
 66
     1
 40
0.000000
 41
0.000000
  0
VERTEX
  8
0
  6
CONTINUOUS
 10
4.357320
 20
2.003320
  0
VERTEX
  8
0
  6
CONTINUOUS
 10
4.357760
 20
2.641320
  0
VERTEX
  8
0
  6
CONTINUOUS
 10
4.382840
 20
2.638680
  0
VERTEX
  8
0
  6
CONTINUOUS
 10
4.382840
 20
2.001120
  0
VERTEX
  8
0
  6
CONTINUOUS
 10
4.357320
 20
2.003320
  0
SEQEND
  8
0
  0
SOLID
  8
0
 62
     7
 10
4.382840
 20
2.001120
 11
4.382840
 21
2.638680
 12
4.406160
 22
1.994080
 13
4.406160
 23
2.631640
  0
POLYLINE
  8
0
  6
CONTINUOUS
 66
     1
 40
0.000000
 41
0.000000
  0
VERTEX
  8
0
  6
CONTINUOUS
 10
4.382840
 20
2.001120
  0
VERTEX
  8
0
  6
CONTINUOUS
 10
4.382840
 20
2.638680
  0
VERTEX
  8
0
  6
CONTINUOUS
 10
4.406160
 20
2.631640
  0
VERTEX
  8
0
  6
CONTINUOUS
 10
4.406160
 20
1.994080
  0
VERTEX
  8
0
  6
CONTINUOUS
 10
4.382840
 20
2.001120
  0
SEQEND
  8
0
  0
SOLID
  8
0
 62
     7
 10
4.406160
 20
1.994080
 11
4.406160
 21
2.631640
 12
4.427280
 22
1.983080
 13
4.427720
 23
2.620640
  0
POLYLINE
  8
0
  6
CONTINUOUS
 66
     1
 40
0.000000
 41
0.000000
  0
VERTEX
  8
0
  6
CONTINUOUS
 10
4.406160
 20
1.994080
  0
VERTEX
  8
0
  6
CONTINUOUS
 10
4.406160
 20
2.631640
  0
VERTEX
  8
0
  6
CONTINUOUS
 10
4.427720
 20
2.620640
  0
VERTEX
  8
0
  6
CONTINUOUS
 10
4.427280
 20
1.983080
  0
VERTEX
  8
0
  6
CONTINUOUS
 10
4.406160
 20
1.994080
  0
SEQEND
  8
0
  0
SOLID
  8
0
 62
     7
 10
4.427280
 20
1.983080
 11
4.427720
 21
2.620640
 12
4.445760
 22
1.968120
 13
4.446200
 23
2.606120
  0
POLYLINE
  8
0
  6
CONTINUOUS
 66
     1
 40
0.000000
 41
0.000000
  0
VERTEX
  8
0
  6
CONTINUOUS
 10
4.427280
 20
1.983080
  0
VERTEX
  8
0
  6
CONTINUOUS
 10
4.427720
 20
2.620640
  0
VERTEX
  8
0
  6
CONTINUOUS
 10
4.446200
 20
2.606120
  0
VERTEX
  8
0
  6
CONTINUOUS
 10
4.445760
 20
1.968120
  0
VERTEX
  8
0
  6
CONTINUOUS
 10
4.427280
 20
1.983080
  0
SEQEND
  8
0
  0
SOLID
  8
0
 62
    15
 10
4.445760
 20
1.968120
 11
4.446200
 21
2.606120
 12
4.461160
 22
1.950520
 13
4.461160
 23
2.588080
  0
POLYLINE
  8
0
  6
CONTINUOUS
 66
     1
 40
0.000000
 41
0.000000
  0
VERTEX
  8
0
  6
CONTINUOUS
 10
4.445760
 20
1.968120
  0
VERTEX
  8
0
  6
CONTINUOUS
 10
4.446200
 20
2.606120
  0
VERTEX
  8
0
  6
CONTINUOUS
 10
4.461160
 20
2.588080
  0
VERTEX
  8
0
  6
CONTINUOUS
 10
4.461160
 20
1.950520
  0
VERTEX
  8
0
  6
CONTINUOUS
 10
4.445760
 20
1.968120
  0
SEQEND
  8
0
  0
SOLID
  8
0
 62
    15
 10
4.461160
 20
1.950520
 11
4.461160
 21
2.588080
 12
4.472600
 22
1.929840
 13
4.473040
 23
2.567840
  0
POLYLINE
  8
0
  6
CONTINUOUS
 66
     1
 40
0.000000
 41
0.000000
  0
VERTEX
  8
0
  6
CONTINUOUS
 10
4.461160
 20
1.950520
  0
VERTEX
  8
0
  6
CONTINUOUS
 10
4.461160
 20
2.588080
  0
VERTEX
  8
0
  6
CONTINUOUS
 10
4.473040
 20
2.567840
  0
VERTEX
  8
0
  6
CONTINUOUS
 10
4.472600
 20
1.929840
  0
VERTEX
  8
0
  6
CONTINUOUS
 10
4.461160
 20
1.950520
  0
SEQEND
  8
0
  0
SOLID
  8
0
 62
    15
 10
4.472600
 20
1.929840
 11
4.473040
 21
2.567840
 12
4.480080
 22
1.907400
 13
4.480080
 23
2.544960
  0
POLYLINE
  8
0
  6
CONTINUOUS
 66
     1
 40
0.000000
 41
0.000000
  0
VERTEX
  8
0
  6
CONTINUOUS
 10
4.472600
 20
1.929840
  0
VERTEX
  8
0
  6
CONTINUOUS
 10
4.473040
 20
2.567840
  0
VERTEX
  8
0
  6
CONTINUOUS
 10
4.480080
 20
2.544960
  0
VERTEX
  8
0
  6
CONTINUOUS
 10
4.480080
 20
1.907400
  0
VERTEX
  8
0
  6
CONTINUOUS
 10
4.472600
 20
1.929840
  0
SEQEND
  8
0
  0
SOLID
  8
0
 62
    15
 10
4.480080
 20
1.907400
 11
4.480080
 21
2.544960
 12
4.482720
 22
1.883200
 13
4.482720
 23
2.520760
  0
POLYLINE
  8
0
  6
CONTINUOUS
 66
     1
 40
0.000000
 41
0.000000
  0
VERTEX
  8
0
  6
CONTINUOUS
 10
4.480080
 20
1.907400
  0
VERTEX
  8
0
  6
CONTINUOUS
 10
4.480080
 20
2.544960
  0
VERTEX
  8
0
  6
CONTINUOUS
 10
4.482720
 20
2.520760
  0
VERTEX
  8
0
  6
CONTINUOUS
 10
4.482720
 20
1.883200
  0
VERTEX
  8
0
  6
CONTINUOUS
 10
4.480080
 20
1.907400
  0
SEQEND
  8
0
  0
POLYLINE
  8
0
  6
CONTINUOUS
 66
     1
 40
0.000000
 41
0.000000
  0
VERTEX
  8
0
  6
CONTINUOUS
 10
4.378440
 20
1.760880
  0
VERTEX
  8
0
  6
CONTINUOUS
 10
3.740880
 20
1.760880
  0
VERTEX
  8
0
  6
CONTINUOUS
 10
3.739560
 20
1.125080
  0
VERTEX
  8
0
  6
CONTINUOUS
 10
3.376120
 20
1.125080
  0
VERTEX
  8
0
  6
CONTINUOUS
 10
3.374800
 20
2.025320
  0
VERTEX
  8
0
  6
CONTINUOUS
 10
3.378320
 20
2.045120
  0
VERTEX
  8
0
  6
CONTINUOUS
 10
3.386680
 20
2.053040
  0
VERTEX
  8
0
  6
CONTINUOUS
 10
3.396800
 20
2.055240
  0
VERTEX
  8
0
  6
CONTINUOUS
 10
3.402080
 20
2.055240
  0
VERTEX
  8
0
  6
CONTINUOUS
 10
3.406920
 20
2.056120
  0
VERTEX
  8
0
  6
CONTINUOUS
 10
3.912480
 20
2.056120
  0
VERTEX
  8
0
  6
CONTINUOUS
 10
3.919080
 20
2.023120
  0
VERTEX
  8
0
  6
CONTINUOUS
 10
3.932720
 20
1.990560
  0
VERTEX
  8
0
  6
CONTINUOUS
 10
3.954720
 20
1.960200
  0
VERTEX
  8
0
  6
CONTINUOUS
 10
3.985960
 20
1.932480
  0
VERTEX
  8
0
  6
CONTINUOUS
 10
4.028640
 20
1.908720
  0
VERTEX
  8
0
  6
CONTINUOUS
 10
4.083640
 20
1.890680
  0
VERTEX
  8
0
  6
CONTINUOUS
 10
4.151840
 20
1.878800
  0
VERTEX
  8
0
  6
CONTINUOUS
 10
4.191440
 20
1.875720
  0
VERTEX
  8
0
  6
CONTINUOUS
 10
4.235000
 20
1.874840
  0
VERTEX
  8
0
  6
CONTINUOUS
 10
4.235880
 20
1.874840
  0
VERTEX
  8
0
  6
CONTINUOUS
 10
4.237640
 20
1.899920
  0
VERTEX
  8
0
  6
CONTINUOUS
 10
4.243800
 20
1.923680
  0
VERTEX
  8
0
  6
CONTINUOUS
 10
4.254800
 20
1.945240
  0
VERTEX
  8
0
  6
CONTINUOUS
 10
4.269760
 20
1.964600
  0
VERTEX
  8
0
  6
CONTINUOUS
 10
4.287800
 20
1.980440
  0
VERTEX
  8
0
  6
CONTINUOUS
 10
4.308920
 20
1.992760
  0
VERTEX
  8
0
  6
CONTINUOUS
 10
4.332240
 20
2.000680
  0
VERTEX
  8
0
  6
CONTINUOUS
 10
4.357320
 20
2.003320
  0
VERTEX
  8
0
  6
CONTINUOUS
 10
4.382840
 20
2.001120
  0
VERTEX
  8
0
  6
CONTINUOUS
 10
4.406160
 20
1.994080
  0
VERTEX
  8
0
  6
CONTINUOUS
 10
4.427280
 20
1.983080
  0
VERTEX
  8
0
  6
CONTINUOUS
 10
4.445760
 20
1.968120
  0
VERTEX
  8
0
  6
CONTINUOUS
 10
4.461160
 20
1.950520
  0
VERTEX
  8
0
  6
CONTINUOUS
 10
4.472600
 20
1.929840
  0
VERTEX
  8
0
  6
CONTINUOUS
 10
4.480080
 20
1.907400
  0
VERTEX
  8
0
  6
CONTINUOUS
 10
4.482720
 20
1.883200
  0
VERTEX
  8
0
  6
CONTINUOUS
 10
4.474800
 20
1.840960
  0
VERTEX
  8
0
  6
CONTINUOUS
 10
4.452800
 20
1.804000
  0
VERTEX
  8
0
  6
CONTINUOUS
 10
4.420240
 20
1.776280
  0
VERTEX
  8
0
  6
CONTINUOUS
 10
4.380200
 20
1.760440
  0
VERTEX
  8
0
  6
CONTINUOUS
 10
4.378440
 20
1.760880
  0
SEQEND
  8
0
  0
TEXT
  8
0
 10
3.901480
 20
1.224080
 40
0.138106
  1
738
 41
1.000000
  7
SN0
 71
     0
 72
     5
 11
4.178430
 21
1.224080
  0
TEXT
  8
0
 10
4.407040
 20
0.888800
 40
0.138106
  1
BA  726B 15/16" x 1-1/8"
 41
1.000000
  7
SN0
 71
     0
 72
     5
 11
6.237132
 21
0.888800
  0
TEXT
  8
0
 10
4.407040
 20
0.696960
 40
0.138106
  1
BA  738 5/8" x 3-1/2"
 41
1.000000
  7
SN0
 71
     0
 72
     5
 11
5.942057
 21
0.696960
  0
ENDSEC
  0
EOF
