  0
SECTION
  2
HEADER
  9
$ACADVER
  1
AC1006
  9
$EXTMIN
 10
5.358320
 20
0.451440
  9
$EXTMAX
 10
7.917360
 20
1.973840
  9
$LTSCALE
 40
0.044000
  9
$PDMODE
 70
    35
  9
$PDSIZE
 40
0.035200
  0
ENDSEC
  0
SECTION
  2
TABLES
  0
TABLE
  2
LTYPE
 70
     9
  0
LTYPE
  2
CONTINUOUS
 70
    64
  3
Solid line
 72
    65
 73
     0
 40
0.000000
  0
LTYPE
  2
DASHED
 70
    64
  3
__ __ __ __ __ __ __ __ __ __ __ __ __ __ __
 72
    65
 73
     2
 40
0.000330
 49
0.000220
 49
-0.000110
  0
LTYPE
  2
HIDDEN
 70
    64
  3
 _ _ _ _ _ _ _ _ _ _ _ _ _ _ _ _ _ _ _ _ _ _
 72
    65
 73
     2
 40
0.000165
 49
0.000110
 49
-0.000055
  0
LTYPE
  2
CENTER
 70
    64
  3
____ _ ____ _ ____ _ ____ _ ____ _ ____ _ ____
 72
    65
 73
     4
 40
0.000880
 49
0.000550
 49
-0.000110
 49
0.000110
 49
-0.000110
  0
LTYPE
  2
PHANTOM
 70
    64
  3
_____ _ _ _____ _ _ _____ _ _ _____ _ _ ____
 72
    65
 73
     6
 40
0.001100
 49
0.000550
 49
-0.000110
 49
0.000110
 49
-0.000110
 49
0.000110
 49
-0.000110
  0
LTYPE
  2
DOT
 70
    64
  3
...............................................
 72
    65
 73
     2
 40
0.000110
 49
0.000000
 49
-0.000110
  0
LTYPE
  2
DASHDOT
 70
    64
  3
__ . __ . __ . __ . __ . __ . __ . __ . __ . __
 72
    65
 73
     4
 40
0.000440
 49
0.000220
 49
-0.000110
 49
0.000000
 49
-0.000110
  0
LTYPE
  2
BORDER
 70
    64
  3
__ __ . __ __ . __ __ . __ __ . __ __ . __ __
 72
    65
 73
     6
 40
0.000770
 49
0.000220
 49
-0.000110
 49
0.000220
 49
-0.000110
 49
0.000000
 49
-0.000110
  0
LTYPE
  2
DIVIDE
 70
    64
  3
__ . . __ . . __ . . __ . . __ . . __ . . __
 72
    65
 73
     6
 40
0.000550
 49
0.000220
 49
-0.000110
 49
0.000000
 49
-0.000110
 49
0.000000
 49
-0.000110
  0
LTYPE
  2
DOTDOT
 70
    64
  3
 . .  . .  . .  . .  . .  . . 
 72
    65
 73
     5
 40
0.000242
 49
-0.000110
 49
0.000000
 49
-0.000110
 49
0.000000
 49
-0.000110
  0
ENDTAB
  0
TABLE
  2
STYLE
 70
     2
  0
STYLE
 70
     0
  2
SN0
 40
0.000000
 41
0.000440
 50
0.000000
 71
     0
 42
0.000000
  3
ROMAND
  0
STYLE
 70
    68
  2
SV0
 40
0.000000
 41
0.000440
 50
0.000000
 71
     0
 42
0.000000
  3
ROMAND
  0
ENDTAB
  0
TABLE
  2
LAYER
 70
     3
  0
LAYER
  2
FOREGROUND
 70
    64
 62
     7
  6
CONTINUOUS
  0
LAYER
  2
BACKGROUND
 70
    65
 62
    -7
  6
CONTINUOUS
  0
LAYER
  2
0
 70
    64
 62
     7
  6
CONTINUOUS
  0
ENDTAB
  0
ENDSEC
  0
SECTION
  2
ENTITIES
  0
POLYLINE
  8
FOREGROUND
  6
CONTINUOUS
 66
     1
 40
0.000000
 41
0.000000
  0
VERTEX
  8
FOREGROUND
  6
CONTINUOUS
 10
0.000000
 20
2.425280
  0
VERTEX
  8
FOREGROUND
  6
CONTINUOUS
 10
8.499920
 20
2.425280
  0
VERTEX
  8
FOREGROUND
  6
CONTINUOUS
 10
8.499920
 20
-8.574720
  0
VERTEX
  8
FOREGROUND
  6
CONTINUOUS
 10
0.000000
 20
-8.574720
  0
VERTEX
  8
FOREGROUND
  6
CONTINUOUS
 10
0.000000
 20
2.425280
  0
SEQEND
  8
0
  0
POLYLINE
  8
FOREGROUND
  6
CONTINUOUS
 66
     1
 40
0.000000
 41
0.000000
  0
VERTEX
  8
FOREGROUND
  6
CONTINUOUS
 10
0.000000
 20
2.425280
  0
VERTEX
  8
FOREGROUND
  6
CONTINUOUS
 10
8.499920
 20
2.425280
  0
VERTEX
  8
FOREGROUND
  6
CONTINUOUS
 10
8.499920
 20
-8.574720
  0
VERTEX
  8
FOREGROUND
  6
CONTINUOUS
 10
0.000000
 20
-8.574720
  0
VERTEX
  8
FOREGROUND
  6
CONTINUOUS
 10
0.000000
 20
2.425280
  0
SEQEND
  8
0
  0
POLYLINE
  8
0
  6
CONTINUOUS
 66
     1
 40
0.014080
 41
0.014080
  0
VERTEX
  8
0
  6
CONTINUOUS
 10
7.751920
 20
1.299760
  0
VERTEX
  8
0
  6
CONTINUOUS
 10
7.767760
 20
1.300640
  0
VERTEX
  8
0
  6
CONTINUOUS
 10
7.782720
 20
1.302840
  0
VERTEX
  8
0
  6
CONTINUOUS
 10
7.797240
 20
1.306800
  0
VERTEX
  8
0
  6
CONTINUOUS
 10
7.811320
 20
1.311640
  0
VERTEX
  8
0
  6
CONTINUOUS
 10
7.824960
 20
1.318240
  0
VERTEX
  8
0
  6
CONTINUOUS
 10
7.837280
 20
1.325720
  0
VERTEX
  8
0
  6
CONTINUOUS
 10
7.849160
 20
1.334960
  0
VERTEX
  8
0
  6
CONTINUOUS
 10
7.860160
 20
1.344640
  0
VERTEX
  8
0
  6
CONTINUOUS
 10
7.869840
 20
1.355640
  0
VERTEX
  8
0
  6
CONTINUOUS
 10
7.879080
 20
1.367520
  0
VERTEX
  8
0
  6
CONTINUOUS
 10
7.886560
 20
1.379840
  0
VERTEX
  8
0
  6
CONTINUOUS
 10
7.893160
 20
1.393480
  0
VERTEX
  8
0
  6
CONTINUOUS
 10
7.898000
 20
1.407560
  0
VERTEX
  8
0
  6
CONTINUOUS
 10
7.901960
 20
1.422080
  0
VERTEX
  8
0
  6
CONTINUOUS
 10
7.904160
 20
1.437040
  0
VERTEX
  8
0
  6
CONTINUOUS
 10
7.905040
 20
1.452880
  0
VERTEX
  8
0
  6
CONTINUOUS
 10
7.904160
 20
1.468720
  0
VERTEX
  8
0
  6
CONTINUOUS
 10
7.901960
 20
1.483680
  0
VERTEX
  8
0
  6
CONTINUOUS
 10
7.898000
 20
1.498200
  0
VERTEX
  8
0
  6
CONTINUOUS
 10
7.893160
 20
1.512280
  0
VERTEX
  8
0
  6
CONTINUOUS
 10
7.886560
 20
1.525920
  0
VERTEX
  8
0
  6
CONTINUOUS
 10
7.879080
 20
1.538240
  0
VERTEX
  8
0
  6
CONTINUOUS
 10
7.869840
 20
1.550120
  0
VERTEX
  8
0
  6
CONTINUOUS
 10
7.860160
 20
1.561120
  0
VERTEX
  8
0
  6
CONTINUOUS
 10
7.849160
 20
1.570800
  0
VERTEX
  8
0
  6
CONTINUOUS
 10
7.837280
 20
1.580040
  0
VERTEX
  8
0
  6
CONTINUOUS
 10
7.824960
 20
1.587520
  0
VERTEX
  8
0
  6
CONTINUOUS
 10
7.811320
 20
1.594120
  0
VERTEX
  8
0
  6
CONTINUOUS
 10
7.797240
 20
1.598960
  0
VERTEX
  8
0
  6
CONTINUOUS
 10
7.782720
 20
1.602920
  0
VERTEX
  8
0
  6
CONTINUOUS
 10
7.767760
 20
1.605120
  0
VERTEX
  8
0
  6
CONTINUOUS
 10
7.751920
 20
1.606000
  0
VERTEX
  8
0
  6
CONTINUOUS
 10
7.751920
 20
1.661880
  0
VERTEX
  8
0
  6
CONTINUOUS
 10
7.909880
 20
1.661880
  0
VERTEX
  8
0
  6
CONTINUOUS
 10
7.909880
 20
1.966360
  0
VERTEX
  8
0
  6
CONTINUOUS
 10
7.162320
 20
1.966360
  0
VERTEX
  8
0
  6
CONTINUOUS
 10
7.162320
 20
1.300640
  0
VERTEX
  8
0
  6
CONTINUOUS
 10
7.749280
 20
1.300640
  0
VERTEX
  8
0
  6
CONTINUOUS
 10
7.751920
 20
1.299760
  0
SEQEND
  8
0
  0
SOLID
  8
0
 62
    15
 10
6.075520
 20
1.169960
 11
6.723640
 21
1.545280
 12
6.089600
 22
1.144000
 13
6.737720
 23
1.519320
  0
POLYLINE
  8
0
  6
CONTINUOUS
 66
     1
 40
0.000000
 41
0.000000
  0
VERTEX
  8
0
  6
CONTINUOUS
 10
6.075520
 20
1.169960
  0
VERTEX
  8
0
  6
CONTINUOUS
 10
6.723640
 20
1.545280
  0
VERTEX
  8
0
  6
CONTINUOUS
 10
6.737720
 20
1.519320
  0
VERTEX
  8
0
  6
CONTINUOUS
 10
6.089600
 20
1.144000
  0
VERTEX
  8
0
  6
CONTINUOUS
 10
6.075520
 20
1.169960
  0
SEQEND
  8
0
  0
SOLID
  8
0
 62
    15
 10
5.948360
 20
1.293600
 11
6.596480
 21
1.668480
 12
5.948360
 22
1.237720
 13
6.596480
 23
1.612600
  0
POLYLINE
  8
0
  6
CONTINUOUS
 66
     1
 40
0.000000
 41
0.000000
  0
VERTEX
  8
0
  6
CONTINUOUS
 10
5.948360
 20
1.293600
  0
VERTEX
  8
0
  6
CONTINUOUS
 10
6.596480
 20
1.668480
  0
VERTEX
  8
0
  6
CONTINUOUS
 10
6.596480
 20
1.612600
  0
VERTEX
  8
0
  6
CONTINUOUS
 10
5.948360
 20
1.237720
  0
VERTEX
  8
0
  6
CONTINUOUS
 10
5.948360
 20
1.293600
  0
SEQEND
  8
0
  0
SOLID
  8
0
 62
    15
 10
5.948360
 20
1.237720
 11
6.596480
 21
1.612600
 12
5.979160
 22
1.234640
 13
6.627280
 23
1.609520
  0
POLYLINE
  8
0
  6
CONTINUOUS
 66
     1
 40
0.000000
 41
0.000000
  0
VERTEX
  8
0
  6
CONTINUOUS
 10
5.948360
 20
1.237720
  0
VERTEX
  8
0
  6
CONTINUOUS
 10
6.596480
 20
1.612600
  0
VERTEX
  8
0
  6
CONTINUOUS
 10
6.627280
 20
1.609520
  0
VERTEX
  8
0
  6
CONTINUOUS
 10
5.979160
 20
1.234640
  0
VERTEX
  8
0
  6
CONTINUOUS
 10
5.948360
 20
1.237720
  0
SEQEND
  8
0
  0
SOLID
  8
0
 62
    15
 10
5.979160
 20
1.234640
 11
6.627280
 21
1.609520
 12
6.008200
 22
1.225400
 13
6.656320
 23
1.600720
  0
POLYLINE
  8
0
  6
CONTINUOUS
 66
     1
 40
0.000000
 41
0.000000
  0
VERTEX
  8
0
  6
CONTINUOUS
 10
5.979160
 20
1.234640
  0
VERTEX
  8
0
  6
CONTINUOUS
 10
6.627280
 20
1.609520
  0
VERTEX
  8
0
  6
CONTINUOUS
 10
6.656320
 20
1.600720
  0
VERTEX
  8
0
  6
CONTINUOUS
 10
6.008200
 20
1.225400
  0
VERTEX
  8
0
  6
CONTINUOUS
 10
5.979160
 20
1.234640
  0
SEQEND
  8
0
  0
SOLID
  8
0
 62
    15
 10
6.106760
 20
1.597640
 11
6.754880
 21
1.972960
 12
6.106760
 22
1.293600
 13
6.754880
 23
1.668480
  0
POLYLINE
  8
0
  6
CONTINUOUS
 66
     1
 40
0.000000
 41
0.000000
  0
VERTEX
  8
0
  6
CONTINUOUS
 10
6.106760
 20
1.597640
  0
VERTEX
  8
0
  6
CONTINUOUS
 10
6.754880
 20
1.972960
  0
VERTEX
  8
0
  6
CONTINUOUS
 10
6.754880
 20
1.668480
  0
VERTEX
  8
0
  6
CONTINUOUS
 10
6.106760
 20
1.293600
  0
VERTEX
  8
0
  6
CONTINUOUS
 10
6.106760
 20
1.597640
  0
SEQEND
  8
0
  0
SOLID
  8
0
 62
    15
 10
6.008200
 20
1.225400
 11
6.656320
 21
1.600720
 12
6.034160
 22
1.211320
 13
6.682280
 23
1.586640
  0
POLYLINE
  8
0
  6
CONTINUOUS
 66
     1
 40
0.000000
 41
0.000000
  0
VERTEX
  8
0
  6
CONTINUOUS
 10
6.008200
 20
1.225400
  0
VERTEX
  8
0
  6
CONTINUOUS
 10
6.656320
 20
1.600720
  0
VERTEX
  8
0
  6
CONTINUOUS
 10
6.682280
 20
1.586640
  0
VERTEX
  8
0
  6
CONTINUOUS
 10
6.034160
 20
1.211320
  0
VERTEX
  8
0
  6
CONTINUOUS
 10
6.008200
 20
1.225400
  0
SEQEND
  8
0
  0
SOLID
  8
0
 62
    15
 10
6.034160
 20
1.211320
 11
6.682280
 21
1.586640
 12
6.056600
 22
1.192840
 13
6.704720
 23
1.567720
  0
POLYLINE
  8
0
  6
CONTINUOUS
 66
     1
 40
0.000000
 41
0.000000
  0
VERTEX
  8
0
  6
CONTINUOUS
 10
6.034160
 20
1.211320
  0
VERTEX
  8
0
  6
CONTINUOUS
 10
6.682280
 20
1.586640
  0
VERTEX
  8
0
  6
CONTINUOUS
 10
6.704720
 20
1.567720
  0
VERTEX
  8
0
  6
CONTINUOUS
 10
6.056600
 20
1.192840
  0
VERTEX
  8
0
  6
CONTINUOUS
 10
6.034160
 20
1.211320
  0
SEQEND
  8
0
  0
SOLID
  8
0
 62
    15
 10
6.056600
 20
1.192840
 11
6.704720
 21
1.567720
 12
6.075520
 22
1.169960
 13
6.723640
 23
1.545280
  0
POLYLINE
  8
0
  6
CONTINUOUS
 66
     1
 40
0.000000
 41
0.000000
  0
VERTEX
  8
0
  6
CONTINUOUS
 10
6.056600
 20
1.192840
  0
VERTEX
  8
0
  6
CONTINUOUS
 10
6.704720
 20
1.567720
  0
VERTEX
  8
0
  6
CONTINUOUS
 10
6.723640
 20
1.545280
  0
VERTEX
  8
0
  6
CONTINUOUS
 10
6.075520
 20
1.169960
  0
VERTEX
  8
0
  6
CONTINUOUS
 10
6.056600
 20
1.192840
  0
SEQEND
  8
0
  0
SOLID
  8
0
 62
    15
 10
5.358760
 20
1.597640
 11
6.007320
 21
1.972960
 12
6.106760
 22
1.597640
 13
6.754880
 23
1.972960
  0
POLYLINE
  8
0
  6
CONTINUOUS
 66
     1
 40
0.000000
 41
0.000000
  0
VERTEX
  8
0
  6
CONTINUOUS
 10
5.358760
 20
1.597640
  0
VERTEX
  8
0
  6
CONTINUOUS
 10
6.007320
 20
1.972960
  0
VERTEX
  8
0
  6
CONTINUOUS
 10
6.754880
 20
1.972960
  0
VERTEX
  8
0
  6
CONTINUOUS
 10
6.106760
 20
1.597640
  0
VERTEX
  8
0
  6
CONTINUOUS
 10
5.358760
 20
1.597640
  0
SEQEND
  8
0
  0
SOLID
  8
0
 62
    15
 10
6.089600
 20
1.144000
 11
6.737720
 21
1.519320
 12
6.098400
 22
1.115400
 13
6.746520
 23
1.490280
  0
POLYLINE
  8
0
  6
CONTINUOUS
 66
     1
 40
0.000000
 41
0.000000
  0
VERTEX
  8
0
  6
CONTINUOUS
 10
6.089600
 20
1.144000
  0
VERTEX
  8
0
  6
CONTINUOUS
 10
6.737720
 20
1.519320
  0
VERTEX
  8
0
  6
CONTINUOUS
 10
6.746520
 20
1.490280
  0
VERTEX
  8
0
  6
CONTINUOUS
 10
6.098400
 20
1.115400
  0
VERTEX
  8
0
  6
CONTINUOUS
 10
6.089600
 20
1.144000
  0
SEQEND
  8
0
  0
SOLID
  8
0
 62
    15
 10
6.098400
 20
1.115400
 11
6.746520
 21
1.490280
 12
6.101480
 22
1.084160
 13
6.750040
 23
1.459480
  0
POLYLINE
  8
0
  6
CONTINUOUS
 66
     1
 40
0.000000
 41
0.000000
  0
VERTEX
  8
0
  6
CONTINUOUS
 10
6.098400
 20
1.115400
  0
VERTEX
  8
0
  6
CONTINUOUS
 10
6.746520
 20
1.490280
  0
VERTEX
  8
0
  6
CONTINUOUS
 10
6.750040
 20
1.459480
  0
VERTEX
  8
0
  6
CONTINUOUS
 10
6.101480
 20
1.084160
  0
VERTEX
  8
0
  6
CONTINUOUS
 10
6.098400
 20
1.115400
  0
SEQEND
  8
0
  0
SOLID
  8
0
 62
    15
 10
6.101480
 20
1.084160
 11
6.750040
 21
1.459480
 12
6.098400
 22
1.053360
 13
6.746520
 23
1.428680
  0
POLYLINE
  8
0
  6
CONTINUOUS
 66
     1
 40
0.000000
 41
0.000000
  0
VERTEX
  8
0
  6
CONTINUOUS
 10
6.101480
 20
1.084160
  0
VERTEX
  8
0
  6
CONTINUOUS
 10
6.750040
 20
1.459480
  0
VERTEX
  8
0
  6
CONTINUOUS
 10
6.746520
 20
1.428680
  0
VERTEX
  8
0
  6
CONTINUOUS
 10
6.098400
 20
1.053360
  0
VERTEX
  8
0
  6
CONTINUOUS
 10
6.101480
 20
1.084160
  0
SEQEND
  8
0
  0
SOLID
  8
0
 62
    15
 10
6.098400
 20
1.053360
 11
6.746520
 21
1.428680
 12
6.089600
 22
1.024760
 13
6.737720
 23
1.399640
  0
POLYLINE
  8
0
  6
CONTINUOUS
 66
     1
 40
0.000000
 41
0.000000
  0
VERTEX
  8
0
  6
CONTINUOUS
 10
6.098400
 20
1.053360
  0
VERTEX
  8
0
  6
CONTINUOUS
 10
6.746520
 20
1.428680
  0
VERTEX
  8
0
  6
CONTINUOUS
 10
6.737720
 20
1.399640
  0
VERTEX
  8
0
  6
CONTINUOUS
 10
6.089600
 20
1.024760
  0
VERTEX
  8
0
  6
CONTINUOUS
 10
6.098400
 20
1.053360
  0
SEQEND
  8
0
  0
SOLID
  8
0
 62
    15
 10
6.089600
 20
1.024760
 11
6.737720
 21
1.399640
 12
6.075520
 22
0.998800
 13
6.723640
 23
1.373680
  0
POLYLINE
  8
0
  6
CONTINUOUS
 66
     1
 40
0.000000
 41
0.000000
  0
VERTEX
  8
0
  6
CONTINUOUS
 10
6.089600
 20
1.024760
  0
VERTEX
  8
0
  6
CONTINUOUS
 10
6.737720
 20
1.399640
  0
VERTEX
  8
0
  6
CONTINUOUS
 10
6.723640
 20
1.373680
  0
VERTEX
  8
0
  6
CONTINUOUS
 10
6.075520
 20
0.998800
  0
VERTEX
  8
0
  6
CONTINUOUS
 10
6.089600
 20
1.024760
  0
SEQEND
  8
0
  0
SOLID
  8
0
 62
    15
 10
6.075520
 20
0.998800
 11
6.723640
 21
1.373680
 12
6.056600
 22
0.975920
 13
6.704720
 23
1.351240
  0
POLYLINE
  8
0
  6
CONTINUOUS
 66
     1
 40
0.000000
 41
0.000000
  0
VERTEX
  8
0
  6
CONTINUOUS
 10
6.075520
 20
0.998800
  0
VERTEX
  8
0
  6
CONTINUOUS
 10
6.723640
 20
1.373680
  0
VERTEX
  8
0
  6
CONTINUOUS
 10
6.704720
 20
1.351240
  0
VERTEX
  8
0
  6
CONTINUOUS
 10
6.056600
 20
0.975920
  0
VERTEX
  8
0
  6
CONTINUOUS
 10
6.075520
 20
0.998800
  0
SEQEND
  8
0
  0
SOLID
  8
0
 62
    15
 10
6.056600
 20
0.975920
 11
6.704720
 21
1.351240
 12
6.034160
 22
0.957000
 13
6.682280
 23
1.332320
  0
POLYLINE
  8
0
  6
CONTINUOUS
 66
     1
 40
0.000000
 41
0.000000
  0
VERTEX
  8
0
  6
CONTINUOUS
 10
6.056600
 20
0.975920
  0
VERTEX
  8
0
  6
CONTINUOUS
 10
6.704720
 20
1.351240
  0
VERTEX
  8
0
  6
CONTINUOUS
 10
6.682280
 20
1.332320
  0
VERTEX
  8
0
  6
CONTINUOUS
 10
6.034160
 20
0.957000
  0
VERTEX
  8
0
  6
CONTINUOUS
 10
6.056600
 20
0.975920
  0
SEQEND
  8
0
  0
POLYLINE
  8
0
  6
CONTINUOUS
 66
     1
 40
0.000000
 41
0.000000
  0
VERTEX
  8
0
  6
CONTINUOUS
 10
5.945720
 20
0.931920
  0
VERTEX
  8
0
  6
CONTINUOUS
 10
5.358760
 20
0.931920
  0
VERTEX
  8
0
  6
CONTINUOUS
 10
5.358760
 20
1.597640
  0
VERTEX
  8
0
  6
CONTINUOUS
 10
6.106760
 20
1.597640
  0
VERTEX
  8
0
  6
CONTINUOUS
 10
6.106760
 20
1.293600
  0
VERTEX
  8
0
  6
CONTINUOUS
 10
5.948360
 20
1.293600
  0
VERTEX
  8
0
  6
CONTINUOUS
 10
5.948360
 20
1.237720
  0
VERTEX
  8
0
  6
CONTINUOUS
 10
5.979160
 20
1.234640
  0
VERTEX
  8
0
  6
CONTINUOUS
 10
6.008200
 20
1.225400
  0
VERTEX
  8
0
  6
CONTINUOUS
 10
6.034160
 20
1.211320
  0
VERTEX
  8
0
  6
CONTINUOUS
 10
6.056600
 20
1.192840
  0
VERTEX
  8
0
  6
CONTINUOUS
 10
6.075520
 20
1.169960
  0
VERTEX
  8
0
  6
CONTINUOUS
 10
6.089600
 20
1.144000
  0
VERTEX
  8
0
  6
CONTINUOUS
 10
6.098400
 20
1.115400
  0
VERTEX
  8
0
  6
CONTINUOUS
 10
6.101480
 20
1.084160
  0
VERTEX
  8
0
  6
CONTINUOUS
 10
6.098400
 20
1.053360
  0
VERTEX
  8
0
  6
CONTINUOUS
 10
6.089600
 20
1.024760
  0
VERTEX
  8
0
  6
CONTINUOUS
 10
6.075520
 20
0.998800
  0
VERTEX
  8
0
  6
CONTINUOUS
 10
6.056600
 20
0.975920
  0
VERTEX
  8
0
  6
CONTINUOUS
 10
6.034160
 20
0.957000
  0
VERTEX
  8
0
  6
CONTINUOUS
 10
6.008200
 20
0.942920
  0
VERTEX
  8
0
  6
CONTINUOUS
 10
5.979160
 20
0.934120
  0
VERTEX
  8
0
  6
CONTINUOUS
 10
5.948360
 20
0.931040
  0
VERTEX
  8
0
  6
CONTINUOUS
 10
5.945720
 20
0.931920
  0
SEQEND
  8
0
  0
TEXT
  8
0
 10
5.762240
 20
0.686840
 40
0.138172
  1
BA  736
 41
1.000000
  7
SN0
 71
     0
 72
     5
 11
6.352355
 21
0.686840
  0
TEXT
  8
0
 10
5.587560
 20
0.495000
 40
0.138172
  1
3/4" x 11/16"
 41
1.000000
  7
SN0
 71
     0
 72
     5
 11
6.525064
 21
0.495000
  0
ENDSEC
  0
EOF
