  0
SECTION
  2
HEADER
  9
$ACADVER
  1
AC1006
  9
$EXTMIN
 10
1.660560
 20
3.507240
  9
$EXTMAX
 10
6.838920
 20
8.568560
  9
$LTSCALE
 40
0.044000
  9
$PDMODE
 70
    35
  9
$PDSIZE
 40
0.035200
  0
ENDSEC
  0
SECTION
  2
TABLES
  0
TABLE
  2
LTYPE
 70
     9
  0
LTYPE
  2
CONTINUOUS
 70
    64
  3
Solid line
 72
    65
 73
     0
 40
0.000000
  0
LTYPE
  2
DASHED
 70
    64
  3
__ __ __ __ __ __ __ __ __ __ __ __ __ __ __
 72
    65
 73
     2
 40
0.000330
 49
0.000220
 49
-0.000110
  0
LTYPE
  2
HIDDEN
 70
    64
  3
 _ _ _ _ _ _ _ _ _ _ _ _ _ _ _ _ _ _ _ _ _ _
 72
    65
 73
     2
 40
0.000165
 49
0.000110
 49
-0.000055
  0
LTYPE
  2
CENTER
 70
    64
  3
____ _ ____ _ ____ _ ____ _ ____ _ ____ _ ____
 72
    65
 73
     4
 40
0.000880
 49
0.000550
 49
-0.000110
 49
0.000110
 49
-0.000110
  0
LTYPE
  2
PHANTOM
 70
    64
  3
_____ _ _ _____ _ _ _____ _ _ _____ _ _ ____
 72
    65
 73
     6
 40
0.001100
 49
0.000550
 49
-0.000110
 49
0.000110
 49
-0.000110
 49
0.000110
 49
-0.000110
  0
LTYPE
  2
DOT
 70
    64
  3
...............................................
 72
    65
 73
     2
 40
0.000110
 49
0.000000
 49
-0.000110
  0
LTYPE
  2
DASHDOT
 70
    64
  3
__ . __ . __ . __ . __ . __ . __ . __ . __ . __
 72
    65
 73
     4
 40
0.000440
 49
0.000220
 49
-0.000110
 49
0.000000
 49
-0.000110
  0
LTYPE
  2
BORDER
 70
    64
  3
__ __ . __ __ . __ __ . __ __ . __ __ . __ __
 72
    65
 73
     6
 40
0.000770
 49
0.000220
 49
-0.000110
 49
0.000220
 49
-0.000110
 49
0.000000
 49
-0.000110
  0
LTYPE
  2
DIVIDE
 70
    64
  3
__ . . __ . . __ . . __ . . __ . . __ . . __
 72
    65
 73
     6
 40
0.000550
 49
0.000220
 49
-0.000110
 49
0.000000
 49
-0.000110
 49
0.000000
 49
-0.000110
  0
LTYPE
  2
DOTDOT
 70
    64
  3
 . .  . .  . .  . .  . .  . . 
 72
    65
 73
     5
 40
0.000242
 49
-0.000110
 49
0.000000
 49
-0.000110
 49
0.000000
 49
-0.000110
  0
ENDTAB
  0
TABLE
  2
STYLE
 70
     2
  0
STYLE
 70
     0
  2
SN0
 40
0.000000
 41
0.000440
 50
0.000000
 71
     0
 42
0.000000
  3
ROMAND
  0
STYLE
 70
    68
  2
SV0
 40
0.000000
 41
0.000440
 50
0.000000
 71
     0
 42
0.000000
  3
ROMAND
  0
ENDTAB
  0
TABLE
  2
LAYER
 70
     3
  0
LAYER
  2
FOREGROUND
 70
    64
 62
     7
  6
CONTINUOUS
  0
LAYER
  2
BACKGROUND
 70
    65
 62
    -7
  6
CONTINUOUS
  0
LAYER
  2
0
 70
    64
 62
     7
  6
CONTINUOUS
  0
ENDTAB
  0
ENDSEC
  0
SECTION
  2
ENTITIES
  0
POLYLINE
  8
FOREGROUND
  6
CONTINUOUS
 66
     1
 40
0.000000
 41
0.000000
  0
VERTEX
  8
FOREGROUND
  6
CONTINUOUS
 10
0.000000
 20
12.075800
  0
VERTEX
  8
FOREGROUND
  6
CONTINUOUS
 10
8.499920
 20
12.075800
  0
VERTEX
  8
FOREGROUND
  6
CONTINUOUS
 10
8.499920
 20
1.075800
  0
VERTEX
  8
FOREGROUND
  6
CONTINUOUS
 10
0.000000
 20
1.075800
  0
VERTEX
  8
FOREGROUND
  6
CONTINUOUS
 10
0.000000
 20
12.075800
  0
SEQEND
  8
0
  0
POLYLINE
  8
FOREGROUND
  6
CONTINUOUS
 66
     1
 40
0.000000
 41
0.000000
  0
VERTEX
  8
FOREGROUND
  6
CONTINUOUS
 10
0.000000
 20
12.075800
  0
VERTEX
  8
FOREGROUND
  6
CONTINUOUS
 10
8.499920
 20
12.075800
  0
VERTEX
  8
FOREGROUND
  6
CONTINUOUS
 10
8.499920
 20
1.075800
  0
VERTEX
  8
FOREGROUND
  6
CONTINUOUS
 10
0.000000
 20
1.075800
  0
VERTEX
  8
FOREGROUND
  6
CONTINUOUS
 10
0.000000
 20
12.075800
  0
SEQEND
  8
0
  0
SOLID
  8
0
 62
    15
 10
3.246760
 20
7.941560
 11
3.886080
 21
8.307200
 12
3.329040
 22
7.917360
 13
3.968360
 23
8.283000
  0
POLYLINE
  8
0
  6
CONTINUOUS
 66
     1
 40
0.000000
 41
0.000000
  0
VERTEX
  8
0
  6
CONTINUOUS
 10
3.246760
 20
7.941560
  0
VERTEX
  8
0
  6
CONTINUOUS
 10
3.886080
 20
8.307200
  0
VERTEX
  8
0
  6
CONTINUOUS
 10
3.968360
 20
8.283000
  0
VERTEX
  8
0
  6
CONTINUOUS
 10
3.329040
 20
7.917360
  0
VERTEX
  8
0
  6
CONTINUOUS
 10
3.246760
 20
7.941560
  0
SEQEND
  8
0
  0
SOLID
  8
0
 62
     7
 10
2.736360
 20
8.158040
 11
3.375680
 21
8.523680
 12
2.739880
 22
8.128560
 13
3.379200
 23
8.494200
  0
POLYLINE
  8
0
  6
CONTINUOUS
 66
     1
 40
0.000000
 41
0.000000
  0
VERTEX
  8
0
  6
CONTINUOUS
 10
2.736360
 20
8.158040
  0
VERTEX
  8
0
  6
CONTINUOUS
 10
3.375680
 20
8.523680
  0
VERTEX
  8
0
  6
CONTINUOUS
 10
3.379200
 20
8.494200
  0
VERTEX
  8
0
  6
CONTINUOUS
 10
2.739880
 20
8.128560
  0
VERTEX
  8
0
  6
CONTINUOUS
 10
2.736360
 20
8.158040
  0
SEQEND
  8
0
  0
SOLID
  8
0
 62
     7
 10
2.739880
 20
8.128560
 11
3.379200
 21
8.494200
 12
2.745160
 22
8.103040
 13
3.384480
 23
8.468680
  0
POLYLINE
  8
0
  6
CONTINUOUS
 66
     1
 40
0.000000
 41
0.000000
  0
VERTEX
  8
0
  6
CONTINUOUS
 10
2.739880
 20
8.128560
  0
VERTEX
  8
0
  6
CONTINUOUS
 10
3.379200
 20
8.494200
  0
VERTEX
  8
0
  6
CONTINUOUS
 10
3.384480
 20
8.468680
  0
VERTEX
  8
0
  6
CONTINUOUS
 10
2.745160
 20
8.103040
  0
VERTEX
  8
0
  6
CONTINUOUS
 10
2.739880
 20
8.128560
  0
SEQEND
  8
0
  0
SOLID
  8
0
 62
     7
 10
2.745160
 20
8.103040
 11
3.384480
 21
8.468680
 12
2.751320
 22
8.081040
 13
3.390640
 23
8.446680
  0
POLYLINE
  8
0
  6
CONTINUOUS
 66
     1
 40
0.000000
 41
0.000000
  0
VERTEX
  8
0
  6
CONTINUOUS
 10
2.745160
 20
8.103040
  0
VERTEX
  8
0
  6
CONTINUOUS
 10
3.384480
 20
8.468680
  0
VERTEX
  8
0
  6
CONTINUOUS
 10
3.390640
 20
8.446680
  0
VERTEX
  8
0
  6
CONTINUOUS
 10
2.751320
 20
8.081040
  0
VERTEX
  8
0
  6
CONTINUOUS
 10
2.745160
 20
8.103040
  0
SEQEND
  8
0
  0
SOLID
  8
0
 62
     7
 10
2.751320
 20
8.081040
 11
3.390640
 21
8.446680
 12
2.759680
 22
8.062560
 13
3.399000
 23
8.428200
  0
POLYLINE
  8
0
  6
CONTINUOUS
 66
     1
 40
0.000000
 41
0.000000
  0
VERTEX
  8
0
  6
CONTINUOUS
 10
2.751320
 20
8.081040
  0
VERTEX
  8
0
  6
CONTINUOUS
 10
3.390640
 20
8.446680
  0
VERTEX
  8
0
  6
CONTINUOUS
 10
3.399000
 20
8.428200
  0
VERTEX
  8
0
  6
CONTINUOUS
 10
2.759680
 20
8.062560
  0
VERTEX
  8
0
  6
CONTINUOUS
 10
2.751320
 20
8.081040
  0
SEQEND
  8
0
  0
SOLID
  8
0
 62
     7
 10
2.759680
 20
8.062560
 11
3.399000
 21
8.428200
 12
2.769800
 22
8.047160
 13
3.409120
 23
8.412800
  0
POLYLINE
  8
0
  6
CONTINUOUS
 66
     1
 40
0.000000
 41
0.000000
  0
VERTEX
  8
0
  6
CONTINUOUS
 10
2.759680
 20
8.062560
  0
VERTEX
  8
0
  6
CONTINUOUS
 10
3.399000
 20
8.428200
  0
VERTEX
  8
0
  6
CONTINUOUS
 10
3.409120
 20
8.412800
  0
VERTEX
  8
0
  6
CONTINUOUS
 10
2.769800
 20
8.047160
  0
VERTEX
  8
0
  6
CONTINUOUS
 10
2.759680
 20
8.062560
  0
SEQEND
  8
0
  0
SOLID
  8
0
 62
     7
 10
2.769800
 20
8.047160
 11
3.409120
 21
8.412800
 12
2.797520
 22
8.023840
 13
3.436840
 23
8.389480
  0
POLYLINE
  8
0
  6
CONTINUOUS
 66
     1
 40
0.000000
 41
0.000000
  0
VERTEX
  8
0
  6
CONTINUOUS
 10
2.769800
 20
8.047160
  0
VERTEX
  8
0
  6
CONTINUOUS
 10
3.409120
 20
8.412800
  0
VERTEX
  8
0
  6
CONTINUOUS
 10
3.436840
 20
8.389480
  0
VERTEX
  8
0
  6
CONTINUOUS
 10
2.797520
 20
8.023840
  0
VERTEX
  8
0
  6
CONTINUOUS
 10
2.769800
 20
8.047160
  0
SEQEND
  8
0
  0
SOLID
  8
0
 62
     7
 10
2.797520
 20
8.023840
 11
3.436840
 21
8.389480
 12
2.815560
 22
8.015040
 13
3.454880
 23
8.380680
  0
POLYLINE
  8
0
  6
CONTINUOUS
 66
     1
 40
0.000000
 41
0.000000
  0
VERTEX
  8
0
  6
CONTINUOUS
 10
2.797520
 20
8.023840
  0
VERTEX
  8
0
  6
CONTINUOUS
 10
3.436840
 20
8.389480
  0
VERTEX
  8
0
  6
CONTINUOUS
 10
3.454880
 20
8.380680
  0
VERTEX
  8
0
  6
CONTINUOUS
 10
2.815560
 20
8.015040
  0
VERTEX
  8
0
  6
CONTINUOUS
 10
2.797520
 20
8.023840
  0
SEQEND
  8
0
  0
SOLID
  8
0
 62
    15
 10
2.815560
 20
8.015040
 11
3.454880
 21
8.380680
 12
2.837120
 22
8.008000
 13
3.476440
 23
8.373640
  0
POLYLINE
  8
0
  6
CONTINUOUS
 66
     1
 40
0.000000
 41
0.000000
  0
VERTEX
  8
0
  6
CONTINUOUS
 10
2.815560
 20
8.015040
  0
VERTEX
  8
0
  6
CONTINUOUS
 10
3.454880
 20
8.380680
  0
VERTEX
  8
0
  6
CONTINUOUS
 10
3.476440
 20
8.373640
  0
VERTEX
  8
0
  6
CONTINUOUS
 10
2.837120
 20
8.008000
  0
VERTEX
  8
0
  6
CONTINUOUS
 10
2.815560
 20
8.015040
  0
SEQEND
  8
0
  0
SOLID
  8
0
 62
    15
 10
2.837120
 20
8.008000
 11
3.476440
 21
8.373640
 12
2.862640
 22
8.001840
 13
3.501960
 23
8.367480
  0
POLYLINE
  8
0
  6
CONTINUOUS
 66
     1
 40
0.000000
 41
0.000000
  0
VERTEX
  8
0
  6
CONTINUOUS
 10
2.837120
 20
8.008000
  0
VERTEX
  8
0
  6
CONTINUOUS
 10
3.476440
 20
8.373640
  0
VERTEX
  8
0
  6
CONTINUOUS
 10
3.501960
 20
8.367480
  0
VERTEX
  8
0
  6
CONTINUOUS
 10
2.862640
 20
8.001840
  0
VERTEX
  8
0
  6
CONTINUOUS
 10
2.837120
 20
8.008000
  0
SEQEND
  8
0
  0
SOLID
  8
0
 62
    15
 10
2.862640
 20
8.001840
 11
3.501960
 21
8.367480
 12
2.891680
 22
7.997000
 13
3.531000
 23
8.362640
  0
POLYLINE
  8
0
  6
CONTINUOUS
 66
     1
 40
0.000000
 41
0.000000
  0
VERTEX
  8
0
  6
CONTINUOUS
 10
2.862640
 20
8.001840
  0
VERTEX
  8
0
  6
CONTINUOUS
 10
3.501960
 20
8.367480
  0
VERTEX
  8
0
  6
CONTINUOUS
 10
3.531000
 20
8.362640
  0
VERTEX
  8
0
  6
CONTINUOUS
 10
2.891680
 20
7.997000
  0
VERTEX
  8
0
  6
CONTINUOUS
 10
2.862640
 20
8.001840
  0
SEQEND
  8
0
  0
SOLID
  8
0
 62
    15
 10
2.891680
 20
7.997000
 11
3.531000
 21
8.362640
 12
2.925120
 22
7.992160
 13
3.564440
 23
8.357800
  0
POLYLINE
  8
0
  6
CONTINUOUS
 66
     1
 40
0.000000
 41
0.000000
  0
VERTEX
  8
0
  6
CONTINUOUS
 10
2.891680
 20
7.997000
  0
VERTEX
  8
0
  6
CONTINUOUS
 10
3.531000
 20
8.362640
  0
VERTEX
  8
0
  6
CONTINUOUS
 10
3.564440
 20
8.357800
  0
VERTEX
  8
0
  6
CONTINUOUS
 10
2.925120
 20
7.992160
  0
VERTEX
  8
0
  6
CONTINUOUS
 10
2.891680
 20
7.997000
  0
SEQEND
  8
0
  0
SOLID
  8
0
 62
    15
 10
2.925120
 20
7.992160
 11
3.564440
 21
8.357800
 12
2.962960
 22
7.987760
 13
3.602280
 23
8.353400
  0
POLYLINE
  8
0
  6
CONTINUOUS
 66
     1
 40
0.000000
 41
0.000000
  0
VERTEX
  8
0
  6
CONTINUOUS
 10
2.925120
 20
7.992160
  0
VERTEX
  8
0
  6
CONTINUOUS
 10
3.564440
 20
8.357800
  0
VERTEX
  8
0
  6
CONTINUOUS
 10
3.602280
 20
8.353400
  0
VERTEX
  8
0
  6
CONTINUOUS
 10
2.962960
 20
7.987760
  0
VERTEX
  8
0
  6
CONTINUOUS
 10
2.925120
 20
7.992160
  0
SEQEND
  8
0
  0
SOLID
  8
0
 62
    15
 10
2.962960
 20
7.987760
 11
3.602280
 21
8.353400
 12
3.029400
 22
7.980280
 13
3.668720
 23
8.345920
  0
POLYLINE
  8
0
  6
CONTINUOUS
 66
     1
 40
0.000000
 41
0.000000
  0
VERTEX
  8
0
  6
CONTINUOUS
 10
2.962960
 20
7.987760
  0
VERTEX
  8
0
  6
CONTINUOUS
 10
3.602280
 20
8.353400
  0
VERTEX
  8
0
  6
CONTINUOUS
 10
3.668720
 20
8.345920
  0
VERTEX
  8
0
  6
CONTINUOUS
 10
3.029400
 20
7.980280
  0
VERTEX
  8
0
  6
CONTINUOUS
 10
2.962960
 20
7.987760
  0
SEQEND
  8
0
  0
SOLID
  8
0
 62
    15
 10
3.029400
 20
7.980280
 11
3.668720
 21
8.345920
 12
3.054040
 22
7.977200
 13
3.693360
 23
8.343280
  0
POLYLINE
  8
0
  6
CONTINUOUS
 66
     1
 40
0.000000
 41
0.000000
  0
VERTEX
  8
0
  6
CONTINUOUS
 10
3.029400
 20
7.980280
  0
VERTEX
  8
0
  6
CONTINUOUS
 10
3.668720
 20
8.345920
  0
VERTEX
  8
0
  6
CONTINUOUS
 10
3.693360
 20
8.343280
  0
VERTEX
  8
0
  6
CONTINUOUS
 10
3.054040
 20
7.977200
  0
VERTEX
  8
0
  6
CONTINUOUS
 10
3.029400
 20
7.980280
  0
SEQEND
  8
0
  0
SOLID
  8
0
 62
    15
 10
3.054040
 20
7.977200
 11
3.693360
 21
8.343280
 12
3.155680
 22
7.961800
 13
3.795000
 23
8.327440
  0
POLYLINE
  8
0
  6
CONTINUOUS
 66
     1
 40
0.000000
 41
0.000000
  0
VERTEX
  8
0
  6
CONTINUOUS
 10
3.054040
 20
7.977200
  0
VERTEX
  8
0
  6
CONTINUOUS
 10
3.693360
 20
8.343280
  0
VERTEX
  8
0
  6
CONTINUOUS
 10
3.795000
 20
8.327440
  0
VERTEX
  8
0
  6
CONTINUOUS
 10
3.155680
 20
7.961800
  0
VERTEX
  8
0
  6
CONTINUOUS
 10
3.054040
 20
7.977200
  0
SEQEND
  8
0
  0
SOLID
  8
0
 62
    15
 10
3.155680
 20
7.961800
 11
3.795000
 21
8.327440
 12
3.246760
 22
7.941560
 13
3.886080
 23
8.307200
  0
POLYLINE
  8
0
  6
CONTINUOUS
 66
     1
 40
0.000000
 41
0.000000
  0
VERTEX
  8
0
  6
CONTINUOUS
 10
3.155680
 20
7.961800
  0
VERTEX
  8
0
  6
CONTINUOUS
 10
3.795000
 20
8.327440
  0
VERTEX
  8
0
  6
CONTINUOUS
 10
3.886080
 20
8.307200
  0
VERTEX
  8
0
  6
CONTINUOUS
 10
3.246760
 20
7.941560
  0
VERTEX
  8
0
  6
CONTINUOUS
 10
3.155680
 20
7.961800
  0
SEQEND
  8
0
  0
SOLID
  8
0
 62
     7
 10
2.733280
 20
8.191920
 11
3.372600
 21
8.557560
 12
2.736360
 22
8.158040
 13
3.375680
 23
8.523680
  0
POLYLINE
  8
0
  6
CONTINUOUS
 66
     1
 40
0.000000
 41
0.000000
  0
VERTEX
  8
0
  6
CONTINUOUS
 10
2.733280
 20
8.191920
  0
VERTEX
  8
0
  6
CONTINUOUS
 10
3.372600
 20
8.557560
  0
VERTEX
  8
0
  6
CONTINUOUS
 10
3.375680
 20
8.523680
  0
VERTEX
  8
0
  6
CONTINUOUS
 10
2.736360
 20
8.158040
  0
VERTEX
  8
0
  6
CONTINUOUS
 10
2.733280
 20
8.191920
  0
SEQEND
  8
0
  0
SOLID
  8
0
 62
    15
 10
3.329040
 20
7.917360
 11
3.968360
 21
8.283000
 12
3.405160
 22
7.890960
 13
4.044480
 23
8.256600
  0
POLYLINE
  8
0
  6
CONTINUOUS
 66
     1
 40
0.000000
 41
0.000000
  0
VERTEX
  8
0
  6
CONTINUOUS
 10
3.329040
 20
7.917360
  0
VERTEX
  8
0
  6
CONTINUOUS
 10
3.968360
 20
8.283000
  0
VERTEX
  8
0
  6
CONTINUOUS
 10
4.044480
 20
8.256600
  0
VERTEX
  8
0
  6
CONTINUOUS
 10
3.405160
 20
7.890960
  0
VERTEX
  8
0
  6
CONTINUOUS
 10
3.329040
 20
7.917360
  0
SEQEND
  8
0
  0
SOLID
  8
0
 62
    15
 10
3.405160
 20
7.890960
 11
4.044480
 21
8.256600
 12
3.477320
 22
7.863240
 13
4.116640
 23
8.228880
  0
POLYLINE
  8
0
  6
CONTINUOUS
 66
     1
 40
0.000000
 41
0.000000
  0
VERTEX
  8
0
  6
CONTINUOUS
 10
3.405160
 20
7.890960
  0
VERTEX
  8
0
  6
CONTINUOUS
 10
4.044480
 20
8.256600
  0
VERTEX
  8
0
  6
CONTINUOUS
 10
4.116640
 20
8.228880
  0
VERTEX
  8
0
  6
CONTINUOUS
 10
3.477320
 20
7.863240
  0
VERTEX
  8
0
  6
CONTINUOUS
 10
3.405160
 20
7.890960
  0
SEQEND
  8
0
  0
SOLID
  8
0
 62
    15
 10
3.477320
 20
7.863240
 11
4.116640
 21
8.228880
 12
3.546840
 22
7.835520
 13
4.186160
 23
8.201160
  0
POLYLINE
  8
0
  6
CONTINUOUS
 66
     1
 40
0.000000
 41
0.000000
  0
VERTEX
  8
0
  6
CONTINUOUS
 10
3.477320
 20
7.863240
  0
VERTEX
  8
0
  6
CONTINUOUS
 10
4.116640
 20
8.228880
  0
VERTEX
  8
0
  6
CONTINUOUS
 10
4.186160
 20
8.201160
  0
VERTEX
  8
0
  6
CONTINUOUS
 10
3.546840
 20
7.835520
  0
VERTEX
  8
0
  6
CONTINUOUS
 10
3.477320
 20
7.863240
  0
SEQEND
  8
0
  0
SOLID
  8
0
 62
    15
 10
3.546840
 20
7.835520
 11
4.186160
 21
8.201160
 12
3.689400
 22
7.785800
 13
4.328720
 23
8.151440
  0
POLYLINE
  8
0
  6
CONTINUOUS
 66
     1
 40
0.000000
 41
0.000000
  0
VERTEX
  8
0
  6
CONTINUOUS
 10
3.546840
 20
7.835520
  0
VERTEX
  8
0
  6
CONTINUOUS
 10
4.186160
 20
8.201160
  0
VERTEX
  8
0
  6
CONTINUOUS
 10
4.328720
 20
8.151440
  0
VERTEX
  8
0
  6
CONTINUOUS
 10
3.689400
 20
7.785800
  0
VERTEX
  8
0
  6
CONTINUOUS
 10
3.546840
 20
7.835520
  0
SEQEND
  8
0
  0
SOLID
  8
0
 62
    15
 10
3.689400
 20
7.785800
 11
4.328720
 21
8.151440
 12
3.758040
 22
7.766880
 13
4.397360
 23
8.132520
  0
POLYLINE
  8
0
  6
CONTINUOUS
 66
     1
 40
0.000000
 41
0.000000
  0
VERTEX
  8
0
  6
CONTINUOUS
 10
3.689400
 20
7.785800
  0
VERTEX
  8
0
  6
CONTINUOUS
 10
4.328720
 20
8.151440
  0
VERTEX
  8
0
  6
CONTINUOUS
 10
4.397360
 20
8.132520
  0
VERTEX
  8
0
  6
CONTINUOUS
 10
3.758040
 20
7.766880
  0
VERTEX
  8
0
  6
CONTINUOUS
 10
3.689400
 20
7.785800
  0
SEQEND
  8
0
  0
SOLID
  8
0
 62
    15
 10
3.758040
 20
7.766880
 11
4.397360
 21
8.132520
 12
3.817880
 22
7.752800
 13
4.457200
 23
8.118880
  0
POLYLINE
  8
0
  6
CONTINUOUS
 66
     1
 40
0.000000
 41
0.000000
  0
VERTEX
  8
0
  6
CONTINUOUS
 10
3.758040
 20
7.766880
  0
VERTEX
  8
0
  6
CONTINUOUS
 10
4.397360
 20
8.132520
  0
VERTEX
  8
0
  6
CONTINUOUS
 10
4.457200
 20
8.118880
  0
VERTEX
  8
0
  6
CONTINUOUS
 10
3.817880
 20
7.752800
  0
VERTEX
  8
0
  6
CONTINUOUS
 10
3.758040
 20
7.766880
  0
SEQEND
  8
0
  0
SOLID
  8
0
 62
    15
 10
3.817880
 20
7.752800
 11
4.457200
 21
8.118880
 12
3.928320
 22
7.737840
 13
4.567640
 23
8.103480
  0
POLYLINE
  8
0
  6
CONTINUOUS
 66
     1
 40
0.000000
 41
0.000000
  0
VERTEX
  8
0
  6
CONTINUOUS
 10
3.817880
 20
7.752800
  0
VERTEX
  8
0
  6
CONTINUOUS
 10
4.457200
 20
8.118880
  0
VERTEX
  8
0
  6
CONTINUOUS
 10
4.567640
 20
8.103480
  0
VERTEX
  8
0
  6
CONTINUOUS
 10
3.928320
 20
7.737840
  0
VERTEX
  8
0
  6
CONTINUOUS
 10
3.817880
 20
7.752800
  0
SEQEND
  8
0
  0
SOLID
  8
0
 62
    15
 10
3.928320
 20
7.737840
 11
4.567640
 21
8.103480
 12
3.987280
 22
7.734760
 13
4.626600
 23
8.100400
  0
POLYLINE
  8
0
  6
CONTINUOUS
 66
     1
 40
0.000000
 41
0.000000
  0
VERTEX
  8
0
  6
CONTINUOUS
 10
3.928320
 20
7.737840
  0
VERTEX
  8
0
  6
CONTINUOUS
 10
4.567640
 20
8.103480
  0
VERTEX
  8
0
  6
CONTINUOUS
 10
4.626600
 20
8.100400
  0
VERTEX
  8
0
  6
CONTINUOUS
 10
3.987280
 20
7.734760
  0
VERTEX
  8
0
  6
CONTINUOUS
 10
3.928320
 20
7.737840
  0
SEQEND
  8
0
  0
SOLID
  8
0
 62
    15
 10
3.987280
 20
7.734760
 11
4.626600
 21
8.100400
 12
4.054600
 22
7.733440
 13
4.693920
 23
8.099080
  0
POLYLINE
  8
0
  6
CONTINUOUS
 66
     1
 40
0.000000
 41
0.000000
  0
VERTEX
  8
0
  6
CONTINUOUS
 10
3.987280
 20
7.734760
  0
VERTEX
  8
0
  6
CONTINUOUS
 10
4.626600
 20
8.100400
  0
VERTEX
  8
0
  6
CONTINUOUS
 10
4.693920
 20
8.099080
  0
VERTEX
  8
0
  6
CONTINUOUS
 10
4.054600
 20
7.733440
  0
VERTEX
  8
0
  6
CONTINUOUS
 10
3.987280
 20
7.734760
  0
SEQEND
  8
0
  0
SOLID
  8
0
 62
    15
 10
4.054600
 20
7.733440
 11
4.693920
 21
8.099080
 12
4.134680
 22
7.733440
 13
4.774000
 23
8.099080
  0
POLYLINE
  8
0
  6
CONTINUOUS
 66
     1
 40
0.000000
 41
0.000000
  0
VERTEX
  8
0
  6
CONTINUOUS
 10
4.054600
 20
7.733440
  0
VERTEX
  8
0
  6
CONTINUOUS
 10
4.693920
 20
8.099080
  0
VERTEX
  8
0
  6
CONTINUOUS
 10
4.774000
 20
8.099080
  0
VERTEX
  8
0
  6
CONTINUOUS
 10
4.134680
 20
7.733440
  0
VERTEX
  8
0
  6
CONTINUOUS
 10
4.054600
 20
7.733440
  0
SEQEND
  8
0
  0
SOLID
  8
0
 62
    15
 10
4.134680
 20
7.733440
 11
4.774000
 21
8.099080
 12
4.180440
 22
7.733440
 13
4.819760
 23
8.099520
  0
POLYLINE
  8
0
  6
CONTINUOUS
 66
     1
 40
0.000000
 41
0.000000
  0
VERTEX
  8
0
  6
CONTINUOUS
 10
4.134680
 20
7.733440
  0
VERTEX
  8
0
  6
CONTINUOUS
 10
4.774000
 20
8.099080
  0
VERTEX
  8
0
  6
CONTINUOUS
 10
4.819760
 20
8.099520
  0
VERTEX
  8
0
  6
CONTINUOUS
 10
4.180440
 20
7.733440
  0
VERTEX
  8
0
  6
CONTINUOUS
 10
4.134680
 20
7.733440
  0
SEQEND
  8
0
  0
SOLID
  8
0
 62
    15
 10
4.180440
 20
7.733440
 11
4.819760
 21
8.099520
 12
4.233240
 22
7.733440
 13
4.872560
 23
8.099520
  0
POLYLINE
  8
0
  6
CONTINUOUS
 66
     1
 40
0.000000
 41
0.000000
  0
VERTEX
  8
0
  6
CONTINUOUS
 10
4.180440
 20
7.733440
  0
VERTEX
  8
0
  6
CONTINUOUS
 10
4.819760
 20
8.099520
  0
VERTEX
  8
0
  6
CONTINUOUS
 10
4.872560
 20
8.099520
  0
VERTEX
  8
0
  6
CONTINUOUS
 10
4.233240
 20
7.733440
  0
VERTEX
  8
0
  6
CONTINUOUS
 10
4.180440
 20
7.733440
  0
SEQEND
  8
0
  0
SOLID
  8
0
 62
    15
 10
4.233240
 20
7.733440
 11
4.872560
 21
8.099520
 12
4.235880
 22
7.732560
 13
4.875200
 23
8.098200
  0
POLYLINE
  8
0
  6
CONTINUOUS
 66
     1
 40
0.000000
 41
0.000000
  0
VERTEX
  8
0
  6
CONTINUOUS
 10
4.233240
 20
7.733440
  0
VERTEX
  8
0
  6
CONTINUOUS
 10
4.872560
 20
8.099520
  0
VERTEX
  8
0
  6
CONTINUOUS
 10
4.875200
 20
8.098200
  0
VERTEX
  8
0
  6
CONTINUOUS
 10
4.235880
 20
7.732560
  0
VERTEX
  8
0
  6
CONTINUOUS
 10
4.233240
 20
7.733440
  0
SEQEND
  8
0
  0
SOLID
  8
0
 62
    15
 10
4.235880
 20
7.732560
 11
4.875200
 21
8.098200
 12
4.235880
 22
7.449640
 13
4.875200
 23
7.815280
  0
POLYLINE
  8
0
  6
CONTINUOUS
 66
     1
 40
0.000000
 41
0.000000
  0
VERTEX
  8
0
  6
CONTINUOUS
 10
4.235880
 20
7.732560
  0
VERTEX
  8
0
  6
CONTINUOUS
 10
4.875200
 20
8.098200
  0
VERTEX
  8
0
  6
CONTINUOUS
 10
4.875200
 20
7.815280
  0
VERTEX
  8
0
  6
CONTINUOUS
 10
4.235880
 20
7.449640
  0
VERTEX
  8
0
  6
CONTINUOUS
 10
4.235880
 20
7.732560
  0
SEQEND
  8
0
  0
SOLID
  8
0
 62
    15
 10
2.556840
 20
8.202040
 11
3.196160
 21
8.568120
 12
2.730640
 22
8.202040
 13
3.369960
 23
8.568120
  0
POLYLINE
  8
0
  6
CONTINUOUS
 66
     1
 40
0.000000
 41
0.000000
  0
VERTEX
  8
0
  6
CONTINUOUS
 10
2.556840
 20
8.202040
  0
VERTEX
  8
0
  6
CONTINUOUS
 10
3.196160
 20
8.568120
  0
VERTEX
  8
0
  6
CONTINUOUS
 10
3.369960
 20
8.568120
  0
VERTEX
  8
0
  6
CONTINUOUS
 10
2.730640
 20
8.202040
  0
VERTEX
  8
0
  6
CONTINUOUS
 10
2.556840
 20
8.202040
  0
SEQEND
  8
0
  0
SOLID
  8
0
 62
     7
 10
2.730640
 20
8.202040
 11
3.369960
 21
8.568120
 12
2.733280
 22
8.191920
 13
3.372600
 23
8.557560
  0
POLYLINE
  8
0
  6
CONTINUOUS
 66
     1
 40
0.000000
 41
0.000000
  0
VERTEX
  8
0
  6
CONTINUOUS
 10
2.730640
 20
8.202040
  0
VERTEX
  8
0
  6
CONTINUOUS
 10
3.369960
 20
8.568120
  0
VERTEX
  8
0
  6
CONTINUOUS
 10
3.372600
 20
8.557560
  0
VERTEX
  8
0
  6
CONTINUOUS
 10
2.733280
 20
8.191920
  0
VERTEX
  8
0
  6
CONTINUOUS
 10
2.730640
 20
8.202040
  0
SEQEND
  8
0
  0
POLYLINE
  8
0
  6
CONTINUOUS
 66
     1
 40
0.000000
 41
0.000000
  0
VERTEX
  8
0
  6
CONTINUOUS
 10
2.733280
 20
8.191920
  0
VERTEX
  8
0
  6
CONTINUOUS
 10
2.736360
 20
8.158040
  0
VERTEX
  8
0
  6
CONTINUOUS
 10
2.739880
 20
8.128560
  0
VERTEX
  8
0
  6
CONTINUOUS
 10
2.745160
 20
8.103040
  0
VERTEX
  8
0
  6
CONTINUOUS
 10
2.751320
 20
8.081040
  0
VERTEX
  8
0
  6
CONTINUOUS
 10
2.759680
 20
8.062560
  0
VERTEX
  8
0
  6
CONTINUOUS
 10
2.769800
 20
8.047160
  0
VERTEX
  8
0
  6
CONTINUOUS
 10
2.797520
 20
8.023840
  0
VERTEX
  8
0
  6
CONTINUOUS
 10
2.815560
 20
8.015040
  0
VERTEX
  8
0
  6
CONTINUOUS
 10
2.837120
 20
8.008000
  0
VERTEX
  8
0
  6
CONTINUOUS
 10
2.862640
 20
8.001840
  0
VERTEX
  8
0
  6
CONTINUOUS
 10
2.891680
 20
7.997000
  0
VERTEX
  8
0
  6
CONTINUOUS
 10
2.925120
 20
7.992160
  0
VERTEX
  8
0
  6
CONTINUOUS
 10
2.962960
 20
7.987760
  0
VERTEX
  8
0
  6
CONTINUOUS
 10
3.029400
 20
7.980280
  0
VERTEX
  8
0
  6
CONTINUOUS
 10
3.054040
 20
7.977200
  0
VERTEX
  8
0
  6
CONTINUOUS
 10
3.155680
 20
7.961800
  0
VERTEX
  8
0
  6
CONTINUOUS
 10
3.246760
 20
7.941560
  0
VERTEX
  8
0
  6
CONTINUOUS
 10
3.329040
 20
7.917360
  0
VERTEX
  8
0
  6
CONTINUOUS
 10
3.405160
 20
7.890960
  0
VERTEX
  8
0
  6
CONTINUOUS
 10
3.477320
 20
7.863240
  0
VERTEX
  8
0
  6
CONTINUOUS
 10
3.546840
 20
7.835520
  0
VERTEX
  8
0
  6
CONTINUOUS
 10
3.689400
 20
7.785800
  0
VERTEX
  8
0
  6
CONTINUOUS
 10
3.758040
 20
7.766880
  0
VERTEX
  8
0
  6
CONTINUOUS
 10
3.817880
 20
7.752800
  0
VERTEX
  8
0
  6
CONTINUOUS
 10
3.928320
 20
7.737840
  0
VERTEX
  8
0
  6
CONTINUOUS
 10
3.987280
 20
7.734760
  0
VERTEX
  8
0
  6
CONTINUOUS
 10
4.054600
 20
7.733440
  0
VERTEX
  8
0
  6
CONTINUOUS
 10
4.134680
 20
7.733440
  0
VERTEX
  8
0
  6
CONTINUOUS
 10
4.180440
 20
7.733440
  0
VERTEX
  8
0
  6
CONTINUOUS
 10
4.233240
 20
7.733440
  0
VERTEX
  8
0
  6
CONTINUOUS
 10
4.235880
 20
7.732560
  0
VERTEX
  8
0
  6
CONTINUOUS
 10
4.235880
 20
7.449640
  0
VERTEX
  8
0
  6
CONTINUOUS
 10
2.556840
 20
7.449640
  0
VERTEX
  8
0
  6
CONTINUOUS
 10
2.556840
 20
8.202040
  0
VERTEX
  8
0
  6
CONTINUOUS
 10
2.730640
 20
8.202040
  0
VERTEX
  8
0
  6
CONTINUOUS
 10
2.733280
 20
8.191920
  0
SEQEND
  8
0
  0
TEXT
  8
0
 10
3.420560
 20
7.213800
 40
0.138138
  1
BA  734
 41
1.000000
  7
SN0
 71
     0
 72
     5
 11
4.011929
 21
7.213800
  0
TEXT
  8
0
 10
3.172400
 20
7.022400
 40
0.138138
  1
3/4" x 1-11/16"
 41
1.000000
  7
SN0
 71
     0
 72
     5
 11
4.259856
 21
7.022400
  0
SOLID
  8
0
 62
    15
 10
4.843960
 20
5.969480
 11
5.488560
 21
6.344360
 12
5.127760
 22
5.864320
 13
5.772800
 23
6.239200
  0
POLYLINE
  8
0
  6
CONTINUOUS
 66
     1
 40
0.000000
 41
0.000000
  0
VERTEX
  8
0
  6
CONTINUOUS
 10
4.843960
 20
5.969480
  0
VERTEX
  8
0
  6
CONTINUOUS
 10
5.488560
 20
6.344360
  0
VERTEX
  8
0
  6
CONTINUOUS
 10
5.772800
 20
6.239200
  0
VERTEX
  8
0
  6
CONTINUOUS
 10
5.127760
 20
5.864320
  0
VERTEX
  8
0
  6
CONTINUOUS
 10
4.843960
 20
5.969480
  0
SEQEND
  8
0
  0
SOLID
  8
0
 62
    15
 10
4.178680
 20
6.207080
 11
4.823280
 21
6.581520
 12
4.189680
 22
6.160000
 13
4.834720
 23
6.534440
  0
POLYLINE
  8
0
  6
CONTINUOUS
 66
     1
 40
0.000000
 41
0.000000
  0
VERTEX
  8
0
  6
CONTINUOUS
 10
4.178680
 20
6.207080
  0
VERTEX
  8
0
  6
CONTINUOUS
 10
4.823280
 20
6.581520
  0
VERTEX
  8
0
  6
CONTINUOUS
 10
4.834720
 20
6.534440
  0
VERTEX
  8
0
  6
CONTINUOUS
 10
4.189680
 20
6.160000
  0
VERTEX
  8
0
  6
CONTINUOUS
 10
4.178680
 20
6.207080
  0
SEQEND
  8
0
  0
SOLID
  8
0
 62
    15
 10
4.189680
 20
6.160000
 11
4.834720
 21
6.534440
 12
4.208160
 22
6.126120
 13
4.852760
 23
6.500560
  0
POLYLINE
  8
0
  6
CONTINUOUS
 66
     1
 40
0.000000
 41
0.000000
  0
VERTEX
  8
0
  6
CONTINUOUS
 10
4.189680
 20
6.160000
  0
VERTEX
  8
0
  6
CONTINUOUS
 10
4.834720
 20
6.534440
  0
VERTEX
  8
0
  6
CONTINUOUS
 10
4.852760
 20
6.500560
  0
VERTEX
  8
0
  6
CONTINUOUS
 10
4.208160
 20
6.126120
  0
VERTEX
  8
0
  6
CONTINUOUS
 10
4.189680
 20
6.160000
  0
SEQEND
  8
0
  0
SOLID
  8
0
 62
    15
 10
4.208160
 20
6.126120
 11
4.852760
 21
6.500560
 12
4.235880
 22
6.102360
 13
4.880920
 23
6.477240
  0
POLYLINE
  8
0
  6
CONTINUOUS
 66
     1
 40
0.000000
 41
0.000000
  0
VERTEX
  8
0
  6
CONTINUOUS
 10
4.208160
 20
6.126120
  0
VERTEX
  8
0
  6
CONTINUOUS
 10
4.852760
 20
6.500560
  0
VERTEX
  8
0
  6
CONTINUOUS
 10
4.880920
 20
6.477240
  0
VERTEX
  8
0
  6
CONTINUOUS
 10
4.235880
 20
6.102360
  0
VERTEX
  8
0
  6
CONTINUOUS
 10
4.208160
 20
6.126120
  0
SEQEND
  8
0
  0
SOLID
  8
0
 62
    15
 10
4.235880
 20
6.102360
 11
4.880920
 21
6.477240
 12
4.275920
 22
6.086520
 13
4.920520
 23
6.461400
  0
POLYLINE
  8
0
  6
CONTINUOUS
 66
     1
 40
0.000000
 41
0.000000
  0
VERTEX
  8
0
  6
CONTINUOUS
 10
4.235880
 20
6.102360
  0
VERTEX
  8
0
  6
CONTINUOUS
 10
4.880920
 20
6.477240
  0
VERTEX
  8
0
  6
CONTINUOUS
 10
4.920520
 20
6.461400
  0
VERTEX
  8
0
  6
CONTINUOUS
 10
4.275920
 20
6.086520
  0
VERTEX
  8
0
  6
CONTINUOUS
 10
4.235880
 20
6.102360
  0
SEQEND
  8
0
  0
SOLID
  8
0
 62
    15
 10
4.275920
 20
6.086520
 11
4.920520
 21
6.461400
 12
4.330040
 22
6.075520
 13
4.975080
 23
6.449960
  0
POLYLINE
  8
0
  6
CONTINUOUS
 66
     1
 40
0.000000
 41
0.000000
  0
VERTEX
  8
0
  6
CONTINUOUS
 10
4.275920
 20
6.086520
  0
VERTEX
  8
0
  6
CONTINUOUS
 10
4.920520
 20
6.461400
  0
VERTEX
  8
0
  6
CONTINUOUS
 10
4.975080
 20
6.449960
  0
VERTEX
  8
0
  6
CONTINUOUS
 10
4.330040
 20
6.075520
  0
VERTEX
  8
0
  6
CONTINUOUS
 10
4.275920
 20
6.086520
  0
SEQEND
  8
0
  0
SOLID
  8
0
 62
    15
 10
4.330040
 20
6.075520
 11
4.975080
 21
6.449960
 12
4.401760
 22
6.066280
 13
5.046360
 23
6.440720
  0
POLYLINE
  8
0
  6
CONTINUOUS
 66
     1
 40
0.000000
 41
0.000000
  0
VERTEX
  8
0
  6
CONTINUOUS
 10
4.330040
 20
6.075520
  0
VERTEX
  8
0
  6
CONTINUOUS
 10
4.975080
 20
6.449960
  0
VERTEX
  8
0
  6
CONTINUOUS
 10
5.046360
 20
6.440720
  0
VERTEX
  8
0
  6
CONTINUOUS
 10
4.401760
 20
6.066280
  0
VERTEX
  8
0
  6
CONTINUOUS
 10
4.330040
 20
6.075520
  0
SEQEND
  8
0
  0
SOLID
  8
0
 62
    15
 10
4.401760
 20
6.066280
 11
5.046360
 21
6.440720
 12
4.467760
 22
6.058800
 13
5.112360
 23
6.433680
  0
POLYLINE
  8
0
  6
CONTINUOUS
 66
     1
 40
0.000000
 41
0.000000
  0
VERTEX
  8
0
  6
CONTINUOUS
 10
4.401760
 20
6.066280
  0
VERTEX
  8
0
  6
CONTINUOUS
 10
5.046360
 20
6.440720
  0
VERTEX
  8
0
  6
CONTINUOUS
 10
5.112360
 20
6.433680
  0
VERTEX
  8
0
  6
CONTINUOUS
 10
4.467760
 20
6.058800
  0
VERTEX
  8
0
  6
CONTINUOUS
 10
4.401760
 20
6.066280
  0
SEQEND
  8
0
  0
SOLID
  8
0
 62
    15
 10
4.467760
 20
6.058800
 11
5.112360
 21
6.433680
 12
4.492400
 22
6.056160
 13
5.137440
 23
6.430600
  0
POLYLINE
  8
0
  6
CONTINUOUS
 66
     1
 40
0.000000
 41
0.000000
  0
VERTEX
  8
0
  6
CONTINUOUS
 10
4.467760
 20
6.058800
  0
VERTEX
  8
0
  6
CONTINUOUS
 10
5.112360
 20
6.433680
  0
VERTEX
  8
0
  6
CONTINUOUS
 10
5.137440
 20
6.430600
  0
VERTEX
  8
0
  6
CONTINUOUS
 10
4.492400
 20
6.056160
  0
VERTEX
  8
0
  6
CONTINUOUS
 10
4.467760
 20
6.058800
  0
SEQEND
  8
0
  0
SOLID
  8
0
 62
    15
 10
4.492400
 20
6.056160
 11
5.137440
 21
6.430600
 12
4.594040
 22
6.040760
 13
5.239080
 23
6.415200
  0
POLYLINE
  8
0
  6
CONTINUOUS
 66
     1
 40
0.000000
 41
0.000000
  0
VERTEX
  8
0
  6
CONTINUOUS
 10
4.492400
 20
6.056160
  0
VERTEX
  8
0
  6
CONTINUOUS
 10
5.137440
 20
6.430600
  0
VERTEX
  8
0
  6
CONTINUOUS
 10
5.239080
 20
6.415200
  0
VERTEX
  8
0
  6
CONTINUOUS
 10
4.594040
 20
6.040760
  0
VERTEX
  8
0
  6
CONTINUOUS
 10
4.492400
 20
6.056160
  0
SEQEND
  8
0
  0
SOLID
  8
0
 62
    15
 10
4.594040
 20
6.040760
 11
5.239080
 21
6.415200
 12
4.685120
 22
6.020520
 13
5.329720
 23
6.394960
  0
POLYLINE
  8
0
  6
CONTINUOUS
 66
     1
 40
0.000000
 41
0.000000
  0
VERTEX
  8
0
  6
CONTINUOUS
 10
4.594040
 20
6.040760
  0
VERTEX
  8
0
  6
CONTINUOUS
 10
5.239080
 20
6.415200
  0
VERTEX
  8
0
  6
CONTINUOUS
 10
5.329720
 20
6.394960
  0
VERTEX
  8
0
  6
CONTINUOUS
 10
4.685120
 20
6.020520
  0
VERTEX
  8
0
  6
CONTINUOUS
 10
4.594040
 20
6.040760
  0
SEQEND
  8
0
  0
SOLID
  8
0
 62
    15
 10
4.685120
 20
6.020520
 11
5.329720
 21
6.394960
 12
4.843960
 22
5.969480
 13
5.488560
 23
6.344360
  0
POLYLINE
  8
0
  6
CONTINUOUS
 66
     1
 40
0.000000
 41
0.000000
  0
VERTEX
  8
0
  6
CONTINUOUS
 10
4.685120
 20
6.020520
  0
VERTEX
  8
0
  6
CONTINUOUS
 10
5.329720
 20
6.394960
  0
VERTEX
  8
0
  6
CONTINUOUS
 10
5.488560
 20
6.344360
  0
VERTEX
  8
0
  6
CONTINUOUS
 10
4.843960
 20
5.969480
  0
VERTEX
  8
0
  6
CONTINUOUS
 10
4.685120
 20
6.020520
  0
SEQEND
  8
0
  0
SOLID
  8
0
 62
    15
 10
4.171640
 20
6.270880
 11
4.816240
 21
6.645320
 12
4.178680
 22
6.207080
 13
4.823280
 23
6.581520
  0
POLYLINE
  8
0
  6
CONTINUOUS
 66
     1
 40
0.000000
 41
0.000000
  0
VERTEX
  8
0
  6
CONTINUOUS
 10
4.171640
 20
6.270880
  0
VERTEX
  8
0
  6
CONTINUOUS
 10
4.816240
 20
6.645320
  0
VERTEX
  8
0
  6
CONTINUOUS
 10
4.823280
 20
6.581520
  0
VERTEX
  8
0
  6
CONTINUOUS
 10
4.178680
 20
6.207080
  0
VERTEX
  8
0
  6
CONTINUOUS
 10
4.171640
 20
6.270880
  0
SEQEND
  8
0
  0
SOLID
  8
0
 62
    15
 10
5.127760
 20
5.864320
 11
5.772800
 21
6.239200
 12
5.256240
 22
5.831760
 13
5.900840
 23
6.206200
  0
POLYLINE
  8
0
  6
CONTINUOUS
 66
     1
 40
0.000000
 41
0.000000
  0
VERTEX
  8
0
  6
CONTINUOUS
 10
5.127760
 20
5.864320
  0
VERTEX
  8
0
  6
CONTINUOUS
 10
5.772800
 20
6.239200
  0
VERTEX
  8
0
  6
CONTINUOUS
 10
5.900840
 20
6.206200
  0
VERTEX
  8
0
  6
CONTINUOUS
 10
5.256240
 20
5.831760
  0
VERTEX
  8
0
  6
CONTINUOUS
 10
5.127760
 20
5.864320
  0
SEQEND
  8
0
  0
SOLID
  8
0
 62
    15
 10
5.256240
 20
5.831760
 11
5.900840
 21
6.206200
 12
5.366680
 22
5.816800
 13
6.011280
 23
6.191240
  0
POLYLINE
  8
0
  6
CONTINUOUS
 66
     1
 40
0.000000
 41
0.000000
  0
VERTEX
  8
0
  6
CONTINUOUS
 10
5.256240
 20
5.831760
  0
VERTEX
  8
0
  6
CONTINUOUS
 10
5.900840
 20
6.206200
  0
VERTEX
  8
0
  6
CONTINUOUS
 10
6.011280
 20
6.191240
  0
VERTEX
  8
0
  6
CONTINUOUS
 10
5.366680
 20
5.816800
  0
VERTEX
  8
0
  6
CONTINUOUS
 10
5.256240
 20
5.831760
  0
SEQEND
  8
0
  0
SOLID
  8
0
 62
    15
 10
5.366680
 20
5.816800
 11
6.011280
 21
6.191240
 12
5.493400
 22
5.812400
 13
6.138000
 23
6.186840
  0
POLYLINE
  8
0
  6
CONTINUOUS
 66
     1
 40
0.000000
 41
0.000000
  0
VERTEX
  8
0
  6
CONTINUOUS
 10
5.366680
 20
5.816800
  0
VERTEX
  8
0
  6
CONTINUOUS
 10
6.011280
 20
6.191240
  0
VERTEX
  8
0
  6
CONTINUOUS
 10
6.138000
 20
6.186840
  0
VERTEX
  8
0
  6
CONTINUOUS
 10
5.493400
 20
5.812400
  0
VERTEX
  8
0
  6
CONTINUOUS
 10
5.366680
 20
5.816800
  0
SEQEND
  8
0
  0
SOLID
  8
0
 62
    15
 10
5.493400
 20
5.812400
 11
6.138000
 21
6.186840
 12
5.573040
 22
5.812400
 13
6.217640
 23
6.186840
  0
POLYLINE
  8
0
  6
CONTINUOUS
 66
     1
 40
0.000000
 41
0.000000
  0
VERTEX
  8
0
  6
CONTINUOUS
 10
5.493400
 20
5.812400
  0
VERTEX
  8
0
  6
CONTINUOUS
 10
6.138000
 20
6.186840
  0
VERTEX
  8
0
  6
CONTINUOUS
 10
6.217640
 20
6.186840
  0
VERTEX
  8
0
  6
CONTINUOUS
 10
5.573040
 20
5.812400
  0
VERTEX
  8
0
  6
CONTINUOUS
 10
5.493400
 20
5.812400
  0
SEQEND
  8
0
  0
SOLID
  8
0
 62
    15
 10
5.573040
 20
5.812400
 11
6.217640
 21
6.186840
 12
5.671600
 22
5.812400
 13
6.316200
 23
6.186840
  0
POLYLINE
  8
0
  6
CONTINUOUS
 66
     1
 40
0.000000
 41
0.000000
  0
VERTEX
  8
0
  6
CONTINUOUS
 10
5.573040
 20
5.812400
  0
VERTEX
  8
0
  6
CONTINUOUS
 10
6.217640
 20
6.186840
  0
VERTEX
  8
0
  6
CONTINUOUS
 10
6.316200
 20
6.186840
  0
VERTEX
  8
0
  6
CONTINUOUS
 10
5.671600
 20
5.812400
  0
VERTEX
  8
0
  6
CONTINUOUS
 10
5.573040
 20
5.812400
  0
SEQEND
  8
0
  0
SOLID
  8
0
 62
    15
 10
5.052960
 20
5.310360
 11
5.697560
 21
5.684800
 12
5.052960
 22
4.562360
 13
5.697560
 23
4.936800
  0
POLYLINE
  8
0
  6
CONTINUOUS
 66
     1
 40
0.000000
 41
0.000000
  0
VERTEX
  8
0
  6
CONTINUOUS
 10
5.052960
 20
5.310360
  0
VERTEX
  8
0
  6
CONTINUOUS
 10
5.697560
 20
5.684800
  0
VERTEX
  8
0
  6
CONTINUOUS
 10
5.697560
 20
4.936800
  0
VERTEX
  8
0
  6
CONTINUOUS
 10
5.052960
 20
4.562360
  0
VERTEX
  8
0
  6
CONTINUOUS
 10
5.052960
 20
5.310360
  0
SEQEND
  8
0
  0
SOLID
  8
0
 62
    15
 10
5.671600
 20
5.812400
 11
6.316200
 21
6.186840
 12
5.671600
 22
5.310360
 13
6.316200
 23
5.684800
  0
POLYLINE
  8
0
  6
CONTINUOUS
 66
     1
 40
0.000000
 41
0.000000
  0
VERTEX
  8
0
  6
CONTINUOUS
 10
5.671600
 20
5.812400
  0
VERTEX
  8
0
  6
CONTINUOUS
 10
6.316200
 20
6.186840
  0
VERTEX
  8
0
  6
CONTINUOUS
 10
6.316200
 20
5.684800
  0
VERTEX
  8
0
  6
CONTINUOUS
 10
5.671600
 20
5.310360
  0
VERTEX
  8
0
  6
CONTINUOUS
 10
5.671600
 20
5.812400
  0
SEQEND
  8
0
  0
SOLID
  8
0
 62
    15
 10
5.052960
 20
4.562360
 11
5.697560
 21
4.936800
 12
5.671600
 22
4.562360
 13
6.316200
 23
4.936800
  0
POLYLINE
  8
0
  6
CONTINUOUS
 66
     1
 40
0.000000
 41
0.000000
  0
VERTEX
  8
0
  6
CONTINUOUS
 10
5.052960
 20
4.562360
  0
VERTEX
  8
0
  6
CONTINUOUS
 10
5.697560
 20
4.936800
  0
VERTEX
  8
0
  6
CONTINUOUS
 10
6.316200
 20
4.936800
  0
VERTEX
  8
0
  6
CONTINUOUS
 10
5.671600
 20
4.562360
  0
VERTEX
  8
0
  6
CONTINUOUS
 10
5.052960
 20
4.562360
  0
SEQEND
  8
0
  0
SOLID
  8
0
 62
    15
 10
5.671600
 20
4.562360
 11
6.316200
 21
4.936800
 12
5.671600
 22
4.022920
 13
6.316200
 23
4.397360
  0
POLYLINE
  8
0
  6
CONTINUOUS
 66
     1
 40
0.000000
 41
0.000000
  0
VERTEX
  8
0
  6
CONTINUOUS
 10
5.671600
 20
4.562360
  0
VERTEX
  8
0
  6
CONTINUOUS
 10
6.316200
 20
4.936800
  0
VERTEX
  8
0
  6
CONTINUOUS
 10
6.316200
 20
4.397360
  0
VERTEX
  8
0
  6
CONTINUOUS
 10
5.671600
 20
4.022920
  0
VERTEX
  8
0
  6
CONTINUOUS
 10
5.671600
 20
4.562360
  0
SEQEND
  8
0
  0
SOLID
  8
0
 62
    15
 10
5.671600
 20
4.022920
 11
6.316200
 21
4.397360
 12
5.673800
 22
4.012360
 13
6.318400
 23
4.386800
  0
POLYLINE
  8
0
  6
CONTINUOUS
 66
     1
 40
0.000000
 41
0.000000
  0
VERTEX
  8
0
  6
CONTINUOUS
 10
5.671600
 20
4.022920
  0
VERTEX
  8
0
  6
CONTINUOUS
 10
6.316200
 20
4.397360
  0
VERTEX
  8
0
  6
CONTINUOUS
 10
6.318400
 20
4.386800
  0
VERTEX
  8
0
  6
CONTINUOUS
 10
5.673800
 20
4.012360
  0
VERTEX
  8
0
  6
CONTINUOUS
 10
5.671600
 20
4.022920
  0
SEQEND
  8
0
  0
SOLID
  8
0
 62
    15
 10
1.661440
 20
6.277040
 11
2.306040
 21
6.651480
 12
4.161080
 22
6.277040
 13
4.806120
 23
6.651480
  0
POLYLINE
  8
0
  6
CONTINUOUS
 66
     1
 40
0.000000
 41
0.000000
  0
VERTEX
  8
0
  6
CONTINUOUS
 10
1.661440
 20
6.277040
  0
VERTEX
  8
0
  6
CONTINUOUS
 10
2.306040
 20
6.651480
  0
VERTEX
  8
0
  6
CONTINUOUS
 10
4.806120
 20
6.651480
  0
VERTEX
  8
0
  6
CONTINUOUS
 10
4.161080
 20
6.277040
  0
VERTEX
  8
0
  6
CONTINUOUS
 10
1.661440
 20
6.277040
  0
SEQEND
  8
0
  0
SOLID
  8
0
 62
    15
 10
4.161080
 20
6.277040
 11
4.806120
 21
6.651480
 12
4.171640
 22
6.270880
 13
4.816240
 23
6.645320
  0
POLYLINE
  8
0
  6
CONTINUOUS
 66
     1
 40
0.000000
 41
0.000000
  0
VERTEX
  8
0
  6
CONTINUOUS
 10
4.161080
 20
6.277040
  0
VERTEX
  8
0
  6
CONTINUOUS
 10
4.806120
 20
6.651480
  0
VERTEX
  8
0
  6
CONTINUOUS
 10
4.816240
 20
6.645320
  0
VERTEX
  8
0
  6
CONTINUOUS
 10
4.171640
 20
6.270880
  0
VERTEX
  8
0
  6
CONTINUOUS
 10
4.161080
 20
6.277040
  0
SEQEND
  8
0
  0
POLYLINE
  8
0
  6
CONTINUOUS
 66
     1
 40
0.000000
 41
0.000000
  0
VERTEX
  8
0
  6
CONTINUOUS
 10
4.171640
 20
6.270880
  0
VERTEX
  8
0
  6
CONTINUOUS
 10
4.178680
 20
6.207080
  0
VERTEX
  8
0
  6
CONTINUOUS
 10
4.189680
 20
6.160000
  0
VERTEX
  8
0
  6
CONTINUOUS
 10
4.208160
 20
6.126120
  0
VERTEX
  8
0
  6
CONTINUOUS
 10
4.235880
 20
6.102360
  0
VERTEX
  8
0
  6
CONTINUOUS
 10
4.275920
 20
6.086520
  0
VERTEX
  8
0
  6
CONTINUOUS
 10
4.330040
 20
6.075520
  0
VERTEX
  8
0
  6
CONTINUOUS
 10
4.401760
 20
6.066280
  0
VERTEX
  8
0
  6
CONTINUOUS
 10
4.467760
 20
6.058800
  0
VERTEX
  8
0
  6
CONTINUOUS
 10
4.492400
 20
6.056160
  0
VERTEX
  8
0
  6
CONTINUOUS
 10
4.594040
 20
6.040760
  0
VERTEX
  8
0
  6
CONTINUOUS
 10
4.685120
 20
6.020520
  0
VERTEX
  8
0
  6
CONTINUOUS
 10
4.843960
 20
5.969480
  0
VERTEX
  8
0
  6
CONTINUOUS
 10
5.127760
 20
5.864320
  0
VERTEX
  8
0
  6
CONTINUOUS
 10
5.256240
 20
5.831760
  0
VERTEX
  8
0
  6
CONTINUOUS
 10
5.366680
 20
5.816800
  0
VERTEX
  8
0
  6
CONTINUOUS
 10
5.493400
 20
5.812400
  0
VERTEX
  8
0
  6
CONTINUOUS
 10
5.573040
 20
5.812400
  0
VERTEX
  8
0
  6
CONTINUOUS
 10
5.671600
 20
5.812400
  0
VERTEX
  8
0
  6
CONTINUOUS
 10
5.671600
 20
5.310360
  0
VERTEX
  8
0
  6
CONTINUOUS
 10
5.052960
 20
5.310360
  0
VERTEX
  8
0
  6
CONTINUOUS
 10
5.052960
 20
4.562360
  0
VERTEX
  8
0
  6
CONTINUOUS
 10
5.671600
 20
4.562360
  0
VERTEX
  8
0
  6
CONTINUOUS
 10
5.671600
 20
4.022920
  0
VERTEX
  8
0
  6
CONTINUOUS
 10
5.673800
 20
4.012360
  0
VERTEX
  8
0
  6
CONTINUOUS
 10
1.661440
 20
4.012360
  0
VERTEX
  8
0
  6
CONTINUOUS
 10
1.661440
 20
6.277040
  0
VERTEX
  8
0
  6
CONTINUOUS
 10
4.161080
 20
6.277040
  0
VERTEX
  8
0
  6
CONTINUOUS
 10
4.171640
 20
6.270880
  0
SEQEND
  8
0
  0
TEXT
  8
0
 10
3.694240
 20
3.743080
 40
0.138138
  1
BA  731
 41
1.000000
  7
SN0
 71
     0
 72
     5
 11
4.285609
 21
3.743080
  0
TEXT
  8
0
 10
3.607560
 20
3.551240
 40
0.138138
  1
2-1/4" x 4"
 41
1.000000
  7
SN0
 71
     0
 72
     5
 11
4.371627
 21
3.551240
  0
TEXT
  8
0
 10
6.073320
 20
5.254040
 40
0.138138
  1
BA  732
 41
1.000000
  7
SN0
 71
     0
 72
     5
 11
6.664689
 21
5.254040
  0
TEXT
  8
0
 10
5.991480
 20
5.062200
 40
0.138138
  1
5/8" x 3/4"
 41
1.000000
  7
SN0
 71
     0
 72
     5
 11
6.746485
 21
5.062200
  0
POLYLINE
  8
0
  6
DOT
 66
     1
 40
0.014080
 41
0.014080
  0
VERTEX
  8
0
  6
DOT
 10
4.161520
 20
6.271760
  0
VERTEX
  8
0
  6
DOT
 10
3.988160
 20
6.271760
  0
VERTEX
  8
0
  6
DOT
 10
3.988160
 20
5.518920
  0
VERTEX
  8
0
  6
DOT
 10
5.667200
 20
5.518920
  0
VERTEX
  8
0
  6
DOT
 10
5.667200
 20
5.801840
  0
VERTEX
  8
0
  6
DOT
 10
5.662360
 20
5.803160
  0
VERTEX
  8
0
  6
DOT
 10
5.451160
 20
5.803600
  0
VERTEX
  8
0
  6
DOT
 10
5.359640
 20
5.807120
  0
VERTEX
  8
0
  6
DOT
 10
5.304200
 20
5.813280
  0
VERTEX
  8
0
  6
DOT
 10
5.249200
 20
5.822520
  0
VERTEX
  8
0
  6
DOT
 10
5.173080
 20
5.840560
  0
VERTEX
  8
0
  6
DOT
 10
5.084200
 20
5.866520
  0
VERTEX
  8
0
  6
DOT
 10
4.978160
 20
5.905240
  0
VERTEX
  8
0
  6
DOT
 10
4.836480
 20
5.960240
  0
VERTEX
  8
0
  6
DOT
 10
4.760360
 20
5.987080
  0
VERTEX
  8
0
  6
DOT
 10
4.678080
 20
6.011280
  0
VERTEX
  8
0
  6
DOT
 10
4.587000
 20
6.031520
  0
VERTEX
  8
0
  6
DOT
 10
4.511760
 20
6.043400
  0
VERTEX
  8
0
  6
DOT
 10
4.339280
 20
6.064080
  0
VERTEX
  8
0
  6
DOT
 10
4.280760
 20
6.074200
  0
VERTEX
  8
0
  6
DOT
 10
4.246880
 20
6.084320
  0
VERTEX
  8
0
  6
DOT
 10
4.220920
 20
6.098400
  0
VERTEX
  8
0
  6
DOT
 10
4.206840
 20
6.109840
  0
VERTEX
  8
0
  6
DOT
 10
4.191000
 20
6.131840
  0
VERTEX
  8
0
  6
DOT
 10
4.182640
 20
6.150320
  0
VERTEX
  8
0
  6
DOT
 10
4.173840
 20
6.184640
  0
VERTEX
  8
0
  6
DOT
 10
4.165920
 20
6.243600
  0
VERTEX
  8
0
  6
DOT
 10
4.164600
 20
6.261200
  0
VERTEX
  8
0
  6
DOT
 10
4.161520
 20
6.271760
  0
SEQEND
  8
0
  0
TEXT
  8
0
 10
2.927760
 20
5.858600
 40
0.138138
  1
BA  734
 41
1.000000
  7
SN0
 71
     0
 72
     5
 11
3.519129
 21
5.858600
  0
TEXT
  8
0
 10
2.679600
 20
5.667200
 40
0.138138
  1
3/4" x 1-11/16"
 41
1.000000
  7
SN0
 71
     0
 72
     5
 11
3.767056
 21
5.667200
  0
ENDSEC
  0
EOF
