  0
SECTION
  2
HEADER
  9
$ACADVER
  1
AC1006
  9
$EXTMIN
 10
1.876600
 20
0.951720
  9
$EXTMAX
 10
7.055400
 20
7.089720
  9
$LTSCALE
 40
0.044000
  9
$PDMODE
 70
    35
  9
$PDSIZE
 40
0.035200
  0
ENDSEC
  0
SECTION
  2
TABLES
  0
TABLE
  2
LTYPE
 70
     9
  0
LTYPE
  2
CONTINUOUS
 70
    64
  3
Solid line
 72
    65
 73
     0
 40
0.000000
  0
LTYPE
  2
DASHED
 70
    64
  3
__ __ __ __ __ __ __ __ __ __ __ __ __ __ __
 72
    65
 73
     2
 40
0.000330
 49
0.000220
 49
-0.000110
  0
LTYPE
  2
HIDDEN
 70
    64
  3
 _ _ _ _ _ _ _ _ _ _ _ _ _ _ _ _ _ _ _ _ _ _
 72
    65
 73
     2
 40
0.000165
 49
0.000110
 49
-0.000055
  0
LTYPE
  2
CENTER
 70
    64
  3
____ _ ____ _ ____ _ ____ _ ____ _ ____ _ ____
 72
    65
 73
     4
 40
0.000880
 49
0.000550
 49
-0.000110
 49
0.000110
 49
-0.000110
  0
LTYPE
  2
PHANTOM
 70
    64
  3
_____ _ _ _____ _ _ _____ _ _ _____ _ _ ____
 72
    65
 73
     6
 40
0.001100
 49
0.000550
 49
-0.000110
 49
0.000110
 49
-0.000110
 49
0.000110
 49
-0.000110
  0
LTYPE
  2
DOT
 70
    64
  3
...............................................
 72
    65
 73
     2
 40
0.000110
 49
0.000000
 49
-0.000110
  0
LTYPE
  2
DASHDOT
 70
    64
  3
__ . __ . __ . __ . __ . __ . __ . __ . __ . __
 72
    65
 73
     4
 40
0.000440
 49
0.000220
 49
-0.000110
 49
0.000000
 49
-0.000110
  0
LTYPE
  2
BORDER
 70
    64
  3
__ __ . __ __ . __ __ . __ __ . __ __ . __ __
 72
    65
 73
     6
 40
0.000770
 49
0.000220
 49
-0.000110
 49
0.000220
 49
-0.000110
 49
0.000000
 49
-0.000110
  0
LTYPE
  2
DIVIDE
 70
    64
  3
__ . . __ . . __ . . __ . . __ . . __ . . __
 72
    65
 73
     6
 40
0.000550
 49
0.000220
 49
-0.000110
 49
0.000000
 49
-0.000110
 49
0.000000
 49
-0.000110
  0
LTYPE
  2
DOTDOT
 70
    64
  3
 . .  . .  . .  . .  . .  . . 
 72
    65
 73
     5
 40
0.000242
 49
-0.000110
 49
0.000000
 49
-0.000110
 49
0.000000
 49
-0.000110
  0
ENDTAB
  0
TABLE
  2
STYLE
 70
     2
  0
STYLE
 70
     0
  2
SN0
 40
0.000000
 41
0.000440
 50
0.000000
 71
     0
 42
0.000000
  3
ROMAND
  0
STYLE
 70
    68
  2
SV0
 40
0.000000
 41
0.000440
 50
0.000000
 71
     0
 42
0.000000
  3
ROMAND
  0
ENDTAB
  0
TABLE
  2
LAYER
 70
     3
  0
LAYER
  2
FOREGROUND
 70
    64
 62
     7
  6
CONTINUOUS
  0
LAYER
  2
BACKGROUND
 70
    65
 62
    -7
  6
CONTINUOUS
  0
LAYER
  2
0
 70
    64
 62
     7
  6
CONTINUOUS
  0
ENDTAB
  0
ENDSEC
  0
SECTION
  2
ENTITIES
  0
POLYLINE
  8
FOREGROUND
  6
CONTINUOUS
 66
     1
 40
0.000000
 41
0.000000
  0
VERTEX
  8
FOREGROUND
  6
CONTINUOUS
 10
0.000000
 20
8.041440
  0
VERTEX
  8
FOREGROUND
  6
CONTINUOUS
 10
8.499920
 20
8.041440
  0
VERTEX
  8
FOREGROUND
  6
CONTINUOUS
 10
8.499920
 20
-2.958560
  0
VERTEX
  8
FOREGROUND
  6
CONTINUOUS
 10
0.000000
 20
-2.958560
  0
VERTEX
  8
FOREGROUND
  6
CONTINUOUS
 10
0.000000
 20
8.041440
  0
SEQEND
  8
0
  0
POLYLINE
  8
FOREGROUND
  6
CONTINUOUS
 66
     1
 40
0.000000
 41
0.000000
  0
VERTEX
  8
FOREGROUND
  6
CONTINUOUS
 10
0.000000
 20
8.041440
  0
VERTEX
  8
FOREGROUND
  6
CONTINUOUS
 10
8.499920
 20
8.041440
  0
VERTEX
  8
FOREGROUND
  6
CONTINUOUS
 10
8.499920
 20
-2.958560
  0
VERTEX
  8
FOREGROUND
  6
CONTINUOUS
 10
0.000000
 20
-2.958560
  0
VERTEX
  8
FOREGROUND
  6
CONTINUOUS
 10
0.000000
 20
8.041440
  0
SEQEND
  8
0
  0
POLYLINE
  8
0
  6
CONTINUOUS
 66
     1
 40
0.014080
 41
0.014080
  0
VERTEX
  8
0
  6
CONTINUOUS
 10
4.711080
 20
7.075640
  0
VERTEX
  8
0
  6
CONTINUOUS
 10
4.718120
 20
7.012280
  0
VERTEX
  8
0
  6
CONTINUOUS
 10
4.726040
 20
6.975320
  0
VERTEX
  8
0
  6
CONTINUOUS
 10
4.737480
 20
6.946280
  0
VERTEX
  8
0
  6
CONTINUOUS
 10
4.747600
 20
6.930880
  0
VERTEX
  8
0
  6
CONTINUOUS
 10
4.760360
 20
6.918120
  0
VERTEX
  8
0
  6
CONTINUOUS
 10
4.784560
 20
6.903160
  0
VERTEX
  8
0
  6
CONTINUOUS
 10
4.804360
 20
6.895240
  0
VERTEX
  8
0
  6
CONTINUOUS
 10
4.840880
 20
6.886000
  0
VERTEX
  8
0
  6
CONTINUOUS
 10
4.886200
 20
6.878520
  0
VERTEX
  8
0
  6
CONTINUOUS
 10
5.084640
 20
6.854320
  0
VERTEX
  8
0
  6
CONTINUOUS
 10
5.157680
 20
6.841120
  0
VERTEX
  8
0
  6
CONTINUOUS
 10
5.225000
 20
6.825720
  0
VERTEX
  8
0
  6
CONTINUOUS
 10
5.307280
 20
6.801520
  0
VERTEX
  8
0
  6
CONTINUOUS
 10
5.419920
 20
6.761040
  0
VERTEX
  8
0
  6
CONTINUOUS
 10
5.595480
 20
6.693280
  0
VERTEX
  8
0
  6
CONTINUOUS
 10
5.685680
 20
6.664240
  0
VERTEX
  8
0
  6
CONTINUOUS
 10
5.766640
 20
6.643120
  0
VERTEX
  8
0
  6
CONTINUOUS
 10
5.823840
 20
6.631680
  0
VERTEX
  8
0
  6
CONTINUOUS
 10
5.878400
 20
6.624200
  0
VERTEX
  8
0
  6
CONTINUOUS
 10
5.935160
 20
6.619800
  0
VERTEX
  8
0
  6
CONTINUOUS
 10
6.015240
 20
6.617600
  0
VERTEX
  8
0
  6
CONTINUOUS
 10
6.211040
 20
6.617600
  0
VERTEX
  8
0
  6
CONTINUOUS
 10
6.211040
 20
6.115560
  0
VERTEX
  8
0
  6
CONTINUOUS
 10
5.592400
 20
6.115560
  0
VERTEX
  8
0
  6
CONTINUOUS
 10
5.592400
 20
5.367560
  0
VERTEX
  8
0
  6
CONTINUOUS
 10
6.211040
 20
5.367560
  0
VERTEX
  8
0
  6
CONTINUOUS
 10
6.211040
 20
4.828120
  0
VERTEX
  8
0
  6
CONTINUOUS
 10
6.213240
 20
4.817560
  0
VERTEX
  8
0
  6
CONTINUOUS
 10
2.200880
 20
4.817560
  0
VERTEX
  8
0
  6
CONTINUOUS
 10
2.200880
 20
7.082240
  0
VERTEX
  8
0
  6
CONTINUOUS
 10
4.700960
 20
7.082240
  0
VERTEX
  8
0
  6
CONTINUOUS
 10
4.711080
 20
7.075640
  0
SEQEND
  8
0
  0
SOLID
  8
0
 62
    15
 10
5.060000
 20
3.414400
 11
5.704600
 21
3.788840
 12
5.344240
 22
3.309240
 13
5.988840
 23
3.683680
  0
POLYLINE
  8
0
  6
CONTINUOUS
 66
     1
 40
0.000000
 41
0.000000
  0
VERTEX
  8
0
  6
CONTINUOUS
 10
5.060000
 20
3.414400
  0
VERTEX
  8
0
  6
CONTINUOUS
 10
5.704600
 20
3.788840
  0
VERTEX
  8
0
  6
CONTINUOUS
 10
5.988840
 20
3.683680
  0
VERTEX
  8
0
  6
CONTINUOUS
 10
5.344240
 20
3.309240
  0
VERTEX
  8
0
  6
CONTINUOUS
 10
5.060000
 20
3.414400
  0
SEQEND
  8
0
  0
SOLID
  8
0
 62
    15
 10
4.394720
 20
3.652000
 11
5.039320
 21
4.026440
 12
4.406160
 22
3.604480
 13
5.050760
 23
3.978920
  0
POLYLINE
  8
0
  6
CONTINUOUS
 66
     1
 40
0.000000
 41
0.000000
  0
VERTEX
  8
0
  6
CONTINUOUS
 10
4.394720
 20
3.652000
  0
VERTEX
  8
0
  6
CONTINUOUS
 10
5.039320
 20
4.026440
  0
VERTEX
  8
0
  6
CONTINUOUS
 10
5.050760
 20
3.978920
  0
VERTEX
  8
0
  6
CONTINUOUS
 10
4.406160
 20
3.604480
  0
VERTEX
  8
0
  6
CONTINUOUS
 10
4.394720
 20
3.652000
  0
SEQEND
  8
0
  0
SOLID
  8
0
 62
    15
 10
4.406160
 20
3.604480
 11
5.050760
 21
3.978920
 12
4.424200
 22
3.570600
 13
5.069240
 23
3.945040
  0
POLYLINE
  8
0
  6
CONTINUOUS
 66
     1
 40
0.000000
 41
0.000000
  0
VERTEX
  8
0
  6
CONTINUOUS
 10
4.406160
 20
3.604480
  0
VERTEX
  8
0
  6
CONTINUOUS
 10
5.050760
 20
3.978920
  0
VERTEX
  8
0
  6
CONTINUOUS
 10
5.069240
 20
3.945040
  0
VERTEX
  8
0
  6
CONTINUOUS
 10
4.424200
 20
3.570600
  0
VERTEX
  8
0
  6
CONTINUOUS
 10
4.406160
 20
3.604480
  0
SEQEND
  8
0
  0
SOLID
  8
0
 62
    15
 10
4.424200
 20
3.570600
 11
5.069240
 21
3.945040
 12
4.452360
 22
3.547280
 13
5.096960
 23
3.921720
  0
POLYLINE
  8
0
  6
CONTINUOUS
 66
     1
 40
0.000000
 41
0.000000
  0
VERTEX
  8
0
  6
CONTINUOUS
 10
4.424200
 20
3.570600
  0
VERTEX
  8
0
  6
CONTINUOUS
 10
5.069240
 20
3.945040
  0
VERTEX
  8
0
  6
CONTINUOUS
 10
5.096960
 20
3.921720
  0
VERTEX
  8
0
  6
CONTINUOUS
 10
4.452360
 20
3.547280
  0
VERTEX
  8
0
  6
CONTINUOUS
 10
4.424200
 20
3.570600
  0
SEQEND
  8
0
  0
SOLID
  8
0
 62
    15
 10
4.452360
 20
3.547280
 11
5.096960
 21
3.921720
 12
4.491960
 22
3.531440
 13
5.136560
 23
3.905880
  0
POLYLINE
  8
0
  6
CONTINUOUS
 66
     1
 40
0.000000
 41
0.000000
  0
VERTEX
  8
0
  6
CONTINUOUS
 10
4.452360
 20
3.547280
  0
VERTEX
  8
0
  6
CONTINUOUS
 10
5.096960
 20
3.921720
  0
VERTEX
  8
0
  6
CONTINUOUS
 10
5.136560
 20
3.905880
  0
VERTEX
  8
0
  6
CONTINUOUS
 10
4.491960
 20
3.531440
  0
VERTEX
  8
0
  6
CONTINUOUS
 10
4.452360
 20
3.547280
  0
SEQEND
  8
0
  0
SOLID
  8
0
 62
    15
 10
4.491960
 20
3.531440
 11
5.136560
 21
3.905880
 12
4.546520
 22
3.520440
 13
5.191120
 23
3.894880
  0
POLYLINE
  8
0
  6
CONTINUOUS
 66
     1
 40
0.000000
 41
0.000000
  0
VERTEX
  8
0
  6
CONTINUOUS
 10
4.491960
 20
3.531440
  0
VERTEX
  8
0
  6
CONTINUOUS
 10
5.136560
 20
3.905880
  0
VERTEX
  8
0
  6
CONTINUOUS
 10
5.191120
 20
3.894880
  0
VERTEX
  8
0
  6
CONTINUOUS
 10
4.546520
 20
3.520440
  0
VERTEX
  8
0
  6
CONTINUOUS
 10
4.491960
 20
3.531440
  0
SEQEND
  8
0
  0
SOLID
  8
0
 62
    15
 10
4.546520
 20
3.520440
 11
5.191120
 21
3.894880
 12
4.617800
 22
3.511200
 13
5.262400
 23
3.885640
  0
POLYLINE
  8
0
  6
CONTINUOUS
 66
     1
 40
0.000000
 41
0.000000
  0
VERTEX
  8
0
  6
CONTINUOUS
 10
4.546520
 20
3.520440
  0
VERTEX
  8
0
  6
CONTINUOUS
 10
5.191120
 20
3.894880
  0
VERTEX
  8
0
  6
CONTINUOUS
 10
5.262400
 20
3.885640
  0
VERTEX
  8
0
  6
CONTINUOUS
 10
4.617800
 20
3.511200
  0
VERTEX
  8
0
  6
CONTINUOUS
 10
4.546520
 20
3.520440
  0
SEQEND
  8
0
  0
SOLID
  8
0
 62
    15
 10
4.617800
 20
3.511200
 11
5.262400
 21
3.885640
 12
4.683800
 22
3.503720
 13
5.328840
 23
3.878160
  0
POLYLINE
  8
0
  6
CONTINUOUS
 66
     1
 40
0.000000
 41
0.000000
  0
VERTEX
  8
0
  6
CONTINUOUS
 10
4.617800
 20
3.511200
  0
VERTEX
  8
0
  6
CONTINUOUS
 10
5.262400
 20
3.885640
  0
VERTEX
  8
0
  6
CONTINUOUS
 10
5.328840
 20
3.878160
  0
VERTEX
  8
0
  6
CONTINUOUS
 10
4.683800
 20
3.503720
  0
VERTEX
  8
0
  6
CONTINUOUS
 10
4.617800
 20
3.511200
  0
SEQEND
  8
0
  0
SOLID
  8
0
 62
    15
 10
4.683800
 20
3.503720
 11
5.328840
 21
3.878160
 12
4.708880
 22
3.501080
 13
5.353480
 23
3.875520
  0
POLYLINE
  8
0
  6
CONTINUOUS
 66
     1
 40
0.000000
 41
0.000000
  0
VERTEX
  8
0
  6
CONTINUOUS
 10
4.683800
 20
3.503720
  0
VERTEX
  8
0
  6
CONTINUOUS
 10
5.328840
 20
3.878160
  0
VERTEX
  8
0
  6
CONTINUOUS
 10
5.353480
 20
3.875520
  0
VERTEX
  8
0
  6
CONTINUOUS
 10
4.708880
 20
3.501080
  0
VERTEX
  8
0
  6
CONTINUOUS
 10
4.683800
 20
3.503720
  0
SEQEND
  8
0
  0
SOLID
  8
0
 62
    15
 10
4.708880
 20
3.501080
 11
5.353480
 21
3.875520
 12
4.810520
 22
3.485680
 13
5.455120
 23
3.860120
  0
POLYLINE
  8
0
  6
CONTINUOUS
 66
     1
 40
0.000000
 41
0.000000
  0
VERTEX
  8
0
  6
CONTINUOUS
 10
4.708880
 20
3.501080
  0
VERTEX
  8
0
  6
CONTINUOUS
 10
5.353480
 20
3.875520
  0
VERTEX
  8
0
  6
CONTINUOUS
 10
5.455120
 20
3.860120
  0
VERTEX
  8
0
  6
CONTINUOUS
 10
4.810520
 20
3.485680
  0
VERTEX
  8
0
  6
CONTINUOUS
 10
4.708880
 20
3.501080
  0
SEQEND
  8
0
  0
SOLID
  8
0
 62
    15
 10
4.810520
 20
3.485680
 11
5.455120
 21
3.860120
 12
4.901160
 22
3.465000
 13
5.546200
 23
3.839880
  0
POLYLINE
  8
0
  6
CONTINUOUS
 66
     1
 40
0.000000
 41
0.000000
  0
VERTEX
  8
0
  6
CONTINUOUS
 10
4.810520
 20
3.485680
  0
VERTEX
  8
0
  6
CONTINUOUS
 10
5.455120
 20
3.860120
  0
VERTEX
  8
0
  6
CONTINUOUS
 10
5.546200
 20
3.839880
  0
VERTEX
  8
0
  6
CONTINUOUS
 10
4.901160
 20
3.465000
  0
VERTEX
  8
0
  6
CONTINUOUS
 10
4.810520
 20
3.485680
  0
SEQEND
  8
0
  0
SOLID
  8
0
 62
    15
 10
4.901160
 20
3.465000
 11
5.546200
 21
3.839880
 12
5.060000
 22
3.414400
 13
5.704600
 23
3.788840
  0
POLYLINE
  8
0
  6
CONTINUOUS
 66
     1
 40
0.000000
 41
0.000000
  0
VERTEX
  8
0
  6
CONTINUOUS
 10
4.901160
 20
3.465000
  0
VERTEX
  8
0
  6
CONTINUOUS
 10
5.546200
 20
3.839880
  0
VERTEX
  8
0
  6
CONTINUOUS
 10
5.704600
 20
3.788840
  0
VERTEX
  8
0
  6
CONTINUOUS
 10
5.060000
 20
3.414400
  0
VERTEX
  8
0
  6
CONTINUOUS
 10
4.901160
 20
3.465000
  0
SEQEND
  8
0
  0
SOLID
  8
0
 62
    15
 10
4.387680
 20
3.715360
 11
5.032720
 21
4.089800
 12
4.394720
 22
3.652000
 13
5.039320
 23
4.026440
  0
POLYLINE
  8
0
  6
CONTINUOUS
 66
     1
 40
0.000000
 41
0.000000
  0
VERTEX
  8
0
  6
CONTINUOUS
 10
4.387680
 20
3.715360
  0
VERTEX
  8
0
  6
CONTINUOUS
 10
5.032720
 20
4.089800
  0
VERTEX
  8
0
  6
CONTINUOUS
 10
5.039320
 20
4.026440
  0
VERTEX
  8
0
  6
CONTINUOUS
 10
4.394720
 20
3.652000
  0
VERTEX
  8
0
  6
CONTINUOUS
 10
4.387680
 20
3.715360
  0
SEQEND
  8
0
  0
SOLID
  8
0
 62
    15
 10
5.344240
 20
3.309240
 11
5.988840
 21
3.683680
 12
5.472280
 22
3.276680
 13
6.116880
 23
3.651120
  0
POLYLINE
  8
0
  6
CONTINUOUS
 66
     1
 40
0.000000
 41
0.000000
  0
VERTEX
  8
0
  6
CONTINUOUS
 10
5.344240
 20
3.309240
  0
VERTEX
  8
0
  6
CONTINUOUS
 10
5.988840
 20
3.683680
  0
VERTEX
  8
0
  6
CONTINUOUS
 10
6.116880
 20
3.651120
  0
VERTEX
  8
0
  6
CONTINUOUS
 10
5.472280
 20
3.276680
  0
VERTEX
  8
0
  6
CONTINUOUS
 10
5.344240
 20
3.309240
  0
SEQEND
  8
0
  0
SOLID
  8
0
 62
    15
 10
5.472280
 20
3.276680
 11
6.116880
 21
3.651120
 12
5.582720
 22
3.261280
 13
6.227760
 23
3.635720
  0
POLYLINE
  8
0
  6
CONTINUOUS
 66
     1
 40
0.000000
 41
0.000000
  0
VERTEX
  8
0
  6
CONTINUOUS
 10
5.472280
 20
3.276680
  0
VERTEX
  8
0
  6
CONTINUOUS
 10
6.116880
 20
3.651120
  0
VERTEX
  8
0
  6
CONTINUOUS
 10
6.227760
 20
3.635720
  0
VERTEX
  8
0
  6
CONTINUOUS
 10
5.582720
 20
3.261280
  0
VERTEX
  8
0
  6
CONTINUOUS
 10
5.472280
 20
3.276680
  0
SEQEND
  8
0
  0
SOLID
  8
0
 62
    15
 10
5.582720
 20
3.261280
 11
6.227760
 21
3.635720
 12
5.709440
 22
3.257320
 13
6.354040
 23
3.631760
  0
POLYLINE
  8
0
  6
CONTINUOUS
 66
     1
 40
0.000000
 41
0.000000
  0
VERTEX
  8
0
  6
CONTINUOUS
 10
5.582720
 20
3.261280
  0
VERTEX
  8
0
  6
CONTINUOUS
 10
6.227760
 20
3.635720
  0
VERTEX
  8
0
  6
CONTINUOUS
 10
6.354040
 20
3.631760
  0
VERTEX
  8
0
  6
CONTINUOUS
 10
5.709440
 20
3.257320
  0
VERTEX
  8
0
  6
CONTINUOUS
 10
5.582720
 20
3.261280
  0
SEQEND
  8
0
  0
SOLID
  8
0
 62
    15
 10
5.709440
 20
3.257320
 11
6.354040
 21
3.631760
 12
5.789080
 22
3.256880
 13
6.433680
 23
3.631760
  0
POLYLINE
  8
0
  6
CONTINUOUS
 66
     1
 40
0.000000
 41
0.000000
  0
VERTEX
  8
0
  6
CONTINUOUS
 10
5.709440
 20
3.257320
  0
VERTEX
  8
0
  6
CONTINUOUS
 10
6.354040
 20
3.631760
  0
VERTEX
  8
0
  6
CONTINUOUS
 10
6.433680
 20
3.631760
  0
VERTEX
  8
0
  6
CONTINUOUS
 10
5.789080
 20
3.256880
  0
VERTEX
  8
0
  6
CONTINUOUS
 10
5.709440
 20
3.257320
  0
SEQEND
  8
0
  0
SOLID
  8
0
 62
    15
 10
5.789080
 20
3.256880
 11
6.433680
 21
3.631760
 12
5.887640
 22
3.257320
 13
6.532680
 23
3.631760
  0
POLYLINE
  8
0
  6
CONTINUOUS
 66
     1
 40
0.000000
 41
0.000000
  0
VERTEX
  8
0
  6
CONTINUOUS
 10
5.789080
 20
3.256880
  0
VERTEX
  8
0
  6
CONTINUOUS
 10
6.433680
 20
3.631760
  0
VERTEX
  8
0
  6
CONTINUOUS
 10
6.532680
 20
3.631760
  0
VERTEX
  8
0
  6
CONTINUOUS
 10
5.887640
 20
3.257320
  0
VERTEX
  8
0
  6
CONTINUOUS
 10
5.789080
 20
3.256880
  0
SEQEND
  8
0
  0
SOLID
  8
0
 62
    15
 10
5.269000
 20
2.755280
 11
5.913600
 21
3.129720
 12
5.269000
 22
2.007280
 13
5.913600
 23
2.381720
  0
POLYLINE
  8
0
  6
CONTINUOUS
 66
     1
 40
0.000000
 41
0.000000
  0
VERTEX
  8
0
  6
CONTINUOUS
 10
5.269000
 20
2.755280
  0
VERTEX
  8
0
  6
CONTINUOUS
 10
5.913600
 20
3.129720
  0
VERTEX
  8
0
  6
CONTINUOUS
 10
5.913600
 20
2.381720
  0
VERTEX
  8
0
  6
CONTINUOUS
 10
5.269000
 20
2.007280
  0
VERTEX
  8
0
  6
CONTINUOUS
 10
5.269000
 20
2.755280
  0
SEQEND
  8
0
  0
SOLID
  8
0
 62
    15
 10
5.887640
 20
3.257320
 11
6.532680
 21
3.631760
 12
5.887640
 22
2.755280
 13
6.532680
 23
3.129720
  0
POLYLINE
  8
0
  6
CONTINUOUS
 66
     1
 40
0.000000
 41
0.000000
  0
VERTEX
  8
0
  6
CONTINUOUS
 10
5.887640
 20
3.257320
  0
VERTEX
  8
0
  6
CONTINUOUS
 10
6.532680
 20
3.631760
  0
VERTEX
  8
0
  6
CONTINUOUS
 10
6.532680
 20
3.129720
  0
VERTEX
  8
0
  6
CONTINUOUS
 10
5.887640
 20
2.755280
  0
VERTEX
  8
0
  6
CONTINUOUS
 10
5.887640
 20
3.257320
  0
SEQEND
  8
0
  0
SOLID
  8
0
 62
    15
 10
5.269000
 20
2.007280
 11
5.913600
 21
2.381720
 12
5.887640
 22
2.007280
 13
6.532680
 23
2.381720
  0
POLYLINE
  8
0
  6
CONTINUOUS
 66
     1
 40
0.000000
 41
0.000000
  0
VERTEX
  8
0
  6
CONTINUOUS
 10
5.269000
 20
2.007280
  0
VERTEX
  8
0
  6
CONTINUOUS
 10
5.913600
 20
2.381720
  0
VERTEX
  8
0
  6
CONTINUOUS
 10
6.532680
 20
2.381720
  0
VERTEX
  8
0
  6
CONTINUOUS
 10
5.887640
 20
2.007280
  0
VERTEX
  8
0
  6
CONTINUOUS
 10
5.269000
 20
2.007280
  0
SEQEND
  8
0
  0
SOLID
  8
0
 62
    15
 10
5.887640
 20
2.007280
 11
6.532680
 21
2.381720
 12
5.887640
 22
1.467400
 13
6.532680
 23
1.842280
  0
POLYLINE
  8
0
  6
CONTINUOUS
 66
     1
 40
0.000000
 41
0.000000
  0
VERTEX
  8
0
  6
CONTINUOUS
 10
5.887640
 20
2.007280
  0
VERTEX
  8
0
  6
CONTINUOUS
 10
6.532680
 20
2.381720
  0
VERTEX
  8
0
  6
CONTINUOUS
 10
6.532680
 20
1.842280
  0
VERTEX
  8
0
  6
CONTINUOUS
 10
5.887640
 20
1.467400
  0
VERTEX
  8
0
  6
CONTINUOUS
 10
5.887640
 20
2.007280
  0
SEQEND
  8
0
  0
SOLID
  8
0
 62
    15
 10
5.887640
 20
1.467400
 11
6.532680
 21
1.842280
 12
5.889840
 22
1.457280
 13
6.534440
 23
1.831720
  0
POLYLINE
  8
0
  6
CONTINUOUS
 66
     1
 40
0.000000
 41
0.000000
  0
VERTEX
  8
0
  6
CONTINUOUS
 10
5.887640
 20
1.467400
  0
VERTEX
  8
0
  6
CONTINUOUS
 10
6.532680
 20
1.842280
  0
VERTEX
  8
0
  6
CONTINUOUS
 10
6.534440
 20
1.831720
  0
VERTEX
  8
0
  6
CONTINUOUS
 10
5.889840
 20
1.457280
  0
VERTEX
  8
0
  6
CONTINUOUS
 10
5.887640
 20
1.467400
  0
SEQEND
  8
0
  0
SOLID
  8
0
 62
    15
 10
1.877480
 20
3.721520
 11
2.522080
 21
4.096400
 12
4.377560
 22
3.721520
 13
5.022160
 23
4.096400
  0
POLYLINE
  8
0
  6
CONTINUOUS
 66
     1
 40
0.000000
 41
0.000000
  0
VERTEX
  8
0
  6
CONTINUOUS
 10
1.877480
 20
3.721520
  0
VERTEX
  8
0
  6
CONTINUOUS
 10
2.522080
 20
4.096400
  0
VERTEX
  8
0
  6
CONTINUOUS
 10
5.022160
 20
4.096400
  0
VERTEX
  8
0
  6
CONTINUOUS
 10
4.377560
 20
3.721520
  0
VERTEX
  8
0
  6
CONTINUOUS
 10
1.877480
 20
3.721520
  0
SEQEND
  8
0
  0
SOLID
  8
0
 62
    15
 10
4.377560
 20
3.721520
 11
5.022160
 21
4.096400
 12
4.387680
 22
3.715360
 13
5.032720
 23
4.089800
  0
POLYLINE
  8
0
  6
CONTINUOUS
 66
     1
 40
0.000000
 41
0.000000
  0
VERTEX
  8
0
  6
CONTINUOUS
 10
4.377560
 20
3.721520
  0
VERTEX
  8
0
  6
CONTINUOUS
 10
5.022160
 20
4.096400
  0
VERTEX
  8
0
  6
CONTINUOUS
 10
5.032720
 20
4.089800
  0
VERTEX
  8
0
  6
CONTINUOUS
 10
4.387680
 20
3.715360
  0
VERTEX
  8
0
  6
CONTINUOUS
 10
4.377560
 20
3.721520
  0
SEQEND
  8
0
  0
POLYLINE
  8
0
  6
CONTINUOUS
 66
     1
 40
0.000000
 41
0.000000
  0
VERTEX
  8
0
  6
CONTINUOUS
 10
4.387680
 20
3.715360
  0
VERTEX
  8
0
  6
CONTINUOUS
 10
4.394720
 20
3.652000
  0
VERTEX
  8
0
  6
CONTINUOUS
 10
4.406160
 20
3.604480
  0
VERTEX
  8
0
  6
CONTINUOUS
 10
4.424200
 20
3.570600
  0
VERTEX
  8
0
  6
CONTINUOUS
 10
4.452360
 20
3.547280
  0
VERTEX
  8
0
  6
CONTINUOUS
 10
4.491960
 20
3.531440
  0
VERTEX
  8
0
  6
CONTINUOUS
 10
4.546520
 20
3.520440
  0
VERTEX
  8
0
  6
CONTINUOUS
 10
4.617800
 20
3.511200
  0
VERTEX
  8
0
  6
CONTINUOUS
 10
4.683800
 20
3.503720
  0
VERTEX
  8
0
  6
CONTINUOUS
 10
4.708880
 20
3.501080
  0
VERTEX
  8
0
  6
CONTINUOUS
 10
4.810520
 20
3.485680
  0
VERTEX
  8
0
  6
CONTINUOUS
 10
4.901160
 20
3.465000
  0
VERTEX
  8
0
  6
CONTINUOUS
 10
5.060000
 20
3.414400
  0
VERTEX
  8
0
  6
CONTINUOUS
 10
5.344240
 20
3.309240
  0
VERTEX
  8
0
  6
CONTINUOUS
 10
5.472280
 20
3.276680
  0
VERTEX
  8
0
  6
CONTINUOUS
 10
5.582720
 20
3.261280
  0
VERTEX
  8
0
  6
CONTINUOUS
 10
5.709440
 20
3.257320
  0
VERTEX
  8
0
  6
CONTINUOUS
 10
5.789080
 20
3.256880
  0
VERTEX
  8
0
  6
CONTINUOUS
 10
5.887640
 20
3.257320
  0
VERTEX
  8
0
  6
CONTINUOUS
 10
5.887640
 20
2.755280
  0
VERTEX
  8
0
  6
CONTINUOUS
 10
5.269000
 20
2.755280
  0
VERTEX
  8
0
  6
CONTINUOUS
 10
5.269000
 20
2.007280
  0
VERTEX
  8
0
  6
CONTINUOUS
 10
5.887640
 20
2.007280
  0
VERTEX
  8
0
  6
CONTINUOUS
 10
5.887640
 20
1.467400
  0
VERTEX
  8
0
  6
CONTINUOUS
 10
5.889840
 20
1.457280
  0
VERTEX
  8
0
  6
CONTINUOUS
 10
1.877480
 20
1.457280
  0
VERTEX
  8
0
  6
CONTINUOUS
 10
1.877480
 20
3.721520
  0
VERTEX
  8
0
  6
CONTINUOUS
 10
4.377560
 20
3.721520
  0
VERTEX
  8
0
  6
CONTINUOUS
 10
4.387680
 20
3.715360
  0
SEQEND
  8
0
  0
TEXT
  8
0
 10
3.910280
 20
1.187560
 40
0.138136
  1
BA  731
 41
1.000000
  7
SN0
 71
     0
 72
     5
 11
4.500449
 21
1.187560
  0
TEXT
  8
0
 10
3.791480
 20
0.996160
 40
0.138136
  1
2-1/4" x 4"*
 41
1.000000
  7
SN0
 71
     0
 72
     5
 11
4.617655
 21
0.996160
  0
TEXT
  8
0
 10
6.289360
 20
2.698520
 40
0.138136
  1
BA  732
 41
1.000000
  7
SN0
 71
     0
 72
     5
 11
6.879529
 21
2.698520
  0
TEXT
  8
0
 10
6.207520
 20
2.507120
 40
0.138136
  1
5/8" x 3/4"
 41
1.000000
  7
SN0
 71
     0
 72
     5
 11
6.960346
 21
2.507120
  0
ENDSEC
  0
EOF
