  0
SECTION
  2
HEADER
  9
$ACADVER
  1
AC1006
  9
$EXTMIN
 10
2.943600
 20
0.621280
  9
$EXTMAX
 10
6.790960
 20
4.125880
  9
$LTSCALE
 40
0.044000
  9
$PDMODE
 70
    35
  9
$PDSIZE
 40
0.035200
  0
ENDSEC
  0
SECTION
  2
TABLES
  0
TABLE
  2
LTYPE
 70
     9
  0
LTYPE
  2
CONTINUOUS
 70
    64
  3
Solid line
 72
    65
 73
     0
 40
0.000000
  0
LTYPE
  2
DASHED
 70
    64
  3
__ __ __ __ __ __ __ __ __ __ __ __ __ __ __
 72
    65
 73
     2
 40
0.000330
 49
0.000220
 49
-0.000110
  0
LTYPE
  2
HIDDEN
 70
    64
  3
 _ _ _ _ _ _ _ _ _ _ _ _ _ _ _ _ _ _ _ _ _ _
 72
    65
 73
     2
 40
0.000165
 49
0.000110
 49
-0.000055
  0
LTYPE
  2
CENTER
 70
    64
  3
____ _ ____ _ ____ _ ____ _ ____ _ ____ _ ____
 72
    65
 73
     4
 40
0.000880
 49
0.000550
 49
-0.000110
 49
0.000110
 49
-0.000110
  0
LTYPE
  2
PHANTOM
 70
    64
  3
_____ _ _ _____ _ _ _____ _ _ _____ _ _ ____
 72
    65
 73
     6
 40
0.001100
 49
0.000550
 49
-0.000110
 49
0.000110
 49
-0.000110
 49
0.000110
 49
-0.000110
  0
LTYPE
  2
DOT
 70
    64
  3
...............................................
 72
    65
 73
     2
 40
0.000110
 49
0.000000
 49
-0.000110
  0
LTYPE
  2
DASHDOT
 70
    64
  3
__ . __ . __ . __ . __ . __ . __ . __ . __ . __
 72
    65
 73
     4
 40
0.000440
 49
0.000220
 49
-0.000110
 49
0.000000
 49
-0.000110
  0
LTYPE
  2
BORDER
 70
    64
  3
__ __ . __ __ . __ __ . __ __ . __ __ . __ __
 72
    65
 73
     6
 40
0.000770
 49
0.000220
 49
-0.000110
 49
0.000220
 49
-0.000110
 49
0.000000
 49
-0.000110
  0
LTYPE
  2
DIVIDE
 70
    64
  3
__ . . __ . . __ . . __ . . __ . . __ . . __
 72
    65
 73
     6
 40
0.000550
 49
0.000220
 49
-0.000110
 49
0.000000
 49
-0.000110
 49
0.000000
 49
-0.000110
  0
LTYPE
  2
DOTDOT
 70
    64
  3
 . .  . .  . .  . .  . .  . . 
 72
    65
 73
     5
 40
0.000242
 49
-0.000110
 49
0.000000
 49
-0.000110
 49
0.000000
 49
-0.000110
  0
ENDTAB
  0
TABLE
  2
STYLE
 70
     2
  0
STYLE
 70
     0
  2
SN0
 40
0.000000
 41
0.000440
 50
0.000000
 71
     0
 42
0.000000
  3
ROMAND
  0
STYLE
 70
    68
  2
SV0
 40
0.000000
 41
0.000440
 50
0.000000
 71
     0
 42
0.000000
  3
ROMAND
  0
ENDTAB
  0
TABLE
  2
LAYER
 70
     3
  0
LAYER
  2
FOREGROUND
 70
    64
 62
     7
  6
CONTINUOUS
  0
LAYER
  2
BACKGROUND
 70
    65
 62
    -7
  6
CONTINUOUS
  0
LAYER
  2
0
 70
    64
 62
     7
  6
CONTINUOUS
  0
ENDTAB
  0
ENDSEC
  0
SECTION
  2
ENTITIES
  0
POLYLINE
  8
FOREGROUND
  6
CONTINUOUS
 66
     1
 40
0.000000
 41
0.000000
  0
VERTEX
  8
FOREGROUND
  6
CONTINUOUS
 10
0.000000
 20
4.747160
  0
VERTEX
  8
FOREGROUND
  6
CONTINUOUS
 10
8.499920
 20
4.747160
  0
VERTEX
  8
FOREGROUND
  6
CONTINUOUS
 10
8.499920
 20
-6.252840
  0
VERTEX
  8
FOREGROUND
  6
CONTINUOUS
 10
0.000000
 20
-6.252840
  0
VERTEX
  8
FOREGROUND
  6
CONTINUOUS
 10
0.000000
 20
4.747160
  0
SEQEND
  8
0
  0
POLYLINE
  8
FOREGROUND
  6
CONTINUOUS
 66
     1
 40
0.000000
 41
0.000000
  0
VERTEX
  8
FOREGROUND
  6
CONTINUOUS
 10
0.000000
 20
4.747160
  0
VERTEX
  8
FOREGROUND
  6
CONTINUOUS
 10
8.499920
 20
4.747160
  0
VERTEX
  8
FOREGROUND
  6
CONTINUOUS
 10
8.499920
 20
-6.252840
  0
VERTEX
  8
FOREGROUND
  6
CONTINUOUS
 10
0.000000
 20
-6.252840
  0
VERTEX
  8
FOREGROUND
  6
CONTINUOUS
 10
0.000000
 20
4.747160
  0
SEQEND
  8
0
  0
SOLID
  8
0
 62
    15
 10
4.965840
 20
3.175920
 11
4.972000
 21
3.907200
 12
5.027880
 22
3.179880
 13
5.034040
 23
3.911160
  0
POLYLINE
  8
0
  6
CONTINUOUS
 66
     1
 40
0.000000
 41
0.000000
  0
VERTEX
  8
0
  6
CONTINUOUS
 10
4.965840
 20
3.175920
  0
VERTEX
  8
0
  6
CONTINUOUS
 10
4.972000
 20
3.907200
  0
VERTEX
  8
0
  6
CONTINUOUS
 10
5.034040
 20
3.911160
  0
VERTEX
  8
0
  6
CONTINUOUS
 10
5.027880
 20
3.179880
  0
VERTEX
  8
0
  6
CONTINUOUS
 10
4.965840
 20
3.175920
  0
SEQEND
  8
0
  0
SOLID
  8
0
 62
    15
 10
3.708760
 20
3.325960
 11
3.714920
 21
4.057240
 12
3.718880
 22
3.296040
 13
3.725040
 23
4.027320
  0
POLYLINE
  8
0
  6
CONTINUOUS
 66
     1
 40
0.000000
 41
0.000000
  0
VERTEX
  8
0
  6
CONTINUOUS
 10
3.708760
 20
3.325960
  0
VERTEX
  8
0
  6
CONTINUOUS
 10
3.714920
 20
4.057240
  0
VERTEX
  8
0
  6
CONTINUOUS
 10
3.725040
 20
4.027320
  0
VERTEX
  8
0
  6
CONTINUOUS
 10
3.718880
 20
3.296040
  0
VERTEX
  8
0
  6
CONTINUOUS
 10
3.708760
 20
3.325960
  0
SEQEND
  8
0
  0
SOLID
  8
0
 62
    15
 10
3.718880
 20
3.296040
 11
3.725040
 21
4.027320
 12
3.733840
 22
3.268760
 13
3.740000
 23
4.000040
  0
POLYLINE
  8
0
  6
CONTINUOUS
 66
     1
 40
0.000000
 41
0.000000
  0
VERTEX
  8
0
  6
CONTINUOUS
 10
3.718880
 20
3.296040
  0
VERTEX
  8
0
  6
CONTINUOUS
 10
3.725040
 20
4.027320
  0
VERTEX
  8
0
  6
CONTINUOUS
 10
3.740000
 20
4.000040
  0
VERTEX
  8
0
  6
CONTINUOUS
 10
3.733840
 20
3.268760
  0
VERTEX
  8
0
  6
CONTINUOUS
 10
3.718880
 20
3.296040
  0
SEQEND
  8
0
  0
SOLID
  8
0
 62
    15
 10
3.733840
 20
3.268760
 11
3.740000
 21
4.000040
 12
3.754960
 22
3.245880
 13
3.761120
 23
3.977160
  0
POLYLINE
  8
0
  6
CONTINUOUS
 66
     1
 40
0.000000
 41
0.000000
  0
VERTEX
  8
0
  6
CONTINUOUS
 10
3.733840
 20
3.268760
  0
VERTEX
  8
0
  6
CONTINUOUS
 10
3.740000
 20
4.000040
  0
VERTEX
  8
0
  6
CONTINUOUS
 10
3.761120
 20
3.977160
  0
VERTEX
  8
0
  6
CONTINUOUS
 10
3.754960
 20
3.245880
  0
VERTEX
  8
0
  6
CONTINUOUS
 10
3.733840
 20
3.268760
  0
SEQEND
  8
0
  0
SOLID
  8
0
 62
    15
 10
3.754960
 20
3.245880
 11
3.761120
 21
3.977160
 12
3.781800
 22
3.226960
 13
3.787960
 23
3.958240
  0
POLYLINE
  8
0
  6
CONTINUOUS
 66
     1
 40
0.000000
 41
0.000000
  0
VERTEX
  8
0
  6
CONTINUOUS
 10
3.754960
 20
3.245880
  0
VERTEX
  8
0
  6
CONTINUOUS
 10
3.761120
 20
3.977160
  0
VERTEX
  8
0
  6
CONTINUOUS
 10
3.787960
 20
3.958240
  0
VERTEX
  8
0
  6
CONTINUOUS
 10
3.781800
 20
3.226960
  0
VERTEX
  8
0
  6
CONTINUOUS
 10
3.754960
 20
3.245880
  0
SEQEND
  8
0
  0
SOLID
  8
0
 62
    15
 10
3.781800
 20
3.226960
 11
3.787960
 21
3.958240
 12
3.815680
 22
3.213320
 13
3.821840
 23
3.944600
  0
POLYLINE
  8
0
  6
CONTINUOUS
 66
     1
 40
0.000000
 41
0.000000
  0
VERTEX
  8
0
  6
CONTINUOUS
 10
3.781800
 20
3.226960
  0
VERTEX
  8
0
  6
CONTINUOUS
 10
3.787960
 20
3.958240
  0
VERTEX
  8
0
  6
CONTINUOUS
 10
3.821840
 20
3.944600
  0
VERTEX
  8
0
  6
CONTINUOUS
 10
3.815680
 20
3.213320
  0
VERTEX
  8
0
  6
CONTINUOUS
 10
3.781800
 20
3.226960
  0
SEQEND
  8
0
  0
SOLID
  8
0
 62
    15
 10
3.815680
 20
3.213320
 11
3.821840
 21
3.944600
 12
3.857040
 22
3.204960
 13
3.863200
 23
3.936240
  0
POLYLINE
  8
0
  6
CONTINUOUS
 66
     1
 40
0.000000
 41
0.000000
  0
VERTEX
  8
0
  6
CONTINUOUS
 10
3.815680
 20
3.213320
  0
VERTEX
  8
0
  6
CONTINUOUS
 10
3.821840
 20
3.944600
  0
VERTEX
  8
0
  6
CONTINUOUS
 10
3.863200
 20
3.936240
  0
VERTEX
  8
0
  6
CONTINUOUS
 10
3.857040
 20
3.204960
  0
VERTEX
  8
0
  6
CONTINUOUS
 10
3.815680
 20
3.213320
  0
SEQEND
  8
0
  0
SOLID
  8
0
 62
    15
 10
3.857040
 20
3.204960
 11
3.863200
 21
3.936240
 12
3.868480
 22
3.233560
 13
3.874640
 23
3.964840
  0
POLYLINE
  8
0
  6
CONTINUOUS
 66
     1
 40
0.000000
 41
0.000000
  0
VERTEX
  8
0
  6
CONTINUOUS
 10
3.857040
 20
3.204960
  0
VERTEX
  8
0
  6
CONTINUOUS
 10
3.863200
 20
3.936240
  0
VERTEX
  8
0
  6
CONTINUOUS
 10
3.874640
 20
3.964840
  0
VERTEX
  8
0
  6
CONTINUOUS
 10
3.868480
 20
3.233560
  0
VERTEX
  8
0
  6
CONTINUOUS
 10
3.857040
 20
3.204960
  0
SEQEND
  8
0
  0
SOLID
  8
0
 62
    15
 10
3.868480
 20
3.233560
 11
3.874640
 21
3.964840
 12
3.884760
 22
3.259080
 13
3.891360
 23
3.990360
  0
POLYLINE
  8
0
  6
CONTINUOUS
 66
     1
 40
0.000000
 41
0.000000
  0
VERTEX
  8
0
  6
CONTINUOUS
 10
3.868480
 20
3.233560
  0
VERTEX
  8
0
  6
CONTINUOUS
 10
3.874640
 20
3.964840
  0
VERTEX
  8
0
  6
CONTINUOUS
 10
3.891360
 20
3.990360
  0
VERTEX
  8
0
  6
CONTINUOUS
 10
3.884760
 20
3.259080
  0
VERTEX
  8
0
  6
CONTINUOUS
 10
3.868480
 20
3.233560
  0
SEQEND
  8
0
  0
SOLID
  8
0
 62
    15
 10
3.884760
 20
3.259080
 11
3.891360
 21
3.990360
 12
3.929640
 22
3.298240
 13
3.935800
 23
4.029520
  0
POLYLINE
  8
0
  6
CONTINUOUS
 66
     1
 40
0.000000
 41
0.000000
  0
VERTEX
  8
0
  6
CONTINUOUS
 10
3.884760
 20
3.259080
  0
VERTEX
  8
0
  6
CONTINUOUS
 10
3.891360
 20
3.990360
  0
VERTEX
  8
0
  6
CONTINUOUS
 10
3.935800
 20
4.029520
  0
VERTEX
  8
0
  6
CONTINUOUS
 10
3.929640
 20
3.298240
  0
VERTEX
  8
0
  6
CONTINUOUS
 10
3.884760
 20
3.259080
  0
SEQEND
  8
0
  0
SOLID
  8
0
 62
    15
 10
3.929640
 20
3.298240
 11
3.935800
 21
4.029520
 12
3.985960
 22
3.322440
 13
3.992120
 23
4.053720
  0
POLYLINE
  8
0
  6
CONTINUOUS
 66
     1
 40
0.000000
 41
0.000000
  0
VERTEX
  8
0
  6
CONTINUOUS
 10
3.929640
 20
3.298240
  0
VERTEX
  8
0
  6
CONTINUOUS
 10
3.935800
 20
4.029520
  0
VERTEX
  8
0
  6
CONTINUOUS
 10
3.992120
 20
4.053720
  0
VERTEX
  8
0
  6
CONTINUOUS
 10
3.985960
 20
3.322440
  0
VERTEX
  8
0
  6
CONTINUOUS
 10
3.929640
 20
3.298240
  0
SEQEND
  8
0
  0
SOLID
  8
0
 62
    15
 10
3.985960
 20
3.322440
 11
3.992120
 21
4.053720
 12
4.049320
 22
3.331240
 13
4.055480
 23
4.062960
  0
POLYLINE
  8
0
  6
CONTINUOUS
 66
     1
 40
0.000000
 41
0.000000
  0
VERTEX
  8
0
  6
CONTINUOUS
 10
3.985960
 20
3.322440
  0
VERTEX
  8
0
  6
CONTINUOUS
 10
3.992120
 20
4.053720
  0
VERTEX
  8
0
  6
CONTINUOUS
 10
4.055480
 20
4.062960
  0
VERTEX
  8
0
  6
CONTINUOUS
 10
4.049320
 20
3.331240
  0
VERTEX
  8
0
  6
CONTINUOUS
 10
3.985960
 20
3.322440
  0
SEQEND
  8
0
  0
SOLID
  8
0
 62
    15
 10
4.049320
 20
3.331240
 11
4.055480
 21
4.062960
 12
4.114440
 22
3.324640
 13
4.121040
 23
4.055920
  0
POLYLINE
  8
0
  6
CONTINUOUS
 66
     1
 40
0.000000
 41
0.000000
  0
VERTEX
  8
0
  6
CONTINUOUS
 10
4.049320
 20
3.331240
  0
VERTEX
  8
0
  6
CONTINUOUS
 10
4.055480
 20
4.062960
  0
VERTEX
  8
0
  6
CONTINUOUS
 10
4.121040
 20
4.055920
  0
VERTEX
  8
0
  6
CONTINUOUS
 10
4.114440
 20
3.324640
  0
VERTEX
  8
0
  6
CONTINUOUS
 10
4.049320
 20
3.331240
  0
SEQEND
  8
0
  0
SOLID
  8
0
 62
    15
 10
4.114440
 20
3.324640
 11
4.121040
 21
4.055920
 12
4.176920
 22
3.302200
 13
4.183080
 23
4.033480
  0
POLYLINE
  8
0
  6
CONTINUOUS
 66
     1
 40
0.000000
 41
0.000000
  0
VERTEX
  8
0
  6
CONTINUOUS
 10
4.114440
 20
3.324640
  0
VERTEX
  8
0
  6
CONTINUOUS
 10
4.121040
 20
4.055920
  0
VERTEX
  8
0
  6
CONTINUOUS
 10
4.183080
 20
4.033480
  0
VERTEX
  8
0
  6
CONTINUOUS
 10
4.176920
 20
3.302200
  0
VERTEX
  8
0
  6
CONTINUOUS
 10
4.114440
 20
3.324640
  0
SEQEND
  8
0
  0
SOLID
  8
0
 62
    15
 10
4.176920
 20
3.302200
 11
4.183080
 21
4.033480
 12
4.231040
 22
3.263920
 13
4.237200
 23
3.995200
  0
POLYLINE
  8
0
  6
CONTINUOUS
 66
     1
 40
0.000000
 41
0.000000
  0
VERTEX
  8
0
  6
CONTINUOUS
 10
4.176920
 20
3.302200
  0
VERTEX
  8
0
  6
CONTINUOUS
 10
4.183080
 20
4.033480
  0
VERTEX
  8
0
  6
CONTINUOUS
 10
4.237200
 20
3.995200
  0
VERTEX
  8
0
  6
CONTINUOUS
 10
4.231040
 20
3.263920
  0
VERTEX
  8
0
  6
CONTINUOUS
 10
4.176920
 20
3.302200
  0
SEQEND
  8
0
  0
SOLID
  8
0
 62
    15
 10
4.231040
 20
3.263920
 11
4.237200
 21
3.995200
 12
4.253920
 22
3.238400
 13
4.260080
 23
3.969680
  0
POLYLINE
  8
0
  6
CONTINUOUS
 66
     1
 40
0.000000
 41
0.000000
  0
VERTEX
  8
0
  6
CONTINUOUS
 10
4.231040
 20
3.263920
  0
VERTEX
  8
0
  6
CONTINUOUS
 10
4.237200
 20
3.995200
  0
VERTEX
  8
0
  6
CONTINUOUS
 10
4.260080
 20
3.969680
  0
VERTEX
  8
0
  6
CONTINUOUS
 10
4.253920
 20
3.238400
  0
VERTEX
  8
0
  6
CONTINUOUS
 10
4.231040
 20
3.263920
  0
SEQEND
  8
0
  0
SOLID
  8
0
 62
    15
 10
4.253920
 20
3.238400
 11
4.260080
 21
3.969680
 12
4.272840
 22
3.208920
 13
4.279000
 23
3.940200
  0
POLYLINE
  8
0
  6
CONTINUOUS
 66
     1
 40
0.000000
 41
0.000000
  0
VERTEX
  8
0
  6
CONTINUOUS
 10
4.253920
 20
3.238400
  0
VERTEX
  8
0
  6
CONTINUOUS
 10
4.260080
 20
3.969680
  0
VERTEX
  8
0
  6
CONTINUOUS
 10
4.279000
 20
3.940200
  0
VERTEX
  8
0
  6
CONTINUOUS
 10
4.272840
 20
3.208920
  0
VERTEX
  8
0
  6
CONTINUOUS
 10
4.253920
 20
3.238400
  0
SEQEND
  8
0
  0
SOLID
  8
0
 62
    15
 10
4.272840
 20
3.208920
 11
4.279000
 21
3.940200
 12
4.304080
 22
3.152160
 13
4.310240
 23
3.883440
  0
POLYLINE
  8
0
  6
CONTINUOUS
 66
     1
 40
0.000000
 41
0.000000
  0
VERTEX
  8
0
  6
CONTINUOUS
 10
4.272840
 20
3.208920
  0
VERTEX
  8
0
  6
CONTINUOUS
 10
4.279000
 20
3.940200
  0
VERTEX
  8
0
  6
CONTINUOUS
 10
4.310240
 20
3.883440
  0
VERTEX
  8
0
  6
CONTINUOUS
 10
4.304080
 20
3.152160
  0
VERTEX
  8
0
  6
CONTINUOUS
 10
4.272840
 20
3.208920
  0
SEQEND
  8
0
  0
SOLID
  8
0
 62
    15
 10
4.304080
 20
3.152160
 11
4.310240
 21
3.883440
 12
4.332240
 22
3.107280
 13
4.338400
 23
3.838560
  0
POLYLINE
  8
0
  6
CONTINUOUS
 66
     1
 40
0.000000
 41
0.000000
  0
VERTEX
  8
0
  6
CONTINUOUS
 10
4.304080
 20
3.152160
  0
VERTEX
  8
0
  6
CONTINUOUS
 10
4.310240
 20
3.883440
  0
VERTEX
  8
0
  6
CONTINUOUS
 10
4.338400
 20
3.838560
  0
VERTEX
  8
0
  6
CONTINUOUS
 10
4.332240
 20
3.107280
  0
VERTEX
  8
0
  6
CONTINUOUS
 10
4.304080
 20
3.152160
  0
SEQEND
  8
0
  0
SOLID
  8
0
 62
    15
 10
4.332240
 20
3.107280
 11
4.338400
 21
3.838560
 12
4.359960
 22
3.072080
 13
4.366120
 23
3.803360
  0
POLYLINE
  8
0
  6
CONTINUOUS
 66
     1
 40
0.000000
 41
0.000000
  0
VERTEX
  8
0
  6
CONTINUOUS
 10
4.332240
 20
3.107280
  0
VERTEX
  8
0
  6
CONTINUOUS
 10
4.338400
 20
3.838560
  0
VERTEX
  8
0
  6
CONTINUOUS
 10
4.366120
 20
3.803360
  0
VERTEX
  8
0
  6
CONTINUOUS
 10
4.359960
 20
3.072080
  0
VERTEX
  8
0
  6
CONTINUOUS
 10
4.332240
 20
3.107280
  0
SEQEND
  8
0
  0
SOLID
  8
0
 62
    15
 10
4.359960
 20
3.072080
 11
4.366120
 21
3.803360
 12
4.388560
 22
3.046120
 13
4.394720
 23
3.777400
  0
POLYLINE
  8
0
  6
CONTINUOUS
 66
     1
 40
0.000000
 41
0.000000
  0
VERTEX
  8
0
  6
CONTINUOUS
 10
4.359960
 20
3.072080
  0
VERTEX
  8
0
  6
CONTINUOUS
 10
4.366120
 20
3.803360
  0
VERTEX
  8
0
  6
CONTINUOUS
 10
4.394720
 20
3.777400
  0
VERTEX
  8
0
  6
CONTINUOUS
 10
4.388560
 20
3.046120
  0
VERTEX
  8
0
  6
CONTINUOUS
 10
4.359960
 20
3.072080
  0
SEQEND
  8
0
  0
SOLID
  8
0
 62
    15
 10
4.388560
 20
3.046120
 11
4.394720
 21
3.777400
 12
4.420680
 22
3.026760
 13
4.426840
 23
3.758040
  0
POLYLINE
  8
0
  6
CONTINUOUS
 66
     1
 40
0.000000
 41
0.000000
  0
VERTEX
  8
0
  6
CONTINUOUS
 10
4.388560
 20
3.046120
  0
VERTEX
  8
0
  6
CONTINUOUS
 10
4.394720
 20
3.777400
  0
VERTEX
  8
0
  6
CONTINUOUS
 10
4.426840
 20
3.758040
  0
VERTEX
  8
0
  6
CONTINUOUS
 10
4.420680
 20
3.026760
  0
VERTEX
  8
0
  6
CONTINUOUS
 10
4.388560
 20
3.046120
  0
SEQEND
  8
0
  0
SOLID
  8
0
 62
    15
 10
4.420680
 20
3.026760
 11
4.426840
 21
3.758040
 12
4.458080
 22
3.012680
 13
4.464240
 23
3.743960
  0
POLYLINE
  8
0
  6
CONTINUOUS
 66
     1
 40
0.000000
 41
0.000000
  0
VERTEX
  8
0
  6
CONTINUOUS
 10
4.420680
 20
3.026760
  0
VERTEX
  8
0
  6
CONTINUOUS
 10
4.426840
 20
3.758040
  0
VERTEX
  8
0
  6
CONTINUOUS
 10
4.464240
 20
3.743960
  0
VERTEX
  8
0
  6
CONTINUOUS
 10
4.458080
 20
3.012680
  0
VERTEX
  8
0
  6
CONTINUOUS
 10
4.420680
 20
3.026760
  0
SEQEND
  8
0
  0
SOLID
  8
0
 62
    15
 10
4.458080
 20
3.012680
 11
4.464240
 21
3.743960
 12
4.502960
 22
3.002560
 13
4.509120
 23
3.733840
  0
POLYLINE
  8
0
  6
CONTINUOUS
 66
     1
 40
0.000000
 41
0.000000
  0
VERTEX
  8
0
  6
CONTINUOUS
 10
4.458080
 20
3.012680
  0
VERTEX
  8
0
  6
CONTINUOUS
 10
4.464240
 20
3.743960
  0
VERTEX
  8
0
  6
CONTINUOUS
 10
4.509120
 20
3.733840
  0
VERTEX
  8
0
  6
CONTINUOUS
 10
4.502960
 20
3.002560
  0
VERTEX
  8
0
  6
CONTINUOUS
 10
4.458080
 20
3.012680
  0
SEQEND
  8
0
  0
SOLID
  8
0
 62
    15
 10
4.502960
 20
3.002560
 11
4.509120
 21
3.733840
 12
4.557080
 22
2.995080
 13
4.563680
 23
3.726360
  0
POLYLINE
  8
0
  6
CONTINUOUS
 66
     1
 40
0.000000
 41
0.000000
  0
VERTEX
  8
0
  6
CONTINUOUS
 10
4.502960
 20
3.002560
  0
VERTEX
  8
0
  6
CONTINUOUS
 10
4.509120
 20
3.733840
  0
VERTEX
  8
0
  6
CONTINUOUS
 10
4.563680
 20
3.726360
  0
VERTEX
  8
0
  6
CONTINUOUS
 10
4.557080
 20
2.995080
  0
VERTEX
  8
0
  6
CONTINUOUS
 10
4.502960
 20
3.002560
  0
SEQEND
  8
0
  0
SOLID
  8
0
 62
    15
 10
4.557080
 20
2.995080
 11
4.563680
 21
3.726360
 12
4.603720
 22
2.998600
 13
4.609880
 23
3.729880
  0
POLYLINE
  8
0
  6
CONTINUOUS
 66
     1
 40
0.000000
 41
0.000000
  0
VERTEX
  8
0
  6
CONTINUOUS
 10
4.557080
 20
2.995080
  0
VERTEX
  8
0
  6
CONTINUOUS
 10
4.563680
 20
3.726360
  0
VERTEX
  8
0
  6
CONTINUOUS
 10
4.609880
 20
3.729880
  0
VERTEX
  8
0
  6
CONTINUOUS
 10
4.603720
 20
2.998600
  0
VERTEX
  8
0
  6
CONTINUOUS
 10
4.557080
 20
2.995080
  0
SEQEND
  8
0
  0
SOLID
  8
0
 62
    15
 10
4.603720
 20
2.998600
 11
4.609880
 21
3.729880
 12
4.645520
 22
3.008280
 13
4.651680
 23
3.739560
  0
POLYLINE
  8
0
  6
CONTINUOUS
 66
     1
 40
0.000000
 41
0.000000
  0
VERTEX
  8
0
  6
CONTINUOUS
 10
4.603720
 20
2.998600
  0
VERTEX
  8
0
  6
CONTINUOUS
 10
4.609880
 20
3.729880
  0
VERTEX
  8
0
  6
CONTINUOUS
 10
4.651680
 20
3.739560
  0
VERTEX
  8
0
  6
CONTINUOUS
 10
4.645520
 20
3.008280
  0
VERTEX
  8
0
  6
CONTINUOUS
 10
4.603720
 20
2.998600
  0
SEQEND
  8
0
  0
SOLID
  8
0
 62
    15
 10
4.645520
 20
3.008280
 11
4.651680
 21
3.739560
 12
4.716800
 22
3.041280
 13
4.722960
 23
3.772560
  0
POLYLINE
  8
0
  6
CONTINUOUS
 66
     1
 40
0.000000
 41
0.000000
  0
VERTEX
  8
0
  6
CONTINUOUS
 10
4.645520
 20
3.008280
  0
VERTEX
  8
0
  6
CONTINUOUS
 10
4.651680
 20
3.739560
  0
VERTEX
  8
0
  6
CONTINUOUS
 10
4.722960
 20
3.772560
  0
VERTEX
  8
0
  6
CONTINUOUS
 10
4.716800
 20
3.041280
  0
VERTEX
  8
0
  6
CONTINUOUS
 10
4.645520
 20
3.008280
  0
SEQEND
  8
0
  0
SOLID
  8
0
 62
    15
 10
4.716800
 20
3.041280
 11
4.722960
 21
3.772560
 12
4.748040
 22
3.061520
 13
4.754200
 23
3.792800
  0
POLYLINE
  8
0
  6
CONTINUOUS
 66
     1
 40
0.000000
 41
0.000000
  0
VERTEX
  8
0
  6
CONTINUOUS
 10
4.716800
 20
3.041280
  0
VERTEX
  8
0
  6
CONTINUOUS
 10
4.722960
 20
3.772560
  0
VERTEX
  8
0
  6
CONTINUOUS
 10
4.754200
 20
3.792800
  0
VERTEX
  8
0
  6
CONTINUOUS
 10
4.748040
 20
3.061520
  0
VERTEX
  8
0
  6
CONTINUOUS
 10
4.716800
 20
3.041280
  0
SEQEND
  8
0
  0
SOLID
  8
0
 62
    15
 10
4.748040
 20
3.061520
 11
4.754200
 21
3.792800
 12
4.777960
 22
3.082640
 13
4.784120
 23
3.813920
  0
POLYLINE
  8
0
  6
CONTINUOUS
 66
     1
 40
0.000000
 41
0.000000
  0
VERTEX
  8
0
  6
CONTINUOUS
 10
4.748040
 20
3.061520
  0
VERTEX
  8
0
  6
CONTINUOUS
 10
4.754200
 20
3.792800
  0
VERTEX
  8
0
  6
CONTINUOUS
 10
4.784120
 20
3.813920
  0
VERTEX
  8
0
  6
CONTINUOUS
 10
4.777960
 20
3.082640
  0
VERTEX
  8
0
  6
CONTINUOUS
 10
4.748040
 20
3.061520
  0
SEQEND
  8
0
  0
SOLID
  8
0
 62
    15
 10
4.777960
 20
3.082640
 11
4.784120
 21
3.813920
 12
4.836480
 22
3.121800
 13
4.842640
 23
3.853080
  0
POLYLINE
  8
0
  6
CONTINUOUS
 66
     1
 40
0.000000
 41
0.000000
  0
VERTEX
  8
0
  6
CONTINUOUS
 10
4.777960
 20
3.082640
  0
VERTEX
  8
0
  6
CONTINUOUS
 10
4.784120
 20
3.813920
  0
VERTEX
  8
0
  6
CONTINUOUS
 10
4.842640
 20
3.853080
  0
VERTEX
  8
0
  6
CONTINUOUS
 10
4.836480
 20
3.121800
  0
VERTEX
  8
0
  6
CONTINUOUS
 10
4.777960
 20
3.082640
  0
SEQEND
  8
0
  0
SOLID
  8
0
 62
    15
 10
4.836480
 20
3.121800
 11
4.842640
 21
3.853080
 12
4.852320
 22
3.131040
 13
4.858480
 23
3.862320
  0
POLYLINE
  8
0
  6
CONTINUOUS
 66
     1
 40
0.000000
 41
0.000000
  0
VERTEX
  8
0
  6
CONTINUOUS
 10
4.836480
 20
3.121800
  0
VERTEX
  8
0
  6
CONTINUOUS
 10
4.842640
 20
3.853080
  0
VERTEX
  8
0
  6
CONTINUOUS
 10
4.858480
 20
3.862320
  0
VERTEX
  8
0
  6
CONTINUOUS
 10
4.852320
 20
3.131040
  0
VERTEX
  8
0
  6
CONTINUOUS
 10
4.836480
 20
3.121800
  0
SEQEND
  8
0
  0
SOLID
  8
0
 62
    15
 10
4.852320
 20
3.131040
 11
4.858480
 21
3.862320
 12
4.870360
 22
3.141160
 13
4.876520
 23
3.872440
  0
POLYLINE
  8
0
  6
CONTINUOUS
 66
     1
 40
0.000000
 41
0.000000
  0
VERTEX
  8
0
  6
CONTINUOUS
 10
4.852320
 20
3.131040
  0
VERTEX
  8
0
  6
CONTINUOUS
 10
4.858480
 20
3.862320
  0
VERTEX
  8
0
  6
CONTINUOUS
 10
4.876520
 20
3.872440
  0
VERTEX
  8
0
  6
CONTINUOUS
 10
4.870360
 20
3.141160
  0
VERTEX
  8
0
  6
CONTINUOUS
 10
4.852320
 20
3.131040
  0
SEQEND
  8
0
  0
SOLID
  8
0
 62
    15
 10
4.870360
 20
3.141160
 11
4.876520
 21
3.872440
 12
4.913480
 22
3.160960
 13
4.919640
 23
3.892240
  0
POLYLINE
  8
0
  6
CONTINUOUS
 66
     1
 40
0.000000
 41
0.000000
  0
VERTEX
  8
0
  6
CONTINUOUS
 10
4.870360
 20
3.141160
  0
VERTEX
  8
0
  6
CONTINUOUS
 10
4.876520
 20
3.872440
  0
VERTEX
  8
0
  6
CONTINUOUS
 10
4.919640
 20
3.892240
  0
VERTEX
  8
0
  6
CONTINUOUS
 10
4.913480
 20
3.160960
  0
VERTEX
  8
0
  6
CONTINUOUS
 10
4.870360
 20
3.141160
  0
SEQEND
  8
0
  0
SOLID
  8
0
 62
    15
 10
4.913480
 20
3.160960
 11
4.919640
 21
3.892240
 12
4.965840
 22
3.175920
 13
4.972000
 23
3.907200
  0
POLYLINE
  8
0
  6
CONTINUOUS
 66
     1
 40
0.000000
 41
0.000000
  0
VERTEX
  8
0
  6
CONTINUOUS
 10
4.913480
 20
3.160960
  0
VERTEX
  8
0
  6
CONTINUOUS
 10
4.919640
 20
3.892240
  0
VERTEX
  8
0
  6
CONTINUOUS
 10
4.972000
 20
3.907200
  0
VERTEX
  8
0
  6
CONTINUOUS
 10
4.965840
 20
3.175920
  0
VERTEX
  8
0
  6
CONTINUOUS
 10
4.913480
 20
3.160960
  0
SEQEND
  8
0
  0
SOLID
  8
0
 62
    15
 10
3.701280
 20
3.393720
 11
3.707440
 21
4.125000
 12
3.708760
 22
3.325960
 13
3.714920
 23
4.057240
  0
POLYLINE
  8
0
  6
CONTINUOUS
 66
     1
 40
0.000000
 41
0.000000
  0
VERTEX
  8
0
  6
CONTINUOUS
 10
3.701280
 20
3.393720
  0
VERTEX
  8
0
  6
CONTINUOUS
 10
3.707440
 20
4.125000
  0
VERTEX
  8
0
  6
CONTINUOUS
 10
3.714920
 20
4.057240
  0
VERTEX
  8
0
  6
CONTINUOUS
 10
3.708760
 20
3.325960
  0
VERTEX
  8
0
  6
CONTINUOUS
 10
3.701280
 20
3.393720
  0
SEQEND
  8
0
  0
SOLID
  8
0
 62
    15
 10
5.027880
 20
3.179880
 11
5.034040
 21
3.911160
 12
5.062640
 22
3.176360
 13
5.068800
 23
3.907640
  0
POLYLINE
  8
0
  6
CONTINUOUS
 66
     1
 40
0.000000
 41
0.000000
  0
VERTEX
  8
0
  6
CONTINUOUS
 10
5.027880
 20
3.179880
  0
VERTEX
  8
0
  6
CONTINUOUS
 10
5.034040
 20
3.911160
  0
VERTEX
  8
0
  6
CONTINUOUS
 10
5.068800
 20
3.907640
  0
VERTEX
  8
0
  6
CONTINUOUS
 10
5.062640
 20
3.176360
  0
VERTEX
  8
0
  6
CONTINUOUS
 10
5.027880
 20
3.179880
  0
SEQEND
  8
0
  0
SOLID
  8
0
 62
    15
 10
5.062640
 20
3.176360
 11
5.068800
 21
3.907640
 12
5.100040
 22
3.167560
 13
5.106200
 23
3.898840
  0
POLYLINE
  8
0
  6
CONTINUOUS
 66
     1
 40
0.000000
 41
0.000000
  0
VERTEX
  8
0
  6
CONTINUOUS
 10
5.062640
 20
3.176360
  0
VERTEX
  8
0
  6
CONTINUOUS
 10
5.068800
 20
3.907640
  0
VERTEX
  8
0
  6
CONTINUOUS
 10
5.106200
 20
3.898840
  0
VERTEX
  8
0
  6
CONTINUOUS
 10
5.100040
 20
3.167560
  0
VERTEX
  8
0
  6
CONTINUOUS
 10
5.062640
 20
3.176360
  0
SEQEND
  8
0
  0
SOLID
  8
0
 62
    15
 10
5.100040
 20
3.167560
 11
5.106200
 21
3.898840
 12
5.140520
 22
3.153040
 13
5.146680
 23
3.884320
  0
POLYLINE
  8
0
  6
CONTINUOUS
 66
     1
 40
0.000000
 41
0.000000
  0
VERTEX
  8
0
  6
CONTINUOUS
 10
5.100040
 20
3.167560
  0
VERTEX
  8
0
  6
CONTINUOUS
 10
5.106200
 20
3.898840
  0
VERTEX
  8
0
  6
CONTINUOUS
 10
5.146680
 20
3.884320
  0
VERTEX
  8
0
  6
CONTINUOUS
 10
5.140520
 20
3.153040
  0
VERTEX
  8
0
  6
CONTINUOUS
 10
5.100040
 20
3.167560
  0
SEQEND
  8
0
  0
SOLID
  8
0
 62
    15
 10
5.140520
 20
3.153040
 11
5.146680
 21
3.884320
 12
5.183200
 22
3.132360
 13
5.189360
 23
3.863640
  0
POLYLINE
  8
0
  6
CONTINUOUS
 66
     1
 40
0.000000
 41
0.000000
  0
VERTEX
  8
0
  6
CONTINUOUS
 10
5.140520
 20
3.153040
  0
VERTEX
  8
0
  6
CONTINUOUS
 10
5.146680
 20
3.884320
  0
VERTEX
  8
0
  6
CONTINUOUS
 10
5.189360
 20
3.863640
  0
VERTEX
  8
0
  6
CONTINUOUS
 10
5.183200
 20
3.132360
  0
VERTEX
  8
0
  6
CONTINUOUS
 10
5.140520
 20
3.153040
  0
SEQEND
  8
0
  0
SOLID
  8
0
 62
    15
 10
5.183200
 20
3.132360
 11
5.189360
 21
3.863640
 12
5.228960
 22
3.104640
 13
5.235120
 23
3.835920
  0
POLYLINE
  8
0
  6
CONTINUOUS
 66
     1
 40
0.000000
 41
0.000000
  0
VERTEX
  8
0
  6
CONTINUOUS
 10
5.183200
 20
3.132360
  0
VERTEX
  8
0
  6
CONTINUOUS
 10
5.189360
 20
3.863640
  0
VERTEX
  8
0
  6
CONTINUOUS
 10
5.235120
 20
3.835920
  0
VERTEX
  8
0
  6
CONTINUOUS
 10
5.228960
 20
3.104640
  0
VERTEX
  8
0
  6
CONTINUOUS
 10
5.183200
 20
3.132360
  0
SEQEND
  8
0
  0
SOLID
  8
0
 62
    15
 10
5.228960
 20
3.104640
 11
5.235120
 21
3.835920
 12
5.277360
 22
3.069440
 13
5.283520
 23
3.800720
  0
POLYLINE
  8
0
  6
CONTINUOUS
 66
     1
 40
0.000000
 41
0.000000
  0
VERTEX
  8
0
  6
CONTINUOUS
 10
5.228960
 20
3.104640
  0
VERTEX
  8
0
  6
CONTINUOUS
 10
5.235120
 20
3.835920
  0
VERTEX
  8
0
  6
CONTINUOUS
 10
5.283520
 20
3.800720
  0
VERTEX
  8
0
  6
CONTINUOUS
 10
5.277360
 20
3.069440
  0
VERTEX
  8
0
  6
CONTINUOUS
 10
5.228960
 20
3.104640
  0
SEQEND
  8
0
  0
SOLID
  8
0
 62
    15
 10
5.277360
 20
3.069440
 11
5.283520
 21
3.800720
 12
5.328400
 22
3.025440
 13
5.334560
 23
3.756720
  0
POLYLINE
  8
0
  6
CONTINUOUS
 66
     1
 40
0.000000
 41
0.000000
  0
VERTEX
  8
0
  6
CONTINUOUS
 10
5.277360
 20
3.069440
  0
VERTEX
  8
0
  6
CONTINUOUS
 10
5.283520
 20
3.800720
  0
VERTEX
  8
0
  6
CONTINUOUS
 10
5.334560
 20
3.756720
  0
VERTEX
  8
0
  6
CONTINUOUS
 10
5.328400
 20
3.025440
  0
VERTEX
  8
0
  6
CONTINUOUS
 10
5.277360
 20
3.069440
  0
SEQEND
  8
0
  0
SOLID
  8
0
 62
    15
 10
5.328400
 20
3.025440
 11
5.334560
 21
3.756720
 12
5.382520
 22
2.972200
 13
5.389120
 23
3.703480
  0
POLYLINE
  8
0
  6
CONTINUOUS
 66
     1
 40
0.000000
 41
0.000000
  0
VERTEX
  8
0
  6
CONTINUOUS
 10
5.328400
 20
3.025440
  0
VERTEX
  8
0
  6
CONTINUOUS
 10
5.334560
 20
3.756720
  0
VERTEX
  8
0
  6
CONTINUOUS
 10
5.389120
 20
3.703480
  0
VERTEX
  8
0
  6
CONTINUOUS
 10
5.382520
 20
2.972200
  0
VERTEX
  8
0
  6
CONTINUOUS
 10
5.328400
 20
3.025440
  0
SEQEND
  8
0
  0
SOLID
  8
0
 62
    15
 10
5.382520
 20
2.972200
 11
5.389120
 21
3.703480
 12
5.392200
 22
2.962520
 13
5.398360
 23
3.693800
  0
POLYLINE
  8
0
  6
CONTINUOUS
 66
     1
 40
0.000000
 41
0.000000
  0
VERTEX
  8
0
  6
CONTINUOUS
 10
5.382520
 20
2.972200
  0
VERTEX
  8
0
  6
CONTINUOUS
 10
5.389120
 20
3.703480
  0
VERTEX
  8
0
  6
CONTINUOUS
 10
5.398360
 20
3.693800
  0
VERTEX
  8
0
  6
CONTINUOUS
 10
5.392200
 20
2.962520
  0
VERTEX
  8
0
  6
CONTINUOUS
 10
5.382520
 20
2.972200
  0
SEQEND
  8
0
  0
SOLID
  8
0
 62
    15
 10
5.392200
 20
2.962520
 11
5.398360
 21
3.693800
 12
5.458640
 22
2.895640
 13
5.464800
 23
3.626920
  0
POLYLINE
  8
0
  6
CONTINUOUS
 66
     1
 40
0.000000
 41
0.000000
  0
VERTEX
  8
0
  6
CONTINUOUS
 10
5.392200
 20
2.962520
  0
VERTEX
  8
0
  6
CONTINUOUS
 10
5.398360
 20
3.693800
  0
VERTEX
  8
0
  6
CONTINUOUS
 10
5.464800
 20
3.626920
  0
VERTEX
  8
0
  6
CONTINUOUS
 10
5.458640
 20
2.895640
  0
VERTEX
  8
0
  6
CONTINUOUS
 10
5.392200
 20
2.962520
  0
SEQEND
  8
0
  0
SOLID
  8
0
 62
    15
 10
5.458640
 20
2.895640
 11
5.464800
 21
3.626920
 12
5.531680
 22
2.824800
 13
5.537840
 23
3.556080
  0
POLYLINE
  8
0
  6
CONTINUOUS
 66
     1
 40
0.000000
 41
0.000000
  0
VERTEX
  8
0
  6
CONTINUOUS
 10
5.458640
 20
2.895640
  0
VERTEX
  8
0
  6
CONTINUOUS
 10
5.464800
 20
3.626920
  0
VERTEX
  8
0
  6
CONTINUOUS
 10
5.537840
 20
3.556080
  0
VERTEX
  8
0
  6
CONTINUOUS
 10
5.531680
 20
2.824800
  0
VERTEX
  8
0
  6
CONTINUOUS
 10
5.458640
 20
2.895640
  0
SEQEND
  8
0
  0
SOLID
  8
0
 62
    15
 10
5.531680
 20
2.824800
 11
5.537840
 21
3.556080
 12
5.565120
 22
2.796200
 13
5.571280
 23
3.527480
  0
POLYLINE
  8
0
  6
CONTINUOUS
 66
     1
 40
0.000000
 41
0.000000
  0
VERTEX
  8
0
  6
CONTINUOUS
 10
5.531680
 20
2.824800
  0
VERTEX
  8
0
  6
CONTINUOUS
 10
5.537840
 20
3.556080
  0
VERTEX
  8
0
  6
CONTINUOUS
 10
5.571280
 20
3.527480
  0
VERTEX
  8
0
  6
CONTINUOUS
 10
5.565120
 20
2.796200
  0
VERTEX
  8
0
  6
CONTINUOUS
 10
5.531680
 20
2.824800
  0
SEQEND
  8
0
  0
SOLID
  8
0
 62
    15
 10
5.565120
 20
2.796200
 11
5.571280
 21
3.527480
 12
5.595480
 22
2.773320
 13
5.601640
 23
3.504600
  0
POLYLINE
  8
0
  6
CONTINUOUS
 66
     1
 40
0.000000
 41
0.000000
  0
VERTEX
  8
0
  6
CONTINUOUS
 10
5.565120
 20
2.796200
  0
VERTEX
  8
0
  6
CONTINUOUS
 10
5.571280
 20
3.527480
  0
VERTEX
  8
0
  6
CONTINUOUS
 10
5.601640
 20
3.504600
  0
VERTEX
  8
0
  6
CONTINUOUS
 10
5.595480
 20
2.773320
  0
VERTEX
  8
0
  6
CONTINUOUS
 10
5.565120
 20
2.796200
  0
SEQEND
  8
0
  0
SOLID
  8
0
 62
    15
 10
5.595480
 20
2.773320
 11
5.601640
 21
3.504600
 12
5.621880
 22
2.758800
 13
5.628040
 23
3.490520
  0
POLYLINE
  8
0
  6
CONTINUOUS
 66
     1
 40
0.000000
 41
0.000000
  0
VERTEX
  8
0
  6
CONTINUOUS
 10
5.595480
 20
2.773320
  0
VERTEX
  8
0
  6
CONTINUOUS
 10
5.601640
 20
3.504600
  0
VERTEX
  8
0
  6
CONTINUOUS
 10
5.628040
 20
3.490520
  0
VERTEX
  8
0
  6
CONTINUOUS
 10
5.621880
 20
2.758800
  0
VERTEX
  8
0
  6
CONTINUOUS
 10
5.595480
 20
2.773320
  0
SEQEND
  8
0
  0
SOLID
  8
0
 62
    15
 10
5.621880
 20
2.758800
 11
5.628040
 21
3.490520
 12
5.643440
 22
2.753960
 13
5.649600
 23
3.485240
  0
POLYLINE
  8
0
  6
CONTINUOUS
 66
     1
 40
0.000000
 41
0.000000
  0
VERTEX
  8
0
  6
CONTINUOUS
 10
5.621880
 20
2.758800
  0
VERTEX
  8
0
  6
CONTINUOUS
 10
5.628040
 20
3.490520
  0
VERTEX
  8
0
  6
CONTINUOUS
 10
5.649600
 20
3.485240
  0
VERTEX
  8
0
  6
CONTINUOUS
 10
5.643440
 20
2.753960
  0
VERTEX
  8
0
  6
CONTINUOUS
 10
5.621880
 20
2.758800
  0
SEQEND
  8
0
  0
SOLID
  8
0
 62
    15
 10
5.643440
 20
2.753960
 11
5.649600
 21
3.485240
 12
5.674240
 22
2.758800
 13
5.680400
 23
3.490080
  0
POLYLINE
  8
0
  6
CONTINUOUS
 66
     1
 40
0.000000
 41
0.000000
  0
VERTEX
  8
0
  6
CONTINUOUS
 10
5.643440
 20
2.753960
  0
VERTEX
  8
0
  6
CONTINUOUS
 10
5.649600
 20
3.485240
  0
VERTEX
  8
0
  6
CONTINUOUS
 10
5.680400
 20
3.490080
  0
VERTEX
  8
0
  6
CONTINUOUS
 10
5.674240
 20
2.758800
  0
VERTEX
  8
0
  6
CONTINUOUS
 10
5.643440
 20
2.753960
  0
SEQEND
  8
0
  0
SOLID
  8
0
 62
    15
 10
5.674240
 20
2.758800
 11
5.680400
 21
3.490080
 12
5.693160
 22
2.768480
 13
5.699320
 23
3.500200
  0
POLYLINE
  8
0
  6
CONTINUOUS
 66
     1
 40
0.000000
 41
0.000000
  0
VERTEX
  8
0
  6
CONTINUOUS
 10
5.674240
 20
2.758800
  0
VERTEX
  8
0
  6
CONTINUOUS
 10
5.680400
 20
3.490080
  0
VERTEX
  8
0
  6
CONTINUOUS
 10
5.699320
 20
3.500200
  0
VERTEX
  8
0
  6
CONTINUOUS
 10
5.693160
 20
2.768480
  0
VERTEX
  8
0
  6
CONTINUOUS
 10
5.674240
 20
2.758800
  0
SEQEND
  8
0
  0
SOLID
  8
0
 62
    15
 10
5.693160
 20
2.768480
 11
5.699320
 21
3.500200
 12
5.702840
 22
2.780360
 13
5.709000
 23
3.511640
  0
POLYLINE
  8
0
  6
CONTINUOUS
 66
     1
 40
0.000000
 41
0.000000
  0
VERTEX
  8
0
  6
CONTINUOUS
 10
5.693160
 20
2.768480
  0
VERTEX
  8
0
  6
CONTINUOUS
 10
5.699320
 20
3.500200
  0
VERTEX
  8
0
  6
CONTINUOUS
 10
5.709000
 20
3.511640
  0
VERTEX
  8
0
  6
CONTINUOUS
 10
5.702840
 20
2.780360
  0
VERTEX
  8
0
  6
CONTINUOUS
 10
5.693160
 20
2.768480
  0
SEQEND
  8
0
  0
SOLID
  8
0
 62
    15
 10
5.702840
 20
2.780360
 11
5.709000
 21
3.511640
 12
5.705920
 22
2.789600
 13
5.712080
 23
3.520880
  0
POLYLINE
  8
0
  6
CONTINUOUS
 66
     1
 40
0.000000
 41
0.000000
  0
VERTEX
  8
0
  6
CONTINUOUS
 10
5.702840
 20
2.780360
  0
VERTEX
  8
0
  6
CONTINUOUS
 10
5.709000
 20
3.511640
  0
VERTEX
  8
0
  6
CONTINUOUS
 10
5.712080
 20
3.520880
  0
VERTEX
  8
0
  6
CONTINUOUS
 10
5.705920
 20
2.789600
  0
VERTEX
  8
0
  6
CONTINUOUS
 10
5.702840
 20
2.780360
  0
SEQEND
  8
0
  0
SOLID
  8
0
 62
    15
 10
5.705920
 20
2.789600
 11
5.712080
 21
3.520880
 12
6.441600
 22
2.789600
 13
6.447760
 23
3.520880
  0
POLYLINE
  8
0
  6
CONTINUOUS
 66
     1
 40
0.000000
 41
0.000000
  0
VERTEX
  8
0
  6
CONTINUOUS
 10
5.705920
 20
2.789600
  0
VERTEX
  8
0
  6
CONTINUOUS
 10
5.712080
 20
3.520880
  0
VERTEX
  8
0
  6
CONTINUOUS
 10
6.447760
 20
3.520880
  0
VERTEX
  8
0
  6
CONTINUOUS
 10
6.441600
 20
2.789600
  0
VERTEX
  8
0
  6
CONTINUOUS
 10
5.705920
 20
2.789600
  0
SEQEND
  8
0
  0
SOLID
  8
0
 62
    15
 10
6.441600
 20
2.789600
 11
6.447760
 21
3.520880
 12
6.464040
 22
2.787400
 13
6.470200
 23
3.518680
  0
POLYLINE
  8
0
  6
CONTINUOUS
 66
     1
 40
0.000000
 41
0.000000
  0
VERTEX
  8
0
  6
CONTINUOUS
 10
6.441600
 20
2.789600
  0
VERTEX
  8
0
  6
CONTINUOUS
 10
6.447760
 20
3.520880
  0
VERTEX
  8
0
  6
CONTINUOUS
 10
6.470200
 20
3.518680
  0
VERTEX
  8
0
  6
CONTINUOUS
 10
6.464040
 20
2.787400
  0
VERTEX
  8
0
  6
CONTINUOUS
 10
6.441600
 20
2.789600
  0
SEQEND
  8
0
  0
SOLID
  8
0
 62
    15
 10
6.464040
 20
2.787400
 11
6.470200
 21
3.518680
 12
6.481640
 22
2.780360
 13
6.487800
 23
3.511640
  0
POLYLINE
  8
0
  6
CONTINUOUS
 66
     1
 40
0.000000
 41
0.000000
  0
VERTEX
  8
0
  6
CONTINUOUS
 10
6.464040
 20
2.787400
  0
VERTEX
  8
0
  6
CONTINUOUS
 10
6.470200
 20
3.518680
  0
VERTEX
  8
0
  6
CONTINUOUS
 10
6.487800
 20
3.511640
  0
VERTEX
  8
0
  6
CONTINUOUS
 10
6.481640
 20
2.780360
  0
VERTEX
  8
0
  6
CONTINUOUS
 10
6.464040
 20
2.787400
  0
SEQEND
  8
0
  0
SOLID
  8
0
 62
    15
 10
6.481640
 20
2.780360
 11
6.487800
 21
3.511640
 12
6.505400
 22
2.757040
 13
6.511560
 23
3.488320
  0
POLYLINE
  8
0
  6
CONTINUOUS
 66
     1
 40
0.000000
 41
0.000000
  0
VERTEX
  8
0
  6
CONTINUOUS
 10
6.481640
 20
2.780360
  0
VERTEX
  8
0
  6
CONTINUOUS
 10
6.487800
 20
3.511640
  0
VERTEX
  8
0
  6
CONTINUOUS
 10
6.511560
 20
3.488320
  0
VERTEX
  8
0
  6
CONTINUOUS
 10
6.505400
 20
2.757040
  0
VERTEX
  8
0
  6
CONTINUOUS
 10
6.481640
 20
2.780360
  0
SEQEND
  8
0
  0
SOLID
  8
0
 62
    15
 10
6.505400
 20
2.757040
 11
6.511560
 21
3.488320
 12
6.530920
 22
2.704240
 13
6.537080
 23
3.435520
  0
POLYLINE
  8
0
  6
CONTINUOUS
 66
     1
 40
0.000000
 41
0.000000
  0
VERTEX
  8
0
  6
CONTINUOUS
 10
6.505400
 20
2.757040
  0
VERTEX
  8
0
  6
CONTINUOUS
 10
6.511560
 20
3.488320
  0
VERTEX
  8
0
  6
CONTINUOUS
 10
6.537080
 20
3.435520
  0
VERTEX
  8
0
  6
CONTINUOUS
 10
6.530920
 20
2.704240
  0
VERTEX
  8
0
  6
CONTINUOUS
 10
6.505400
 20
2.757040
  0
SEQEND
  8
0
  0
SOLID
  8
0
 62
    15
 10
6.530920
 20
2.704240
 11
6.537080
 21
3.435520
 12
6.541480
 22
2.688400
 13
6.547640
 23
3.419680
  0
POLYLINE
  8
0
  6
CONTINUOUS
 66
     1
 40
0.000000
 41
0.000000
  0
VERTEX
  8
0
  6
CONTINUOUS
 10
6.530920
 20
2.704240
  0
VERTEX
  8
0
  6
CONTINUOUS
 10
6.537080
 20
3.435520
  0
VERTEX
  8
0
  6
CONTINUOUS
 10
6.547640
 20
3.419680
  0
VERTEX
  8
0
  6
CONTINUOUS
 10
6.541480
 20
2.688400
  0
VERTEX
  8
0
  6
CONTINUOUS
 10
6.530920
 20
2.704240
  0
SEQEND
  8
0
  0
SOLID
  8
0
 62
    15
 10
6.541480
 20
2.688400
 11
6.547640
 21
3.419680
 12
6.560400
 22
2.662880
 13
6.566560
 23
3.394160
  0
POLYLINE
  8
0
  6
CONTINUOUS
 66
     1
 40
0.000000
 41
0.000000
  0
VERTEX
  8
0
  6
CONTINUOUS
 10
6.541480
 20
2.688400
  0
VERTEX
  8
0
  6
CONTINUOUS
 10
6.547640
 20
3.419680
  0
VERTEX
  8
0
  6
CONTINUOUS
 10
6.566560
 20
3.394160
  0
VERTEX
  8
0
  6
CONTINUOUS
 10
6.560400
 20
2.662880
  0
VERTEX
  8
0
  6
CONTINUOUS
 10
6.541480
 20
2.688400
  0
SEQEND
  8
0
  0
SOLID
  8
0
 62
    15
 10
6.560400
 20
2.662880
 11
6.566560
 21
3.394160
 12
6.586360
 22
2.631640
 13
6.592520
 23
3.362920
  0
POLYLINE
  8
0
  6
CONTINUOUS
 66
     1
 40
0.000000
 41
0.000000
  0
VERTEX
  8
0
  6
CONTINUOUS
 10
6.560400
 20
2.662880
  0
VERTEX
  8
0
  6
CONTINUOUS
 10
6.566560
 20
3.394160
  0
VERTEX
  8
0
  6
CONTINUOUS
 10
6.592520
 20
3.362920
  0
VERTEX
  8
0
  6
CONTINUOUS
 10
6.586360
 20
2.631640
  0
VERTEX
  8
0
  6
CONTINUOUS
 10
6.560400
 20
2.662880
  0
SEQEND
  8
0
  0
SOLID
  8
0
 62
    15
 10
6.586360
 20
2.631640
 11
6.592520
 21
3.362920
 12
6.618480
 22
2.597760
 13
6.624640
 23
3.329040
  0
POLYLINE
  8
0
  6
CONTINUOUS
 66
     1
 40
0.000000
 41
0.000000
  0
VERTEX
  8
0
  6
CONTINUOUS
 10
6.586360
 20
2.631640
  0
VERTEX
  8
0
  6
CONTINUOUS
 10
6.592520
 20
3.362920
  0
VERTEX
  8
0
  6
CONTINUOUS
 10
6.624640
 20
3.329040
  0
VERTEX
  8
0
  6
CONTINUOUS
 10
6.618480
 20
2.597760
  0
VERTEX
  8
0
  6
CONTINUOUS
 10
6.586360
 20
2.631640
  0
SEQEND
  8
0
  0
SOLID
  8
0
 62
    15
 10
6.618480
 20
2.597760
 11
6.624640
 21
3.329040
 12
6.655440
 22
2.565200
 13
6.661600
 23
3.296480
  0
POLYLINE
  8
0
  6
CONTINUOUS
 66
     1
 40
0.000000
 41
0.000000
  0
VERTEX
  8
0
  6
CONTINUOUS
 10
6.618480
 20
2.597760
  0
VERTEX
  8
0
  6
CONTINUOUS
 10
6.624640
 20
3.329040
  0
VERTEX
  8
0
  6
CONTINUOUS
 10
6.661600
 20
3.296480
  0
VERTEX
  8
0
  6
CONTINUOUS
 10
6.655440
 20
2.565200
  0
VERTEX
  8
0
  6
CONTINUOUS
 10
6.618480
 20
2.597760
  0
SEQEND
  8
0
  0
SOLID
  8
0
 62
    15
 10
6.655440
 20
2.565200
 11
6.661600
 21
3.296480
 12
6.696360
 22
2.537480
 13
6.702520
 23
3.268760
  0
POLYLINE
  8
0
  6
CONTINUOUS
 66
     1
 40
0.000000
 41
0.000000
  0
VERTEX
  8
0
  6
CONTINUOUS
 10
6.655440
 20
2.565200
  0
VERTEX
  8
0
  6
CONTINUOUS
 10
6.661600
 20
3.296480
  0
VERTEX
  8
0
  6
CONTINUOUS
 10
6.702520
 20
3.268760
  0
VERTEX
  8
0
  6
CONTINUOUS
 10
6.696360
 20
2.537480
  0
VERTEX
  8
0
  6
CONTINUOUS
 10
6.655440
 20
2.565200
  0
SEQEND
  8
0
  0
SOLID
  8
0
 62
    15
 10
6.696360
 20
2.537480
 11
6.702520
 21
3.268760
 12
6.739480
 22
2.518560
 13
6.745640
 23
3.249840
  0
POLYLINE
  8
0
  6
CONTINUOUS
 66
     1
 40
0.000000
 41
0.000000
  0
VERTEX
  8
0
  6
CONTINUOUS
 10
6.696360
 20
2.537480
  0
VERTEX
  8
0
  6
CONTINUOUS
 10
6.702520
 20
3.268760
  0
VERTEX
  8
0
  6
CONTINUOUS
 10
6.745640
 20
3.249840
  0
VERTEX
  8
0
  6
CONTINUOUS
 10
6.739480
 20
2.518560
  0
VERTEX
  8
0
  6
CONTINUOUS
 10
6.696360
 20
2.537480
  0
SEQEND
  8
0
  0
SOLID
  8
0
 62
    15
 10
6.784360
 20
2.511080
 11
6.790520
 21
3.242360
 12
6.784360
 22
2.307360
 13
6.790520
 23
3.038640
  0
POLYLINE
  8
0
  6
CONTINUOUS
 66
     1
 40
0.000000
 41
0.000000
  0
VERTEX
  8
0
  6
CONTINUOUS
 10
6.784360
 20
2.511080
  0
VERTEX
  8
0
  6
CONTINUOUS
 10
6.790520
 20
3.242360
  0
VERTEX
  8
0
  6
CONTINUOUS
 10
6.790520
 20
3.038640
  0
VERTEX
  8
0
  6
CONTINUOUS
 10
6.784360
 20
2.307360
  0
VERTEX
  8
0
  6
CONTINUOUS
 10
6.784360
 20
2.511080
  0
SEQEND
  8
0
  0
SOLID
  8
0
 62
    15
 10
6.739480
 20
2.518560
 11
6.745640
 21
3.249840
 12
6.784360
 22
2.511080
 13
6.790520
 23
3.242360
  0
POLYLINE
  8
0
  6
CONTINUOUS
 66
     1
 40
0.000000
 41
0.000000
  0
VERTEX
  8
0
  6
CONTINUOUS
 10
6.739480
 20
2.518560
  0
VERTEX
  8
0
  6
CONTINUOUS
 10
6.745640
 20
3.249840
  0
VERTEX
  8
0
  6
CONTINUOUS
 10
6.790520
 20
3.242360
  0
VERTEX
  8
0
  6
CONTINUOUS
 10
6.784360
 20
2.511080
  0
VERTEX
  8
0
  6
CONTINUOUS
 10
6.739480
 20
2.518560
  0
SEQEND
  8
0
  0
SOLID
  8
0
 62
    15
 10
2.971320
 20
3.391960
 11
2.977480
 21
4.123240
 12
3.699960
 22
3.391960
 13
3.706120
 23
4.123240
  0
POLYLINE
  8
0
  6
CONTINUOUS
 66
     1
 40
0.000000
 41
0.000000
  0
VERTEX
  8
0
  6
CONTINUOUS
 10
2.971320
 20
3.391960
  0
VERTEX
  8
0
  6
CONTINUOUS
 10
2.977480
 20
4.123240
  0
VERTEX
  8
0
  6
CONTINUOUS
 10
3.706120
 20
4.123240
  0
VERTEX
  8
0
  6
CONTINUOUS
 10
3.699960
 20
3.391960
  0
VERTEX
  8
0
  6
CONTINUOUS
 10
2.971320
 20
3.391960
  0
SEQEND
  8
0
  0
SOLID
  8
0
 62
    15
 10
3.699960
 20
3.391960
 11
3.706120
 21
4.123240
 12
3.701280
 22
3.393720
 13
3.707440
 23
4.125000
  0
POLYLINE
  8
0
  6
CONTINUOUS
 66
     1
 40
0.000000
 41
0.000000
  0
VERTEX
  8
0
  6
CONTINUOUS
 10
3.699960
 20
3.391960
  0
VERTEX
  8
0
  6
CONTINUOUS
 10
3.706120
 20
4.123240
  0
VERTEX
  8
0
  6
CONTINUOUS
 10
3.707440
 20
4.125000
  0
VERTEX
  8
0
  6
CONTINUOUS
 10
3.701280
 20
3.393720
  0
VERTEX
  8
0
  6
CONTINUOUS
 10
3.699960
 20
3.391960
  0
SEQEND
  8
0
  0
POLYLINE
  8
0
  6
CONTINUOUS
 66
     1
 40
0.000000
 41
0.000000
  0
VERTEX
  8
0
  6
CONTINUOUS
 10
3.701280
 20
3.393720
  0
VERTEX
  8
0
  6
CONTINUOUS
 10
3.708760
 20
3.325960
  0
VERTEX
  8
0
  6
CONTINUOUS
 10
3.718880
 20
3.296040
  0
VERTEX
  8
0
  6
CONTINUOUS
 10
3.733840
 20
3.268760
  0
VERTEX
  8
0
  6
CONTINUOUS
 10
3.754960
 20
3.245880
  0
VERTEX
  8
0
  6
CONTINUOUS
 10
3.781800
 20
3.226960
  0
VERTEX
  8
0
  6
CONTINUOUS
 10
3.815680
 20
3.213320
  0
VERTEX
  8
0
  6
CONTINUOUS
 10
3.857040
 20
3.204960
  0
VERTEX
  8
0
  6
CONTINUOUS
 10
3.868480
 20
3.233560
  0
VERTEX
  8
0
  6
CONTINUOUS
 10
3.884760
 20
3.259080
  0
VERTEX
  8
0
  6
CONTINUOUS
 10
3.929640
 20
3.298240
  0
VERTEX
  8
0
  6
CONTINUOUS
 10
3.985960
 20
3.322440
  0
VERTEX
  8
0
  6
CONTINUOUS
 10
4.049320
 20
3.331240
  0
VERTEX
  8
0
  6
CONTINUOUS
 10
4.114440
 20
3.324640
  0
VERTEX
  8
0
  6
CONTINUOUS
 10
4.176920
 20
3.302200
  0
VERTEX
  8
0
  6
CONTINUOUS
 10
4.231040
 20
3.263920
  0
VERTEX
  8
0
  6
CONTINUOUS
 10
4.253920
 20
3.238400
  0
VERTEX
  8
0
  6
CONTINUOUS
 10
4.272840
 20
3.208920
  0
VERTEX
  8
0
  6
CONTINUOUS
 10
4.304080
 20
3.152160
  0
VERTEX
  8
0
  6
CONTINUOUS
 10
4.332240
 20
3.107280
  0
VERTEX
  8
0
  6
CONTINUOUS
 10
4.359960
 20
3.072080
  0
VERTEX
  8
0
  6
CONTINUOUS
 10
4.388560
 20
3.046120
  0
VERTEX
  8
0
  6
CONTINUOUS
 10
4.420680
 20
3.026760
  0
VERTEX
  8
0
  6
CONTINUOUS
 10
4.458080
 20
3.012680
  0
VERTEX
  8
0
  6
CONTINUOUS
 10
4.502960
 20
3.002560
  0
VERTEX
  8
0
  6
CONTINUOUS
 10
4.557080
 20
2.995080
  0
VERTEX
  8
0
  6
CONTINUOUS
 10
4.603720
 20
2.998600
  0
VERTEX
  8
0
  6
CONTINUOUS
 10
4.645520
 20
3.008280
  0
VERTEX
  8
0
  6
CONTINUOUS
 10
4.716800
 20
3.041280
  0
VERTEX
  8
0
  6
CONTINUOUS
 10
4.836480
 20
3.121800
  0
VERTEX
  8
0
  6
CONTINUOUS
 10
4.870360
 20
3.141160
  0
VERTEX
  8
0
  6
CONTINUOUS
 10
4.913480
 20
3.160960
  0
VERTEX
  8
0
  6
CONTINUOUS
 10
4.965840
 20
3.175920
  0
VERTEX
  8
0
  6
CONTINUOUS
 10
5.027880
 20
3.179880
  0
VERTEX
  8
0
  6
CONTINUOUS
 10
5.062640
 20
3.176360
  0
VERTEX
  8
0
  6
CONTINUOUS
 10
5.100040
 20
3.167560
  0
VERTEX
  8
0
  6
CONTINUOUS
 10
5.140520
 20
3.153040
  0
VERTEX
  8
0
  6
CONTINUOUS
 10
5.183200
 20
3.132360
  0
VERTEX
  8
0
  6
CONTINUOUS
 10
5.228960
 20
3.104640
  0
VERTEX
  8
0
  6
CONTINUOUS
 10
5.277360
 20
3.069440
  0
VERTEX
  8
0
  6
CONTINUOUS
 10
5.328400
 20
3.025440
  0
VERTEX
  8
0
  6
CONTINUOUS
 10
5.531680
 20
2.824800
  0
VERTEX
  8
0
  6
CONTINUOUS
 10
5.565120
 20
2.796200
  0
VERTEX
  8
0
  6
CONTINUOUS
 10
5.595480
 20
2.773320
  0
VERTEX
  8
0
  6
CONTINUOUS
 10
5.621880
 20
2.758800
  0
VERTEX
  8
0
  6
CONTINUOUS
 10
5.643440
 20
2.753960
  0
VERTEX
  8
0
  6
CONTINUOUS
 10
5.674240
 20
2.758800
  0
VERTEX
  8
0
  6
CONTINUOUS
 10
5.693160
 20
2.768480
  0
VERTEX
  8
0
  6
CONTINUOUS
 10
5.702840
 20
2.780360
  0
VERTEX
  8
0
  6
CONTINUOUS
 10
5.705920
 20
2.789600
  0
VERTEX
  8
0
  6
CONTINUOUS
 10
6.441600
 20
2.789600
  0
VERTEX
  8
0
  6
CONTINUOUS
 10
6.464040
 20
2.787400
  0
VERTEX
  8
0
  6
CONTINUOUS
 10
6.481640
 20
2.780360
  0
VERTEX
  8
0
  6
CONTINUOUS
 10
6.505400
 20
2.757040
  0
VERTEX
  8
0
  6
CONTINUOUS
 10
6.530920
 20
2.704240
  0
VERTEX
  8
0
  6
CONTINUOUS
 10
6.560400
 20
2.662880
  0
VERTEX
  8
0
  6
CONTINUOUS
 10
6.586360
 20
2.631640
  0
VERTEX
  8
0
  6
CONTINUOUS
 10
6.618480
 20
2.597760
  0
VERTEX
  8
0
  6
CONTINUOUS
 10
6.655440
 20
2.565200
  0
VERTEX
  8
0
  6
CONTINUOUS
 10
6.696360
 20
2.537480
  0
VERTEX
  8
0
  6
CONTINUOUS
 10
6.739480
 20
2.518560
  0
VERTEX
  8
0
  6
CONTINUOUS
 10
6.784360
 20
2.511080
  0
VERTEX
  8
0
  6
CONTINUOUS
 10
6.784360
 20
2.307360
  0
VERTEX
  8
0
  6
CONTINUOUS
 10
2.971320
 20
2.307360
  0
VERTEX
  8
0
  6
CONTINUOUS
 10
2.971320
 20
3.391960
  0
VERTEX
  8
0
  6
CONTINUOUS
 10
3.699960
 20
3.391960
  0
VERTEX
  8
0
  6
CONTINUOUS
 10
3.701280
 20
3.393720
  0
SEQEND
  8
0
  0
TEXT
  8
0
 10
4.585680
 20
2.052600
 40
0.138077
  1
BA  727
 41
1.000000
  7
SN0
 71
     0
 72
     5
 11
5.175288
 21
2.052600
  0
TEXT
  8
0
 10
4.263600
 20
1.860760
 40
0.138077
  1
1-1/8" x 3-13/16"
 41
1.000000
  7
SN0
 71
     0
 72
     5
 11
5.494563
 21
1.860760
  0
POLYLINE
  8
0
  6
CONTINUOUS
 66
     1
 40
0.014080
 41
0.014080
  0
VERTEX
  8
0
  6
CONTINUOUS
 10
3.681040
 20
1.714680
  0
VERTEX
  8
0
  6
CONTINUOUS
 10
3.682800
 20
1.679920
  0
VERTEX
  8
0
  6
CONTINUOUS
 10
3.688520
 20
1.646920
  0
VERTEX
  8
0
  6
CONTINUOUS
 10
3.698640
 20
1.617000
  0
VERTEX
  8
0
  6
CONTINUOUS
 10
3.714040
 20
1.589720
  0
VERTEX
  8
0
  6
CONTINUOUS
 10
3.734720
 20
1.566840
  0
VERTEX
  8
0
  6
CONTINUOUS
 10
3.747480
 20
1.556720
  0
VERTEX
  8
0
  6
CONTINUOUS
 10
3.777840
 20
1.540440
  0
VERTEX
  8
0
  6
CONTINUOUS
 10
3.795440
 20
1.534280
  0
VERTEX
  8
0
  6
CONTINUOUS
 10
3.815240
 20
1.529440
  0
VERTEX
  8
0
  6
CONTINUOUS
 10
3.836800
 20
1.525920
  0
VERTEX
  8
0
  6
CONTINUOUS
 10
3.848680
 20
1.554960
  0
VERTEX
  8
0
  6
CONTINUOUS
 10
3.856160
 20
1.568160
  0
VERTEX
  8
0
  6
CONTINUOUS
 10
3.874640
 20
1.591480
  0
VERTEX
  8
0
  6
CONTINUOUS
 10
3.897080
 20
1.610840
  0
VERTEX
  8
0
  6
CONTINUOUS
 10
3.923040
 20
1.627120
  0
VERTEX
  8
0
  6
CONTINUOUS
 10
3.951200
 20
1.639000
  0
VERTEX
  8
0
  6
CONTINUOUS
 10
3.981560
 20
1.647360
  0
VERTEX
  8
0
  6
CONTINUOUS
 10
4.013240
 20
1.651760
  0
VERTEX
  8
0
  6
CONTINUOUS
 10
4.045800
 20
1.652640
  0
VERTEX
  8
0
  6
CONTINUOUS
 10
4.078360
 20
1.649120
  0
VERTEX
  8
0
  6
CONTINUOUS
 10
4.110480
 20
1.641640
  0
VERTEX
  8
0
  6
CONTINUOUS
 10
4.141720
 20
1.630640
  0
VERTEX
  8
0
  6
CONTINUOUS
 10
4.171200
 20
1.615240
  0
VERTEX
  8
0
  6
CONTINUOUS
 10
4.198480
 20
1.595880
  0
VERTEX
  8
0
  6
CONTINUOUS
 10
4.211240
 20
1.584880
  0
VERTEX
  8
0
  6
CONTINUOUS
 10
4.233680
 20
1.559360
  0
VERTEX
  8
0
  6
CONTINUOUS
 10
4.243800
 20
1.545280
  0
VERTEX
  8
0
  6
CONTINUOUS
 10
4.298360
 20
1.449360
  0
VERTEX
  8
0
  6
CONTINUOUS
 10
4.326080
 20
1.409760
  0
VERTEX
  8
0
  6
CONTINUOUS
 10
4.353800
 20
1.379400
  0
VERTEX
  8
0
  6
CONTINUOUS
 10
4.368320
 20
1.367080
  0
VERTEX
  8
0
  6
CONTINUOUS
 10
4.383720
 20
1.356520
  0
VERTEX
  8
0
  6
CONTINUOUS
 10
4.418480
 20
1.340240
  0
VERTEX
  8
0
  6
CONTINUOUS
 10
4.437840
 20
1.333640
  0
VERTEX
  8
0
  6
CONTINUOUS
 10
4.482720
 20
1.323960
  0
VERTEX
  8
0
  6
CONTINUOUS
 10
4.537280
 20
1.316040
  0
VERTEX
  8
0
  6
CONTINUOUS
 10
4.561040
 20
1.316920
  0
VERTEX
  8
0
  6
CONTINUOUS
 10
4.583920
 20
1.319560
  0
VERTEX
  8
0
  6
CONTINUOUS
 10
4.625280
 20
1.329240
  0
VERTEX
  8
0
  6
CONTINUOUS
 10
4.662680
 20
1.344200
  0
VERTEX
  8
0
  6
CONTINUOUS
 10
4.696560
 20
1.362240
  0
VERTEX
  8
0
  6
CONTINUOUS
 10
4.728240
 20
1.382480
  0
VERTEX
  8
0
  6
CONTINUOUS
 10
4.801720
 20
1.433960
  0
VERTEX
  8
0
  6
CONTINUOUS
 10
4.850120
 20
1.462120
  0
VERTEX
  8
0
  6
CONTINUOUS
 10
4.893240
 20
1.482360
  0
VERTEX
  8
0
  6
CONTINUOUS
 10
4.931520
 20
1.494240
  0
VERTEX
  8
0
  6
CONTINUOUS
 10
4.960120
 20
1.499520
  0
VERTEX
  8
0
  6
CONTINUOUS
 10
4.991360
 20
1.501280
  0
VERTEX
  8
0
  6
CONTINUOUS
 10
5.024800
 20
1.499960
  0
VERTEX
  8
0
  6
CONTINUOUS
 10
5.061320
 20
1.493360
  0
VERTEX
  8
0
  6
CONTINUOUS
 10
5.100040
 20
1.481920
  0
VERTEX
  8
0
  6
CONTINUOUS
 10
5.141400
 20
1.464760
  0
VERTEX
  8
0
  6
CONTINUOUS
 10
5.185840
 20
1.440560
  0
VERTEX
  8
0
  6
CONTINUOUS
 10
5.232480
 20
1.408880
  0
VERTEX
  8
0
  6
CONTINUOUS
 10
5.282640
 20
1.369280
  0
VERTEX
  8
0
  6
CONTINUOUS
 10
5.335440
 20
1.320880
  0
VERTEX
  8
0
  6
CONTINUOUS
 10
5.493840
 20
1.162480
  0
VERTEX
  8
0
  6
CONTINUOUS
 10
5.544880
 20
1.117160
  0
VERTEX
  8
0
  6
CONTINUOUS
 10
5.575240
 20
1.094720
  0
VERTEX
  8
0
  6
CONTINUOUS
 10
5.601640
 20
1.080200
  0
VERTEX
  8
0
  6
CONTINUOUS
 10
5.618360
 20
1.075800
  0
VERTEX
  8
0
  6
CONTINUOUS
 10
5.640360
 20
1.076680
  0
VERTEX
  8
0
  6
CONTINUOUS
 10
5.660160
 20
1.081960
  0
VERTEX
  8
0
  6
CONTINUOUS
 10
5.673360
 20
1.089880
  0
VERTEX
  8
0
  6
CONTINUOUS
 10
5.683040
 20
1.101320
  0
VERTEX
  8
0
  6
CONTINUOUS
 10
5.685680
 20
1.111000
  0
VERTEX
  8
0
  6
CONTINUOUS
 10
6.421800
 20
1.111000
  0
VERTEX
  8
0
  6
CONTINUOUS
 10
6.444240
 20
1.108360
  0
VERTEX
  8
0
  6
CONTINUOUS
 10
6.461400
 20
1.101320
  0
VERTEX
  8
0
  6
CONTINUOUS
 10
6.475040
 20
1.091200
  0
VERTEX
  8
0
  6
CONTINUOUS
 10
6.485600
 20
1.078440
  0
VERTEX
  8
0
  6
CONTINUOUS
 10
6.499680
 20
1.050280
  0
VERTEX
  8
0
  6
CONTINUOUS
 10
6.515080
 20
1.019040
  0
VERTEX
  8
0
  6
CONTINUOUS
 10
6.540160
 20
0.983840
  0
VERTEX
  8
0
  6
CONTINUOUS
 10
6.581520
 20
0.935880
  0
VERTEX
  8
0
  6
CONTINUOUS
 10
6.616280
 20
0.902440
  0
VERTEX
  8
0
  6
CONTINUOUS
 10
6.655440
 20
0.871640
  0
VERTEX
  8
0
  6
CONTINUOUS
 10
6.676120
 20
0.858880
  0
VERTEX
  8
0
  6
CONTINUOUS
 10
6.708680
 20
0.843480
  0
VERTEX
  8
0
  6
CONTINUOUS
 10
6.730680
 20
0.836440
  0
VERTEX
  8
0
  6
CONTINUOUS
 10
6.753120
 20
0.832920
  0
VERTEX
  8
0
  6
CONTINUOUS
 10
6.764560
 20
0.832480
  0
VERTEX
  8
0
  6
CONTINUOUS
 10
6.764560
 20
0.628320
  0
VERTEX
  8
0
  6
CONTINUOUS
 10
2.951520
 20
0.628320
  0
VERTEX
  8
0
  6
CONTINUOUS
 10
2.951520
 20
1.713360
  0
VERTEX
  8
0
  6
CONTINUOUS
 10
3.679720
 20
1.713360
  0
VERTEX
  8
0
  6
CONTINUOUS
 10
3.681040
 20
1.714680
  0
SEQEND
  8
0
  0
ENDSEC
  0
EOF
