  0
SECTION
  2
HEADER
  9
$ACADVER
  1
AC1006
  9
$EXTMIN
 10
2.590720
 20
0.458920
  9
$EXTMAX
 10
7.911200
 20
9.712120
  9
$LTSCALE
 40
0.044000
  9
$PDMODE
 70
    35
  9
$PDSIZE
 40
0.035200
  0
ENDSEC
  0
SECTION
  2
TABLES
  0
TABLE
  2
LTYPE
 70
     9
  0
LTYPE
  2
CONTINUOUS
 70
    64
  3
Solid line
 72
    65
 73
     0
 40
0.000000
  0
LTYPE
  2
DASHED
 70
    64
  3
__ __ __ __ __ __ __ __ __ __ __ __ __ __ __
 72
    65
 73
     2
 40
0.000330
 49
0.000220
 49
-0.000110
  0
LTYPE
  2
HIDDEN
 70
    64
  3
 _ _ _ _ _ _ _ _ _ _ _ _ _ _ _ _ _ _ _ _ _ _
 72
    65
 73
     2
 40
0.000165
 49
0.000110
 49
-0.000055
  0
LTYPE
  2
CENTER
 70
    64
  3
____ _ ____ _ ____ _ ____ _ ____ _ ____ _ ____
 72
    65
 73
     4
 40
0.000880
 49
0.000550
 49
-0.000110
 49
0.000110
 49
-0.000110
  0
LTYPE
  2
PHANTOM
 70
    64
  3
_____ _ _ _____ _ _ _____ _ _ _____ _ _ ____
 72
    65
 73
     6
 40
0.001100
 49
0.000550
 49
-0.000110
 49
0.000110
 49
-0.000110
 49
0.000110
 49
-0.000110
  0
LTYPE
  2
DOT
 70
    64
  3
...............................................
 72
    65
 73
     2
 40
0.000110
 49
0.000000
 49
-0.000110
  0
LTYPE
  2
DASHDOT
 70
    64
  3
__ . __ . __ . __ . __ . __ . __ . __ . __ . __
 72
    65
 73
     4
 40
0.000440
 49
0.000220
 49
-0.000110
 49
0.000000
 49
-0.000110
  0
LTYPE
  2
BORDER
 70
    64
  3
__ __ . __ __ . __ __ . __ __ . __ __ . __ __
 72
    65
 73
     6
 40
0.000770
 49
0.000220
 49
-0.000110
 49
0.000220
 49
-0.000110
 49
0.000000
 49
-0.000110
  0
LTYPE
  2
DIVIDE
 70
    64
  3
__ . . __ . . __ . . __ . . __ . . __ . . __
 72
    65
 73
     6
 40
0.000550
 49
0.000220
 49
-0.000110
 49
0.000000
 49
-0.000110
 49
0.000000
 49
-0.000110
  0
LTYPE
  2
DOTDOT
 70
    64
  3
 . .  . .  . .  . .  . .  . . 
 72
    65
 73
     5
 40
0.000242
 49
-0.000110
 49
0.000000
 49
-0.000110
 49
0.000000
 49
-0.000110
  0
ENDTAB
  0
TABLE
  2
STYLE
 70
     2
  0
STYLE
 70
     0
  2
SN0
 40
0.000000
 41
0.000440
 50
0.000000
 71
     0
 42
0.000000
  3
ROMAND
  0
STYLE
 70
    68
  2
SV0
 40
0.000000
 41
0.000440
 50
0.000000
 71
     0
 42
0.000000
  3
ROMAND
  0
ENDTAB
  0
TABLE
  2
LAYER
 70
     3
  0
LAYER
  2
FOREGROUND
 70
    64
 62
     7
  6
CONTINUOUS
  0
LAYER
  2
BACKGROUND
 70
    65
 62
    -7
  6
CONTINUOUS
  0
LAYER
  2
0
 70
    64
 62
     7
  6
CONTINUOUS
  0
ENDTAB
  0
ENDSEC
  0
SECTION
  2
ENTITIES
  0
POLYLINE
  8
FOREGROUND
  6
CONTINUOUS
 66
     1
 40
0.000000
 41
0.000000
  0
VERTEX
  8
FOREGROUND
  6
CONTINUOUS
 10
0.000000
 20
10.171040
  0
VERTEX
  8
FOREGROUND
  6
CONTINUOUS
 10
8.499920
 20
10.171040
  0
VERTEX
  8
FOREGROUND
  6
CONTINUOUS
 10
8.499920
 20
-0.828960
  0
VERTEX
  8
FOREGROUND
  6
CONTINUOUS
 10
0.000000
 20
-0.828960
  0
VERTEX
  8
FOREGROUND
  6
CONTINUOUS
 10
0.000000
 20
10.171040
  0
SEQEND
  8
0
  0
POLYLINE
  8
FOREGROUND
  6
CONTINUOUS
 66
     1
 40
0.000000
 41
0.000000
  0
VERTEX
  8
FOREGROUND
  6
CONTINUOUS
 10
0.000000
 20
10.171040
  0
VERTEX
  8
FOREGROUND
  6
CONTINUOUS
 10
8.499920
 20
10.171040
  0
VERTEX
  8
FOREGROUND
  6
CONTINUOUS
 10
8.499920
 20
-0.828960
  0
VERTEX
  8
FOREGROUND
  6
CONTINUOUS
 10
0.000000
 20
-0.828960
  0
VERTEX
  8
FOREGROUND
  6
CONTINUOUS
 10
0.000000
 20
10.171040
  0
SEQEND
  8
0
  0
POLYLINE
  8
0
  6
CONTINUOUS
 66
     1
 40
0.014080
 41
0.014080
  0
VERTEX
  8
0
  6
CONTINUOUS
 10
4.048000
 20
8.530720
  0
VERTEX
  8
0
  6
CONTINUOUS
 10
4.154040
 20
8.530720
  0
VERTEX
  8
0
  6
CONTINUOUS
 10
4.203760
 20
8.532480
  0
VERTEX
  8
0
  6
CONTINUOUS
 10
4.247760
 20
8.536000
  0
VERTEX
  8
0
  6
CONTINUOUS
 10
4.286040
 20
8.541280
  0
VERTEX
  8
0
  6
CONTINUOUS
 10
4.334440
 20
8.552280
  0
VERTEX
  8
0
  6
CONTINUOUS
 10
4.372280
 20
8.565480
  0
VERTEX
  8
0
  6
CONTINUOUS
 10
4.401760
 20
8.580880
  0
VERTEX
  8
0
  6
CONTINUOUS
 10
4.422880
 20
8.598040
  0
VERTEX
  8
0
  6
CONTINUOUS
 10
4.437840
 20
8.616520
  0
VERTEX
  8
0
  6
CONTINUOUS
 10
4.444880
 20
8.628840
  0
VERTEX
  8
0
  6
CONTINUOUS
 10
4.449720
 20
8.641600
  0
VERTEX
  8
0
  6
CONTINUOUS
 10
4.454120
 20
8.666680
  0
VERTEX
  8
0
  6
CONTINUOUS
 10
4.455000
 20
8.678560
  0
VERTEX
  8
0
  6
CONTINUOUS
 10
4.506480
 20
8.678560
  0
VERTEX
  8
0
  6
CONTINUOUS
 10
4.528920
 20
8.708920
  0
VERTEX
  8
0
  6
CONTINUOUS
 10
4.542560
 20
8.722560
  0
VERTEX
  8
0
  6
CONTINUOUS
 10
4.566320
 20
8.739720
  0
VERTEX
  8
0
  6
CONTINUOUS
 10
4.594480
 20
8.752480
  0
VERTEX
  8
0
  6
CONTINUOUS
 10
4.616040
 20
8.757760
  0
VERTEX
  8
0
  6
CONTINUOUS
 10
4.638920
 20
8.759520
  0
VERTEX
  8
0
  6
CONTINUOUS
 10
4.664440
 20
8.757760
  0
VERTEX
  8
0
  6
CONTINUOUS
 10
4.691720
 20
8.752040
  0
VERTEX
  8
0
  6
CONTINUOUS
 10
4.721640
 20
8.741920
  0
VERTEX
  8
0
  6
CONTINUOUS
 10
4.753760
 20
8.727400
  0
VERTEX
  8
0
  6
CONTINUOUS
 10
4.806120
 20
8.695280
  0
VERTEX
  8
0
  6
CONTINUOUS
 10
4.864200
 20
8.649960
  0
VERTEX
  8
0
  6
CONTINUOUS
 10
5.075840
 20
8.451080
  0
VERTEX
  8
0
  6
CONTINUOUS
 10
5.133920
 20
8.401360
  0
VERTEX
  8
0
  6
CONTINUOUS
 10
5.180120
 20
8.368800
  0
VERTEX
  8
0
  6
CONTINUOUS
 10
5.211800
 20
8.352520
  0
VERTEX
  8
0
  6
CONTINUOUS
 10
5.241280
 20
8.344160
  0
VERTEX
  8
0
  6
CONTINUOUS
 10
5.256240
 20
8.341960
  0
VERTEX
  8
0
  6
CONTINUOUS
 10
5.285720
 20
8.341960
  0
VERTEX
  8
0
  6
CONTINUOUS
 10
5.310360
 20
8.345040
  0
VERTEX
  8
0
  6
CONTINUOUS
 10
5.329720
 20
8.350760
  0
VERTEX
  8
0
  6
CONTINUOUS
 10
5.344680
 20
8.358680
  0
VERTEX
  8
0
  6
CONTINUOUS
 10
5.360080
 20
8.373200
  0
VERTEX
  8
0
  6
CONTINUOUS
 10
5.366680
 20
8.384200
  0
VERTEX
  8
0
  6
CONTINUOUS
 10
5.375480
 20
8.407520
  0
VERTEX
  8
0
  6
CONTINUOUS
 10
5.497800
 20
8.407520
  0
VERTEX
  8
0
  6
CONTINUOUS
 10
5.497800
 20
8.328760
  0
VERTEX
  8
0
  6
CONTINUOUS
 10
5.528160
 20
8.328760
  0
VERTEX
  8
0
  6
CONTINUOUS
 10
5.529920
 20
8.345480
  0
VERTEX
  8
0
  6
CONTINUOUS
 10
5.538280
 20
8.367920
  0
VERTEX
  8
0
  6
CONTINUOUS
 10
5.552800
 20
8.386840
  0
VERTEX
  8
0
  6
CONTINUOUS
 10
5.572160
 20
8.400920
  0
VERTEX
  8
0
  6
CONTINUOUS
 10
5.587560
 20
8.407080
  0
VERTEX
  8
0
  6
CONTINUOUS
 10
5.603840
 20
8.410160
  0
VERTEX
  8
0
  6
CONTINUOUS
 10
5.621440
 20
8.410160
  0
VERTEX
  8
0
  6
CONTINUOUS
 10
5.637720
 20
8.407080
  0
VERTEX
  8
0
  6
CONTINUOUS
 10
5.653120
 20
8.400920
  0
VERTEX
  8
0
  6
CONTINUOUS
 10
5.672480
 20
8.386840
  0
VERTEX
  8
0
  6
CONTINUOUS
 10
5.687440
 20
8.367920
  0
VERTEX
  8
0
  6
CONTINUOUS
 10
5.695800
 20
8.345480
  0
VERTEX
  8
0
  6
CONTINUOUS
 10
5.697560
 20
8.328760
  0
VERTEX
  8
0
  6
CONTINUOUS
 10
5.715600
 20
8.328320
  0
VERTEX
  8
0
  6
CONTINUOUS
 10
5.717360
 20
8.344600
  0
VERTEX
  8
0
  6
CONTINUOUS
 10
5.725720
 20
8.367040
  0
VERTEX
  8
0
  6
CONTINUOUS
 10
5.740240
 20
8.385960
  0
VERTEX
  8
0
  6
CONTINUOUS
 10
5.759600
 20
8.400040
  0
VERTEX
  8
0
  6
CONTINUOUS
 10
5.775000
 20
8.406200
  0
VERTEX
  8
0
  6
CONTINUOUS
 10
5.791280
 20
8.409280
  0
VERTEX
  8
0
  6
CONTINUOUS
 10
5.808880
 20
8.409280
  0
VERTEX
  8
0
  6
CONTINUOUS
 10
5.825600
 20
8.406200
  0
VERTEX
  8
0
  6
CONTINUOUS
 10
5.840560
 20
8.400040
  0
VERTEX
  8
0
  6
CONTINUOUS
 10
5.860360
 20
8.385960
  0
VERTEX
  8
0
  6
CONTINUOUS
 10
5.874880
 20
8.367040
  0
VERTEX
  8
0
  6
CONTINUOUS
 10
5.883240
 20
8.344600
  0
VERTEX
  8
0
  6
CONTINUOUS
 10
5.885000
 20
8.328320
  0
VERTEX
  8
0
  6
CONTINUOUS
 10
5.910080
 20
8.328760
  0
VERTEX
  8
0
  6
CONTINUOUS
 10
5.910080
 20
8.328320
  0
VERTEX
  8
0
  6
CONTINUOUS
 10
5.911840
 20
8.344600
  0
VERTEX
  8
0
  6
CONTINUOUS
 10
5.920200
 20
8.367040
  0
VERTEX
  8
0
  6
CONTINUOUS
 10
5.934720
 20
8.385960
  0
VERTEX
  8
0
  6
CONTINUOUS
 10
5.954080
 20
8.400040
  0
VERTEX
  8
0
  6
CONTINUOUS
 10
5.969480
 20
8.406200
  0
VERTEX
  8
0
  6
CONTINUOUS
 10
5.985760
 20
8.409280
  0
VERTEX
  8
0
  6
CONTINUOUS
 10
6.003360
 20
8.409280
  0
VERTEX
  8
0
  6
CONTINUOUS
 10
6.019640
 20
8.406200
  0
VERTEX
  8
0
  6
CONTINUOUS
 10
6.035040
 20
8.400040
  0
VERTEX
  8
0
  6
CONTINUOUS
 10
6.054400
 20
8.385960
  0
VERTEX
  8
0
  6
CONTINUOUS
 10
6.068920
 20
8.367040
  0
VERTEX
  8
0
  6
CONTINUOUS
 10
6.077280
 20
8.344600
  0
VERTEX
  8
0
  6
CONTINUOUS
 10
6.079040
 20
8.328320
  0
VERTEX
  8
0
  6
CONTINUOUS
 10
6.114240
 20
8.328320
  0
VERTEX
  8
0
  6
CONTINUOUS
 10
6.114680
 20
8.316880
  0
VERTEX
  8
0
  6
CONTINUOUS
 10
6.119960
 20
8.292240
  0
VERTEX
  8
0
  6
CONTINUOUS
 10
6.130520
 20
8.267160
  0
VERTEX
  8
0
  6
CONTINUOUS
 10
6.146360
 20
8.242960
  0
VERTEX
  8
0
  6
CONTINUOUS
 10
6.167920
 20
8.220960
  0
VERTEX
  8
0
  6
CONTINUOUS
 10
6.194760
 20
8.202040
  0
VERTEX
  8
0
  6
CONTINUOUS
 10
6.227760
 20
8.188400
  0
VERTEX
  8
0
  6
CONTINUOUS
 10
6.246240
 20
8.183560
  0
VERTEX
  8
0
  6
CONTINUOUS
 10
6.266040
 20
8.180480
  0
VERTEX
  8
0
  6
CONTINUOUS
 10
6.287600
 20
8.179600
  0
VERTEX
  8
0
  6
CONTINUOUS
 10
6.287600
 20
8.060360
  0
VERTEX
  8
0
  6
CONTINUOUS
 10
3.088360
 20
8.060360
  0
VERTEX
  8
0
  6
CONTINUOUS
 10
3.088360
 20
8.682080
  0
VERTEX
  8
0
  6
CONTINUOUS
 10
3.726800
 20
8.682080
  0
VERTEX
  8
0
  6
CONTINUOUS
 10
3.725920
 20
8.679440
  0
VERTEX
  8
0
  6
CONTINUOUS
 10
3.728120
 20
8.654800
  0
VERTEX
  8
0
  6
CONTINUOUS
 10
3.736040
 20
8.629720
  0
VERTEX
  8
0
  6
CONTINUOUS
 10
3.747040
 20
8.610800
  0
VERTEX
  8
0
  6
CONTINUOUS
 10
3.764200
 20
8.592760
  0
VERTEX
  8
0
  6
CONTINUOUS
 10
3.787960
 20
8.576040
  0
VERTEX
  8
0
  6
CONTINUOUS
 10
3.820080
 20
8.561080
  0
VERTEX
  8
0
  6
CONTINUOUS
 10
3.861440
 20
8.548760
  0
VERTEX
  8
0
  6
CONTINUOUS
 10
3.894880
 20
8.541720
  0
VERTEX
  8
0
  6
CONTINUOUS
 10
3.933160
 20
8.536440
  0
VERTEX
  8
0
  6
CONTINUOUS
 10
4.000920
 20
8.531600
  0
VERTEX
  8
0
  6
CONTINUOUS
 10
4.053720
 20
8.530720
  0
VERTEX
  8
0
  6
CONTINUOUS
 10
4.048000
 20
8.530720
  0
SEQEND
  8
0
  0
POLYLINE
  8
0
  6
CONTINUOUS
 66
     1
 40
0.014080
 41
0.014080
  0
VERTEX
  8
0
  6
CONTINUOUS
 10
3.727240
 20
8.682520
  0
VERTEX
  8
0
  6
CONTINUOUS
 10
3.747920
 20
8.688680
  0
VERTEX
  8
0
  6
CONTINUOUS
 10
3.767280
 20
8.697920
  0
VERTEX
  8
0
  6
CONTINUOUS
 10
3.792360
 20
8.718160
  0
VERTEX
  8
0
  6
CONTINUOUS
 10
3.812160
 20
8.743680
  0
VERTEX
  8
0
  6
CONTINUOUS
 10
3.824920
 20
8.773160
  0
VERTEX
  8
0
  6
CONTINUOUS
 10
3.828880
 20
8.794280
  0
VERTEX
  8
0
  6
CONTINUOUS
 10
3.828880
 20
8.817600
  0
VERTEX
  8
0
  6
CONTINUOUS
 10
3.823600
 20
8.840920
  0
VERTEX
  8
0
  6
CONTINUOUS
 10
3.814360
 20
8.862480
  0
VERTEX
  8
0
  6
CONTINUOUS
 10
3.800720
 20
8.881840
  0
VERTEX
  8
0
  6
CONTINUOUS
 10
3.784000
 20
8.898120
  0
VERTEX
  8
0
  6
CONTINUOUS
 10
3.753200
 20
8.916160
  0
VERTEX
  8
0
  6
CONTINUOUS
 10
3.729440
 20
8.922760
  0
VERTEX
  8
0
  6
CONTINUOUS
 10
3.717120
 20
8.924960
  0
VERTEX
  8
0
  6
CONTINUOUS
 10
3.704360
 20
8.925400
  0
VERTEX
  8
0
  6
CONTINUOUS
 10
3.679280
 20
8.922760
  0
VERTEX
  8
0
  6
CONTINUOUS
 10
3.655960
 20
8.914840
  0
VERTEX
  8
0
  6
CONTINUOUS
 10
3.634840
 20
8.902520
  0
VERTEX
  8
0
  6
CONTINUOUS
 10
3.616360
 20
8.886680
  0
VERTEX
  8
0
  6
CONTINUOUS
 10
3.601400
 20
8.867320
  0
VERTEX
  8
0
  6
CONTINUOUS
 10
3.590400
 20
8.845760
  0
VERTEX
  8
0
  6
CONTINUOUS
 10
3.583800
 20
8.822000
  0
VERTEX
  8
0
  6
CONTINUOUS
 10
3.582480
 20
8.796920
  0
VERTEX
  8
0
  6
CONTINUOUS
 10
3.538040
 20
8.797360
  0
VERTEX
  8
0
  6
CONTINUOUS
 10
3.479960
 20
8.803080
  0
VERTEX
  8
0
  6
CONTINUOUS
 10
3.430240
 20
8.812320
  0
VERTEX
  8
0
  6
CONTINUOUS
 10
3.388000
 20
8.825520
  0
VERTEX
  8
0
  6
CONTINUOUS
 10
3.352800
 20
8.841800
  0
VERTEX
  8
0
  6
CONTINUOUS
 10
3.324200
 20
8.860720
  0
VERTEX
  8
0
  6
CONTINUOUS
 10
3.301320
 20
8.881840
  0
VERTEX
  8
0
  6
CONTINUOUS
 10
3.279320
 20
8.912640
  0
VERTEX
  8
0
  6
CONTINUOUS
 10
3.265680
 20
8.945200
  0
VERTEX
  8
0
  6
CONTINUOUS
 10
3.259080
 20
8.978200
  0
VERTEX
  8
0
  6
CONTINUOUS
 10
2.753520
 20
8.978200
  0
VERTEX
  8
0
  6
CONTINUOUS
 10
2.738120
 20
8.976880
  0
VERTEX
  8
0
  6
CONTINUOUS
 10
2.726680
 20
8.970280
  0
VERTEX
  8
0
  6
CONTINUOUS
 10
2.722720
 20
8.959280
  0
VERTEX
  8
0
  6
CONTINUOUS
 10
2.721840
 20
8.947400
  0
VERTEX
  8
0
  6
CONTINUOUS
 10
2.721840
 20
8.060360
  0
VERTEX
  8
0
  6
CONTINUOUS
 10
3.087480
 20
8.060360
  0
VERTEX
  8
0
  6
CONTINUOUS
 10
3.087480
 20
8.682960
  0
VERTEX
  8
0
  6
CONTINUOUS
 10
3.727240
 20
8.682520
  0
SEQEND
  8
0
  0
TEXT
  8
0
 10
3.604480
 20
5.430480
 40
0.138263
  1
BA  726A 5/8" x 3-3/16"
 41
1.000000
  7
SN0
 71
     0
 72
     5
 11
5.351484
 21
5.430480
  0
TEXT
  8
0
 10
3.604480
 20
5.238640
 40
0.138263
  1
BA  726B 15/16" x 1-1/8"
 41
1.000000
  7
SN0
 71
     0
 72
     5
 11
5.444016
 21
5.238640
  0
SOLID
  8
0
 62
    15
 10
5.884560
 20
5.987960
 11
5.885000
 21
6.742560
 12
5.902600
 22
5.987960
 13
5.903480
 23
6.742560
  0
POLYLINE
  8
0
  6
CONTINUOUS
 66
     1
 40
0.000000
 41
0.000000
  0
VERTEX
  8
0
  6
CONTINUOUS
 10
5.884560
 20
5.987960
  0
VERTEX
  8
0
  6
CONTINUOUS
 10
5.885000
 20
6.742560
  0
VERTEX
  8
0
  6
CONTINUOUS
 10
5.903480
 20
6.742560
  0
VERTEX
  8
0
  6
CONTINUOUS
 10
5.902600
 20
5.987960
  0
VERTEX
  8
0
  6
CONTINUOUS
 10
5.884560
 20
5.987960
  0
SEQEND
  8
0
  0
SOLID
  8
0
 62
    15
 10
4.126760
 20
6.189920
 11
4.127640
 21
6.944080
 12
4.179560
 22
6.190800
 13
4.180000
 23
6.945400
  0
POLYLINE
  8
0
  6
CONTINUOUS
 66
     1
 40
0.000000
 41
0.000000
  0
VERTEX
  8
0
  6
CONTINUOUS
 10
4.126760
 20
6.189920
  0
VERTEX
  8
0
  6
CONTINUOUS
 10
4.127640
 20
6.944080
  0
VERTEX
  8
0
  6
CONTINUOUS
 10
4.180000
 20
6.945400
  0
VERTEX
  8
0
  6
CONTINUOUS
 10
4.179560
 20
6.190800
  0
VERTEX
  8
0
  6
CONTINUOUS
 10
4.126760
 20
6.189920
  0
SEQEND
  8
0
  0
SOLID
  8
0
 62
    15
 10
4.179560
 20
6.190800
 11
4.180000
 21
6.945400
 12
4.226200
 22
6.193880
 13
4.226640
 23
6.948040
  0
POLYLINE
  8
0
  6
CONTINUOUS
 66
     1
 40
0.000000
 41
0.000000
  0
VERTEX
  8
0
  6
CONTINUOUS
 10
4.179560
 20
6.190800
  0
VERTEX
  8
0
  6
CONTINUOUS
 10
4.180000
 20
6.945400
  0
VERTEX
  8
0
  6
CONTINUOUS
 10
4.226640
 20
6.948040
  0
VERTEX
  8
0
  6
CONTINUOUS
 10
4.226200
 20
6.193880
  0
VERTEX
  8
0
  6
CONTINUOUS
 10
4.179560
 20
6.190800
  0
SEQEND
  8
0
  0
SOLID
  8
0
 62
    15
 10
4.226200
 20
6.193880
 11
4.226640
 21
6.948040
 12
4.267120
 22
6.198280
 13
4.268000
 23
6.952440
  0
POLYLINE
  8
0
  6
CONTINUOUS
 66
     1
 40
0.000000
 41
0.000000
  0
VERTEX
  8
0
  6
CONTINUOUS
 10
4.226200
 20
6.193880
  0
VERTEX
  8
0
  6
CONTINUOUS
 10
4.226640
 20
6.948040
  0
VERTEX
  8
0
  6
CONTINUOUS
 10
4.268000
 20
6.952440
  0
VERTEX
  8
0
  6
CONTINUOUS
 10
4.267120
 20
6.198280
  0
VERTEX
  8
0
  6
CONTINUOUS
 10
4.226200
 20
6.193880
  0
SEQEND
  8
0
  0
SOLID
  8
0
 62
    15
 10
4.267120
 20
6.198280
 11
4.268000
 21
6.952440
 12
4.303200
 22
6.204440
 13
4.303640
 23
6.958600
  0
POLYLINE
  8
0
  6
CONTINUOUS
 66
     1
 40
0.000000
 41
0.000000
  0
VERTEX
  8
0
  6
CONTINUOUS
 10
4.267120
 20
6.198280
  0
VERTEX
  8
0
  6
CONTINUOUS
 10
4.268000
 20
6.952440
  0
VERTEX
  8
0
  6
CONTINUOUS
 10
4.303640
 20
6.958600
  0
VERTEX
  8
0
  6
CONTINUOUS
 10
4.303200
 20
6.204440
  0
VERTEX
  8
0
  6
CONTINUOUS
 10
4.267120
 20
6.198280
  0
SEQEND
  8
0
  0
SOLID
  8
0
 62
    15
 10
4.303200
 20
6.204440
 11
4.303640
 21
6.958600
 12
4.334000
 22
6.211920
 13
4.334880
 23
6.966080
  0
POLYLINE
  8
0
  6
CONTINUOUS
 66
     1
 40
0.000000
 41
0.000000
  0
VERTEX
  8
0
  6
CONTINUOUS
 10
4.303200
 20
6.204440
  0
VERTEX
  8
0
  6
CONTINUOUS
 10
4.303640
 20
6.958600
  0
VERTEX
  8
0
  6
CONTINUOUS
 10
4.334880
 20
6.966080
  0
VERTEX
  8
0
  6
CONTINUOUS
 10
4.334000
 20
6.211920
  0
VERTEX
  8
0
  6
CONTINUOUS
 10
4.303200
 20
6.204440
  0
SEQEND
  8
0
  0
SOLID
  8
0
 62
    15
 10
4.334000
 20
6.211920
 11
4.334880
 21
6.966080
 12
4.360400
 22
6.220280
 13
4.361280
 23
6.974880
  0
POLYLINE
  8
0
  6
CONTINUOUS
 66
     1
 40
0.000000
 41
0.000000
  0
VERTEX
  8
0
  6
CONTINUOUS
 10
4.334000
 20
6.211920
  0
VERTEX
  8
0
  6
CONTINUOUS
 10
4.334880
 20
6.966080
  0
VERTEX
  8
0
  6
CONTINUOUS
 10
4.361280
 20
6.974880
  0
VERTEX
  8
0
  6
CONTINUOUS
 10
4.360400
 20
6.220280
  0
VERTEX
  8
0
  6
CONTINUOUS
 10
4.334000
 20
6.211920
  0
SEQEND
  8
0
  0
SOLID
  8
0
 62
    15
 10
4.360400
 20
6.220280
 11
4.361280
 21
6.974880
 12
4.401320
 22
6.240520
 13
4.402200
 23
6.995120
  0
POLYLINE
  8
0
  6
CONTINUOUS
 66
     1
 40
0.000000
 41
0.000000
  0
VERTEX
  8
0
  6
CONTINUOUS
 10
4.360400
 20
6.220280
  0
VERTEX
  8
0
  6
CONTINUOUS
 10
4.361280
 20
6.974880
  0
VERTEX
  8
0
  6
CONTINUOUS
 10
4.402200
 20
6.995120
  0
VERTEX
  8
0
  6
CONTINUOUS
 10
4.401320
 20
6.240520
  0
VERTEX
  8
0
  6
CONTINUOUS
 10
4.360400
 20
6.220280
  0
SEQEND
  8
0
  0
SOLID
  8
0
 62
    15
 10
4.401320
 20
6.240520
 11
4.402200
 21
6.995120
 12
4.428160
 22
6.263840
 13
4.429040
 23
7.018000
  0
POLYLINE
  8
0
  6
CONTINUOUS
 66
     1
 40
0.000000
 41
0.000000
  0
VERTEX
  8
0
  6
CONTINUOUS
 10
4.401320
 20
6.240520
  0
VERTEX
  8
0
  6
CONTINUOUS
 10
4.402200
 20
6.995120
  0
VERTEX
  8
0
  6
CONTINUOUS
 10
4.429040
 20
7.018000
  0
VERTEX
  8
0
  6
CONTINUOUS
 10
4.428160
 20
6.263840
  0
VERTEX
  8
0
  6
CONTINUOUS
 10
4.401320
 20
6.240520
  0
SEQEND
  8
0
  0
SOLID
  8
0
 62
    15
 10
4.428160
 20
6.263840
 11
4.429040
 21
7.018000
 12
4.444440
 22
6.288920
 13
4.444880
 23
7.043080
  0
POLYLINE
  8
0
  6
CONTINUOUS
 66
     1
 40
0.000000
 41
0.000000
  0
VERTEX
  8
0
  6
CONTINUOUS
 10
4.428160
 20
6.263840
  0
VERTEX
  8
0
  6
CONTINUOUS
 10
4.429040
 20
7.018000
  0
VERTEX
  8
0
  6
CONTINUOUS
 10
4.444880
 20
7.043080
  0
VERTEX
  8
0
  6
CONTINUOUS
 10
4.444440
 20
6.288920
  0
VERTEX
  8
0
  6
CONTINUOUS
 10
4.428160
 20
6.263840
  0
SEQEND
  8
0
  0
SOLID
  8
0
 62
    15
 10
4.444440
 20
6.288920
 11
4.444880
 21
7.043080
 12
4.451920
 22
6.314000
 13
4.452800
 23
7.068600
  0
POLYLINE
  8
0
  6
CONTINUOUS
 66
     1
 40
0.000000
 41
0.000000
  0
VERTEX
  8
0
  6
CONTINUOUS
 10
4.444440
 20
6.288920
  0
VERTEX
  8
0
  6
CONTINUOUS
 10
4.444880
 20
7.043080
  0
VERTEX
  8
0
  6
CONTINUOUS
 10
4.452800
 20
7.068600
  0
VERTEX
  8
0
  6
CONTINUOUS
 10
4.451920
 20
6.314000
  0
VERTEX
  8
0
  6
CONTINUOUS
 10
4.444440
 20
6.288920
  0
SEQEND
  8
0
  0
SOLID
  8
0
 62
    15
 10
4.451920
 20
6.314000
 11
4.452800
 21
7.068600
 12
4.454560
 22
6.338640
 13
4.455440
 23
7.092800
  0
POLYLINE
  8
0
  6
CONTINUOUS
 66
     1
 40
0.000000
 41
0.000000
  0
VERTEX
  8
0
  6
CONTINUOUS
 10
4.451920
 20
6.314000
  0
VERTEX
  8
0
  6
CONTINUOUS
 10
4.452800
 20
7.068600
  0
VERTEX
  8
0
  6
CONTINUOUS
 10
4.455440
 20
7.092800
  0
VERTEX
  8
0
  6
CONTINUOUS
 10
4.454560
 20
6.338640
  0
VERTEX
  8
0
  6
CONTINUOUS
 10
4.451920
 20
6.314000
  0
SEQEND
  8
0
  0
SOLID
  8
0
 62
    15
 10
4.454560
 20
6.338640
 11
4.455440
 21
7.092800
 12
4.506040
 22
6.338640
 13
4.506920
 23
7.092800
  0
POLYLINE
  8
0
  6
CONTINUOUS
 66
     1
 40
0.000000
 41
0.000000
  0
VERTEX
  8
0
  6
CONTINUOUS
 10
4.454560
 20
6.338640
  0
VERTEX
  8
0
  6
CONTINUOUS
 10
4.455440
 20
7.092800
  0
VERTEX
  8
0
  6
CONTINUOUS
 10
4.506920
 20
7.092800
  0
VERTEX
  8
0
  6
CONTINUOUS
 10
4.506040
 20
6.338640
  0
VERTEX
  8
0
  6
CONTINUOUS
 10
4.454560
 20
6.338640
  0
SEQEND
  8
0
  0
SOLID
  8
0
 62
    15
 10
4.506040
 20
6.338640
 11
4.506920
 21
7.092800
 12
4.528480
 22
6.368560
 13
4.529360
 23
7.122720
  0
POLYLINE
  8
0
  6
CONTINUOUS
 66
     1
 40
0.000000
 41
0.000000
  0
VERTEX
  8
0
  6
CONTINUOUS
 10
4.506040
 20
6.338640
  0
VERTEX
  8
0
  6
CONTINUOUS
 10
4.506920
 20
7.092800
  0
VERTEX
  8
0
  6
CONTINUOUS
 10
4.529360
 20
7.122720
  0
VERTEX
  8
0
  6
CONTINUOUS
 10
4.528480
 20
6.368560
  0
VERTEX
  8
0
  6
CONTINUOUS
 10
4.506040
 20
6.338640
  0
SEQEND
  8
0
  0
SOLID
  8
0
 62
    15
 10
4.528480
 20
6.368560
 11
4.529360
 21
7.122720
 12
4.557960
 22
6.394080
 13
4.558400
 23
7.148680
  0
POLYLINE
  8
0
  6
CONTINUOUS
 66
     1
 40
0.000000
 41
0.000000
  0
VERTEX
  8
0
  6
CONTINUOUS
 10
4.528480
 20
6.368560
  0
VERTEX
  8
0
  6
CONTINUOUS
 10
4.529360
 20
7.122720
  0
VERTEX
  8
0
  6
CONTINUOUS
 10
4.558400
 20
7.148680
  0
VERTEX
  8
0
  6
CONTINUOUS
 10
4.557960
 20
6.394080
  0
VERTEX
  8
0
  6
CONTINUOUS
 10
4.528480
 20
6.368560
  0
SEQEND
  8
0
  0
SOLID
  8
0
 62
    15
 10
4.557960
 20
6.394080
 11
4.558400
 21
7.148680
 12
4.594480
 22
6.412120
 13
4.594920
 23
7.166720
  0
POLYLINE
  8
0
  6
CONTINUOUS
 66
     1
 40
0.000000
 41
0.000000
  0
VERTEX
  8
0
  6
CONTINUOUS
 10
4.557960
 20
6.394080
  0
VERTEX
  8
0
  6
CONTINUOUS
 10
4.558400
 20
7.148680
  0
VERTEX
  8
0
  6
CONTINUOUS
 10
4.594920
 20
7.166720
  0
VERTEX
  8
0
  6
CONTINUOUS
 10
4.594480
 20
6.412120
  0
VERTEX
  8
0
  6
CONTINUOUS
 10
4.557960
 20
6.394080
  0
SEQEND
  8
0
  0
SOLID
  8
0
 62
    15
 10
4.594480
 20
6.412120
 11
4.594920
 21
7.166720
 12
4.638920
 22
6.419160
 13
4.639360
 23
7.173320
  0
POLYLINE
  8
0
  6
CONTINUOUS
 66
     1
 40
0.000000
 41
0.000000
  0
VERTEX
  8
0
  6
CONTINUOUS
 10
4.594480
 20
6.412120
  0
VERTEX
  8
0
  6
CONTINUOUS
 10
4.594920
 20
7.166720
  0
VERTEX
  8
0
  6
CONTINUOUS
 10
4.639360
 20
7.173320
  0
VERTEX
  8
0
  6
CONTINUOUS
 10
4.638920
 20
6.419160
  0
VERTEX
  8
0
  6
CONTINUOUS
 10
4.594480
 20
6.412120
  0
SEQEND
  8
0
  0
SOLID
  8
0
 62
    15
 10
4.638920
 20
6.419160
 11
4.639360
 21
7.173320
 12
4.664000
 22
6.417400
 13
4.664880
 23
7.172000
  0
POLYLINE
  8
0
  6
CONTINUOUS
 66
     1
 40
0.000000
 41
0.000000
  0
VERTEX
  8
0
  6
CONTINUOUS
 10
4.638920
 20
6.419160
  0
VERTEX
  8
0
  6
CONTINUOUS
 10
4.639360
 20
7.173320
  0
VERTEX
  8
0
  6
CONTINUOUS
 10
4.664880
 20
7.172000
  0
VERTEX
  8
0
  6
CONTINUOUS
 10
4.664000
 20
6.417400
  0
VERTEX
  8
0
  6
CONTINUOUS
 10
4.638920
 20
6.419160
  0
SEQEND
  8
0
  0
SOLID
  8
0
 62
    15
 10
4.664000
 20
6.417400
 11
4.664880
 21
7.172000
 12
4.691720
 22
6.411680
 13
4.692160
 23
7.166280
  0
POLYLINE
  8
0
  6
CONTINUOUS
 66
     1
 40
0.000000
 41
0.000000
  0
VERTEX
  8
0
  6
CONTINUOUS
 10
4.664000
 20
6.417400
  0
VERTEX
  8
0
  6
CONTINUOUS
 10
4.664880
 20
7.172000
  0
VERTEX
  8
0
  6
CONTINUOUS
 10
4.692160
 20
7.166280
  0
VERTEX
  8
0
  6
CONTINUOUS
 10
4.691720
 20
6.411680
  0
VERTEX
  8
0
  6
CONTINUOUS
 10
4.664000
 20
6.417400
  0
SEQEND
  8
0
  0
SOLID
  8
0
 62
    15
 10
4.691720
 20
6.411680
 11
4.692160
 21
7.166280
 12
4.721200
 22
6.401560
 13
4.722080
 23
7.156160
  0
POLYLINE
  8
0
  6
CONTINUOUS
 66
     1
 40
0.000000
 41
0.000000
  0
VERTEX
  8
0
  6
CONTINUOUS
 10
4.691720
 20
6.411680
  0
VERTEX
  8
0
  6
CONTINUOUS
 10
4.692160
 20
7.166280
  0
VERTEX
  8
0
  6
CONTINUOUS
 10
4.722080
 20
7.156160
  0
VERTEX
  8
0
  6
CONTINUOUS
 10
4.721200
 20
6.401560
  0
VERTEX
  8
0
  6
CONTINUOUS
 10
4.691720
 20
6.411680
  0
SEQEND
  8
0
  0
SOLID
  8
0
 62
    15
 10
4.721200
 20
6.401560
 11
4.722080
 21
7.156160
 12
4.753320
 22
6.387040
 13
4.753760
 23
7.141200
  0
POLYLINE
  8
0
  6
CONTINUOUS
 66
     1
 40
0.000000
 41
0.000000
  0
VERTEX
  8
0
  6
CONTINUOUS
 10
4.721200
 20
6.401560
  0
VERTEX
  8
0
  6
CONTINUOUS
 10
4.722080
 20
7.156160
  0
VERTEX
  8
0
  6
CONTINUOUS
 10
4.753760
 20
7.141200
  0
VERTEX
  8
0
  6
CONTINUOUS
 10
4.753320
 20
6.387040
  0
VERTEX
  8
0
  6
CONTINUOUS
 10
4.721200
 20
6.401560
  0
SEQEND
  8
0
  0
SOLID
  8
0
 62
    15
 10
4.753320
 20
6.387040
 11
4.753760
 21
7.141200
 12
4.787640
 22
6.366800
 13
4.788080
 23
7.121400
  0
POLYLINE
  8
0
  6
CONTINUOUS
 66
     1
 40
0.000000
 41
0.000000
  0
VERTEX
  8
0
  6
CONTINUOUS
 10
4.753320
 20
6.387040
  0
VERTEX
  8
0
  6
CONTINUOUS
 10
4.753760
 20
7.141200
  0
VERTEX
  8
0
  6
CONTINUOUS
 10
4.788080
 20
7.121400
  0
VERTEX
  8
0
  6
CONTINUOUS
 10
4.787640
 20
6.366800
  0
VERTEX
  8
0
  6
CONTINUOUS
 10
4.753320
 20
6.387040
  0
SEQEND
  8
0
  0
SOLID
  8
0
 62
    15
 10
4.787640
 20
6.366800
 11
4.788080
 21
7.121400
 12
4.824160
 22
6.341280
 13
4.825040
 23
7.095440
  0
POLYLINE
  8
0
  6
CONTINUOUS
 66
     1
 40
0.000000
 41
0.000000
  0
VERTEX
  8
0
  6
CONTINUOUS
 10
4.787640
 20
6.366800
  0
VERTEX
  8
0
  6
CONTINUOUS
 10
4.788080
 20
7.121400
  0
VERTEX
  8
0
  6
CONTINUOUS
 10
4.825040
 20
7.095440
  0
VERTEX
  8
0
  6
CONTINUOUS
 10
4.824160
 20
6.341280
  0
VERTEX
  8
0
  6
CONTINUOUS
 10
4.787640
 20
6.366800
  0
SEQEND
  8
0
  0
SOLID
  8
0
 62
    15
 10
4.824160
 20
6.341280
 11
4.825040
 21
7.095440
 12
4.863760
 22
6.309600
 13
4.864200
 23
7.063760
  0
POLYLINE
  8
0
  6
CONTINUOUS
 66
     1
 40
0.000000
 41
0.000000
  0
VERTEX
  8
0
  6
CONTINUOUS
 10
4.824160
 20
6.341280
  0
VERTEX
  8
0
  6
CONTINUOUS
 10
4.825040
 20
7.095440
  0
VERTEX
  8
0
  6
CONTINUOUS
 10
4.864200
 20
7.063760
  0
VERTEX
  8
0
  6
CONTINUOUS
 10
4.863760
 20
6.309600
  0
VERTEX
  8
0
  6
CONTINUOUS
 10
4.824160
 20
6.341280
  0
SEQEND
  8
0
  0
SOLID
  8
0
 62
    15
 10
4.863760
 20
6.309600
 11
4.864200
 21
7.063760
 12
4.905560
 22
6.271320
 13
4.906000
 23
7.025480
  0
POLYLINE
  8
0
  6
CONTINUOUS
 66
     1
 40
0.000000
 41
0.000000
  0
VERTEX
  8
0
  6
CONTINUOUS
 10
4.863760
 20
6.309600
  0
VERTEX
  8
0
  6
CONTINUOUS
 10
4.864200
 20
7.063760
  0
VERTEX
  8
0
  6
CONTINUOUS
 10
4.906000
 20
7.025480
  0
VERTEX
  8
0
  6
CONTINUOUS
 10
4.905560
 20
6.271320
  0
VERTEX
  8
0
  6
CONTINUOUS
 10
4.863760
 20
6.309600
  0
SEQEND
  8
0
  0
SOLID
  8
0
 62
    15
 10
4.905560
 20
6.271320
 11
4.906000
 21
7.025480
 12
4.946480
 22
6.231720
 13
4.947360
 23
6.986320
  0
POLYLINE
  8
0
  6
CONTINUOUS
 66
     1
 40
0.000000
 41
0.000000
  0
VERTEX
  8
0
  6
CONTINUOUS
 10
4.905560
 20
6.271320
  0
VERTEX
  8
0
  6
CONTINUOUS
 10
4.906000
 20
7.025480
  0
VERTEX
  8
0
  6
CONTINUOUS
 10
4.947360
 20
6.986320
  0
VERTEX
  8
0
  6
CONTINUOUS
 10
4.946480
 20
6.231720
  0
VERTEX
  8
0
  6
CONTINUOUS
 10
4.905560
 20
6.271320
  0
SEQEND
  8
0
  0
SOLID
  8
0
 62
    15
 10
4.946480
 20
6.231720
 11
4.947360
 21
6.986320
 12
4.983880
 22
6.196080
 13
4.984320
 23
6.950680
  0
POLYLINE
  8
0
  6
CONTINUOUS
 66
     1
 40
0.000000
 41
0.000000
  0
VERTEX
  8
0
  6
CONTINUOUS
 10
4.946480
 20
6.231720
  0
VERTEX
  8
0
  6
CONTINUOUS
 10
4.947360
 20
6.986320
  0
VERTEX
  8
0
  6
CONTINUOUS
 10
4.984320
 20
6.950680
  0
VERTEX
  8
0
  6
CONTINUOUS
 10
4.983880
 20
6.196080
  0
VERTEX
  8
0
  6
CONTINUOUS
 10
4.946480
 20
6.231720
  0
SEQEND
  8
0
  0
SOLID
  8
0
 62
    15
 10
4.983880
 20
6.196080
 11
4.984320
 21
6.950680
 12
5.017320
 22
6.164400
 13
5.018200
 23
6.918560
  0
POLYLINE
  8
0
  6
CONTINUOUS
 66
     1
 40
0.000000
 41
0.000000
  0
VERTEX
  8
0
  6
CONTINUOUS
 10
4.983880
 20
6.196080
  0
VERTEX
  8
0
  6
CONTINUOUS
 10
4.984320
 20
6.950680
  0
VERTEX
  8
0
  6
CONTINUOUS
 10
5.018200
 20
6.918560
  0
VERTEX
  8
0
  6
CONTINUOUS
 10
5.017320
 20
6.164400
  0
VERTEX
  8
0
  6
CONTINUOUS
 10
4.983880
 20
6.196080
  0
SEQEND
  8
0
  0
SOLID
  8
0
 62
    15
 10
5.017320
 20
6.164400
 11
5.018200
 21
6.918560
 12
5.048120
 22
6.135800
 13
5.048560
 23
6.889960
  0
POLYLINE
  8
0
  6
CONTINUOUS
 66
     1
 40
0.000000
 41
0.000000
  0
VERTEX
  8
0
  6
CONTINUOUS
 10
5.017320
 20
6.164400
  0
VERTEX
  8
0
  6
CONTINUOUS
 10
5.018200
 20
6.918560
  0
VERTEX
  8
0
  6
CONTINUOUS
 10
5.048560
 20
6.889960
  0
VERTEX
  8
0
  6
CONTINUOUS
 10
5.048120
 20
6.135800
  0
VERTEX
  8
0
  6
CONTINUOUS
 10
5.017320
 20
6.164400
  0
SEQEND
  8
0
  0
SOLID
  8
0
 62
    15
 10
5.048120
 20
6.135800
 11
5.048560
 21
6.889960
 12
5.100480
 22
6.088720
 13
5.101360
 23
6.842880
  0
POLYLINE
  8
0
  6
CONTINUOUS
 66
     1
 40
0.000000
 41
0.000000
  0
VERTEX
  8
0
  6
CONTINUOUS
 10
5.048120
 20
6.135800
  0
VERTEX
  8
0
  6
CONTINUOUS
 10
5.048560
 20
6.889960
  0
VERTEX
  8
0
  6
CONTINUOUS
 10
5.101360
 20
6.842880
  0
VERTEX
  8
0
  6
CONTINUOUS
 10
5.100480
 20
6.088720
  0
VERTEX
  8
0
  6
CONTINUOUS
 10
5.048120
 20
6.135800
  0
SEQEND
  8
0
  0
SOLID
  8
0
 62
    15
 10
5.100480
 20
6.088720
 11
5.101360
 21
6.842880
 12
5.143600
 22
6.053080
 13
5.144480
 23
6.807680
  0
POLYLINE
  8
0
  6
CONTINUOUS
 66
     1
 40
0.000000
 41
0.000000
  0
VERTEX
  8
0
  6
CONTINUOUS
 10
5.100480
 20
6.088720
  0
VERTEX
  8
0
  6
CONTINUOUS
 10
5.101360
 20
6.842880
  0
VERTEX
  8
0
  6
CONTINUOUS
 10
5.144480
 20
6.807680
  0
VERTEX
  8
0
  6
CONTINUOUS
 10
5.143600
 20
6.053080
  0
VERTEX
  8
0
  6
CONTINUOUS
 10
5.100480
 20
6.088720
  0
SEQEND
  8
0
  0
SOLID
  8
0
 62
    15
 10
5.143600
 20
6.053080
 11
5.144480
 21
6.807680
 12
5.179680
 22
6.028440
 13
5.180560
 23
6.782600
  0
POLYLINE
  8
0
  6
CONTINUOUS
 66
     1
 40
0.000000
 41
0.000000
  0
VERTEX
  8
0
  6
CONTINUOUS
 10
5.143600
 20
6.053080
  0
VERTEX
  8
0
  6
CONTINUOUS
 10
5.144480
 20
6.807680
  0
VERTEX
  8
0
  6
CONTINUOUS
 10
5.180560
 20
6.782600
  0
VERTEX
  8
0
  6
CONTINUOUS
 10
5.179680
 20
6.028440
  0
VERTEX
  8
0
  6
CONTINUOUS
 10
5.143600
 20
6.053080
  0
SEQEND
  8
0
  0
SOLID
  8
0
 62
    15
 10
5.179680
 20
6.028440
 11
5.180560
 21
6.782600
 12
5.211360
 22
6.012160
 13
5.212240
 23
6.766760
  0
POLYLINE
  8
0
  6
CONTINUOUS
 66
     1
 40
0.000000
 41
0.000000
  0
VERTEX
  8
0
  6
CONTINUOUS
 10
5.179680
 20
6.028440
  0
VERTEX
  8
0
  6
CONTINUOUS
 10
5.180560
 20
6.782600
  0
VERTEX
  8
0
  6
CONTINUOUS
 10
5.212240
 20
6.766760
  0
VERTEX
  8
0
  6
CONTINUOUS
 10
5.211360
 20
6.012160
  0
VERTEX
  8
0
  6
CONTINUOUS
 10
5.179680
 20
6.028440
  0
SEQEND
  8
0
  0
SOLID
  8
0
 62
    15
 10
5.211360
 20
6.012160
 11
5.212240
 21
6.766760
 12
5.241280
 22
6.003800
 13
5.241720
 23
6.757960
  0
POLYLINE
  8
0
  6
CONTINUOUS
 66
     1
 40
0.000000
 41
0.000000
  0
VERTEX
  8
0
  6
CONTINUOUS
 10
5.211360
 20
6.012160
  0
VERTEX
  8
0
  6
CONTINUOUS
 10
5.212240
 20
6.766760
  0
VERTEX
  8
0
  6
CONTINUOUS
 10
5.241720
 20
6.757960
  0
VERTEX
  8
0
  6
CONTINUOUS
 10
5.241280
 20
6.003800
  0
VERTEX
  8
0
  6
CONTINUOUS
 10
5.211360
 20
6.012160
  0
SEQEND
  8
0
  0
SOLID
  8
0
 62
    15
 10
5.241280
 20
6.003800
 11
5.241720
 21
6.757960
 12
5.270760
 22
6.001160
 13
5.271640
 23
6.755760
  0
POLYLINE
  8
0
  6
CONTINUOUS
 66
     1
 40
0.000000
 41
0.000000
  0
VERTEX
  8
0
  6
CONTINUOUS
 10
5.241280
 20
6.003800
  0
VERTEX
  8
0
  6
CONTINUOUS
 10
5.241720
 20
6.757960
  0
VERTEX
  8
0
  6
CONTINUOUS
 10
5.271640
 20
6.755760
  0
VERTEX
  8
0
  6
CONTINUOUS
 10
5.270760
 20
6.001160
  0
VERTEX
  8
0
  6
CONTINUOUS
 10
5.241280
 20
6.003800
  0
SEQEND
  8
0
  0
SOLID
  8
0
 62
    15
 10
5.270760
 20
6.001160
 11
5.271640
 21
6.755760
 12
5.298480
 22
6.002920
 13
5.299360
 23
6.757080
  0
POLYLINE
  8
0
  6
CONTINUOUS
 66
     1
 40
0.000000
 41
0.000000
  0
VERTEX
  8
0
  6
CONTINUOUS
 10
5.270760
 20
6.001160
  0
VERTEX
  8
0
  6
CONTINUOUS
 10
5.271640
 20
6.755760
  0
VERTEX
  8
0
  6
CONTINUOUS
 10
5.299360
 20
6.757080
  0
VERTEX
  8
0
  6
CONTINUOUS
 10
5.298480
 20
6.002920
  0
VERTEX
  8
0
  6
CONTINUOUS
 10
5.270760
 20
6.001160
  0
SEQEND
  8
0
  0
SOLID
  8
0
 62
    15
 10
5.298480
 20
6.002920
 11
5.299360
 21
6.757080
 12
5.320480
 22
6.007320
 13
5.321360
 23
6.761480
  0
POLYLINE
  8
0
  6
CONTINUOUS
 66
     1
 40
0.000000
 41
0.000000
  0
VERTEX
  8
0
  6
CONTINUOUS
 10
5.298480
 20
6.002920
  0
VERTEX
  8
0
  6
CONTINUOUS
 10
5.299360
 20
6.757080
  0
VERTEX
  8
0
  6
CONTINUOUS
 10
5.321360
 20
6.761480
  0
VERTEX
  8
0
  6
CONTINUOUS
 10
5.320480
 20
6.007320
  0
VERTEX
  8
0
  6
CONTINUOUS
 10
5.298480
 20
6.002920
  0
SEQEND
  8
0
  0
SOLID
  8
0
 62
    15
 10
5.320480
 20
6.007320
 11
5.321360
 21
6.761480
 12
5.337640
 22
6.013920
 13
5.338080
 23
6.768520
  0
POLYLINE
  8
0
  6
CONTINUOUS
 66
     1
 40
0.000000
 41
0.000000
  0
VERTEX
  8
0
  6
CONTINUOUS
 10
5.320480
 20
6.007320
  0
VERTEX
  8
0
  6
CONTINUOUS
 10
5.321360
 20
6.761480
  0
VERTEX
  8
0
  6
CONTINUOUS
 10
5.338080
 20
6.768520
  0
VERTEX
  8
0
  6
CONTINUOUS
 10
5.337640
 20
6.013920
  0
VERTEX
  8
0
  6
CONTINUOUS
 10
5.320480
 20
6.007320
  0
SEQEND
  8
0
  0
SOLID
  8
0
 62
    15
 10
5.337640
 20
6.013920
 11
5.338080
 21
6.768520
 12
5.350400
 22
6.022720
 13
5.350840
 23
6.777320
  0
POLYLINE
  8
0
  6
CONTINUOUS
 66
     1
 40
0.000000
 41
0.000000
  0
VERTEX
  8
0
  6
CONTINUOUS
 10
5.337640
 20
6.013920
  0
VERTEX
  8
0
  6
CONTINUOUS
 10
5.338080
 20
6.768520
  0
VERTEX
  8
0
  6
CONTINUOUS
 10
5.350840
 20
6.777320
  0
VERTEX
  8
0
  6
CONTINUOUS
 10
5.350400
 20
6.022720
  0
VERTEX
  8
0
  6
CONTINUOUS
 10
5.337640
 20
6.013920
  0
SEQEND
  8
0
  0
SOLID
  8
0
 62
    15
 10
5.350400
 20
6.022720
 11
5.350840
 21
6.777320
 12
5.366240
 22
6.043840
 13
5.367120
 23
6.798440
  0
POLYLINE
  8
0
  6
CONTINUOUS
 66
     1
 40
0.000000
 41
0.000000
  0
VERTEX
  8
0
  6
CONTINUOUS
 10
5.350400
 20
6.022720
  0
VERTEX
  8
0
  6
CONTINUOUS
 10
5.350840
 20
6.777320
  0
VERTEX
  8
0
  6
CONTINUOUS
 10
5.367120
 20
6.798440
  0
VERTEX
  8
0
  6
CONTINUOUS
 10
5.366240
 20
6.043840
  0
VERTEX
  8
0
  6
CONTINUOUS
 10
5.350400
 20
6.022720
  0
SEQEND
  8
0
  0
SOLID
  8
0
 62
    15
 10
5.366240
 20
6.043840
 11
5.367120
 21
6.798440
 12
5.375040
 22
6.067160
 13
5.375920
 23
6.821320
  0
POLYLINE
  8
0
  6
CONTINUOUS
 66
     1
 40
0.000000
 41
0.000000
  0
VERTEX
  8
0
  6
CONTINUOUS
 10
5.366240
 20
6.043840
  0
VERTEX
  8
0
  6
CONTINUOUS
 10
5.367120
 20
6.798440
  0
VERTEX
  8
0
  6
CONTINUOUS
 10
5.375920
 20
6.821320
  0
VERTEX
  8
0
  6
CONTINUOUS
 10
5.375040
 20
6.067160
  0
VERTEX
  8
0
  6
CONTINUOUS
 10
5.366240
 20
6.043840
  0
SEQEND
  8
0
  0
SOLID
  8
0
 62
    15
 10
5.497360
 20
5.988400
 11
5.497800
 21
6.743000
 12
5.527720
 22
5.988400
 13
5.528160
 23
6.743000
  0
POLYLINE
  8
0
  6
CONTINUOUS
 66
     1
 40
0.000000
 41
0.000000
  0
VERTEX
  8
0
  6
CONTINUOUS
 10
5.497360
 20
5.988400
  0
VERTEX
  8
0
  6
CONTINUOUS
 10
5.497800
 20
6.743000
  0
VERTEX
  8
0
  6
CONTINUOUS
 10
5.528160
 20
6.743000
  0
VERTEX
  8
0
  6
CONTINUOUS
 10
5.527720
 20
5.988400
  0
VERTEX
  8
0
  6
CONTINUOUS
 10
5.497360
 20
5.988400
  0
SEQEND
  8
0
  0
SOLID
  8
0
 62
    15
 10
5.497360
 20
6.067160
 11
5.497800
 21
6.821320
 12
5.497360
 22
5.988400
 13
5.497800
 23
6.743000
  0
POLYLINE
  8
0
  6
CONTINUOUS
 66
     1
 40
0.000000
 41
0.000000
  0
VERTEX
  8
0
  6
CONTINUOUS
 10
5.497360
 20
6.067160
  0
VERTEX
  8
0
  6
CONTINUOUS
 10
5.497800
 20
6.821320
  0
VERTEX
  8
0
  6
CONTINUOUS
 10
5.497800
 20
6.743000
  0
VERTEX
  8
0
  6
CONTINUOUS
 10
5.497360
 20
5.988400
  0
VERTEX
  8
0
  6
CONTINUOUS
 10
5.497360
 20
6.067160
  0
SEQEND
  8
0
  0
SOLID
  8
0
 62
    15
 10
5.375040
 20
6.067160
 11
5.375920
 21
6.821320
 12
5.497360
 22
6.067160
 13
5.497800
 23
6.821320
  0
POLYLINE
  8
0
  6
CONTINUOUS
 66
     1
 40
0.000000
 41
0.000000
  0
VERTEX
  8
0
  6
CONTINUOUS
 10
5.375040
 20
6.067160
  0
VERTEX
  8
0
  6
CONTINUOUS
 10
5.375920
 20
6.821320
  0
VERTEX
  8
0
  6
CONTINUOUS
 10
5.497800
 20
6.821320
  0
VERTEX
  8
0
  6
CONTINUOUS
 10
5.497360
 20
6.067160
  0
VERTEX
  8
0
  6
CONTINUOUS
 10
5.375040
 20
6.067160
  0
SEQEND
  8
0
  0
SOLID
  8
0
 62
    15
 10
5.527720
 20
5.988400
 11
5.528160
 21
6.743000
 12
5.527720
 22
5.988840
 13
5.528600
 23
6.743000
  0
POLYLINE
  8
0
  6
CONTINUOUS
 66
     1
 40
0.000000
 41
0.000000
  0
VERTEX
  8
0
  6
CONTINUOUS
 10
5.527720
 20
5.988400
  0
VERTEX
  8
0
  6
CONTINUOUS
 10
5.528160
 20
6.743000
  0
VERTEX
  8
0
  6
CONTINUOUS
 10
5.528600
 20
6.743000
  0
VERTEX
  8
0
  6
CONTINUOUS
 10
5.527720
 20
5.988840
  0
VERTEX
  8
0
  6
CONTINUOUS
 10
5.527720
 20
5.988400
  0
SEQEND
  8
0
  0
SOLID
  8
0
 62
    15
 10
5.527720
 20
5.988840
 11
5.528600
 21
6.743000
 12
5.534320
 22
6.020520
 13
5.535200
 23
6.774680
  0
POLYLINE
  8
0
  6
CONTINUOUS
 66
     1
 40
0.000000
 41
0.000000
  0
VERTEX
  8
0
  6
CONTINUOUS
 10
5.527720
 20
5.988840
  0
VERTEX
  8
0
  6
CONTINUOUS
 10
5.528600
 20
6.743000
  0
VERTEX
  8
0
  6
CONTINUOUS
 10
5.535200
 20
6.774680
  0
VERTEX
  8
0
  6
CONTINUOUS
 10
5.534320
 20
6.020520
  0
VERTEX
  8
0
  6
CONTINUOUS
 10
5.527720
 20
5.988840
  0
SEQEND
  8
0
  0
SOLID
  8
0
 62
    15
 10
5.534320
 20
6.020520
 11
5.535200
 21
6.774680
 12
5.552360
 22
6.046040
 13
5.553240
 23
6.800640
  0
POLYLINE
  8
0
  6
CONTINUOUS
 66
     1
 40
0.000000
 41
0.000000
  0
VERTEX
  8
0
  6
CONTINUOUS
 10
5.534320
 20
6.020520
  0
VERTEX
  8
0
  6
CONTINUOUS
 10
5.535200
 20
6.774680
  0
VERTEX
  8
0
  6
CONTINUOUS
 10
5.553240
 20
6.800640
  0
VERTEX
  8
0
  6
CONTINUOUS
 10
5.552360
 20
6.046040
  0
VERTEX
  8
0
  6
CONTINUOUS
 10
5.534320
 20
6.020520
  0
SEQEND
  8
0
  0
SOLID
  8
0
 62
    15
 10
5.552360
 20
6.046040
 11
5.553240
 21
6.800640
 12
5.579640
 22
6.063640
 13
5.580080
 23
6.817800
  0
POLYLINE
  8
0
  6
CONTINUOUS
 66
     1
 40
0.000000
 41
0.000000
  0
VERTEX
  8
0
  6
CONTINUOUS
 10
5.552360
 20
6.046040
  0
VERTEX
  8
0
  6
CONTINUOUS
 10
5.553240
 20
6.800640
  0
VERTEX
  8
0
  6
CONTINUOUS
 10
5.580080
 20
6.817800
  0
VERTEX
  8
0
  6
CONTINUOUS
 10
5.579640
 20
6.063640
  0
VERTEX
  8
0
  6
CONTINUOUS
 10
5.552360
 20
6.046040
  0
SEQEND
  8
0
  0
SOLID
  8
0
 62
    15
 10
5.579640
 20
6.063640
 11
5.580080
 21
6.817800
 12
5.612200
 22
6.070240
 13
5.613080
 23
6.824400
  0
POLYLINE
  8
0
  6
CONTINUOUS
 66
     1
 40
0.000000
 41
0.000000
  0
VERTEX
  8
0
  6
CONTINUOUS
 10
5.579640
 20
6.063640
  0
VERTEX
  8
0
  6
CONTINUOUS
 10
5.580080
 20
6.817800
  0
VERTEX
  8
0
  6
CONTINUOUS
 10
5.613080
 20
6.824400
  0
VERTEX
  8
0
  6
CONTINUOUS
 10
5.612200
 20
6.070240
  0
VERTEX
  8
0
  6
CONTINUOUS
 10
5.579640
 20
6.063640
  0
SEQEND
  8
0
  0
SOLID
  8
0
 62
    15
 10
5.612200
 20
6.070240
 11
5.613080
 21
6.824400
 12
5.645200
 22
6.063640
 13
5.646080
 23
6.817800
  0
POLYLINE
  8
0
  6
CONTINUOUS
 66
     1
 40
0.000000
 41
0.000000
  0
VERTEX
  8
0
  6
CONTINUOUS
 10
5.612200
 20
6.070240
  0
VERTEX
  8
0
  6
CONTINUOUS
 10
5.613080
 20
6.824400
  0
VERTEX
  8
0
  6
CONTINUOUS
 10
5.646080
 20
6.817800
  0
VERTEX
  8
0
  6
CONTINUOUS
 10
5.645200
 20
6.063640
  0
VERTEX
  8
0
  6
CONTINUOUS
 10
5.612200
 20
6.070240
  0
SEQEND
  8
0
  0
SOLID
  8
0
 62
    15
 10
5.645200
 20
6.063640
 11
5.646080
 21
6.817800
 12
5.672040
 22
6.046040
 13
5.672920
 23
6.800640
  0
POLYLINE
  8
0
  6
CONTINUOUS
 66
     1
 40
0.000000
 41
0.000000
  0
VERTEX
  8
0
  6
CONTINUOUS
 10
5.645200
 20
6.063640
  0
VERTEX
  8
0
  6
CONTINUOUS
 10
5.646080
 20
6.817800
  0
VERTEX
  8
0
  6
CONTINUOUS
 10
5.672920
 20
6.800640
  0
VERTEX
  8
0
  6
CONTINUOUS
 10
5.672040
 20
6.046040
  0
VERTEX
  8
0
  6
CONTINUOUS
 10
5.645200
 20
6.063640
  0
SEQEND
  8
0
  0
SOLID
  8
0
 62
    15
 10
5.672040
 20
6.046040
 11
5.672920
 21
6.800640
 12
5.690520
 22
6.020520
 13
5.690960
 23
6.774680
  0
POLYLINE
  8
0
  6
CONTINUOUS
 66
     1
 40
0.000000
 41
0.000000
  0
VERTEX
  8
0
  6
CONTINUOUS
 10
5.672040
 20
6.046040
  0
VERTEX
  8
0
  6
CONTINUOUS
 10
5.672920
 20
6.800640
  0
VERTEX
  8
0
  6
CONTINUOUS
 10
5.690960
 20
6.774680
  0
VERTEX
  8
0
  6
CONTINUOUS
 10
5.690520
 20
6.020520
  0
VERTEX
  8
0
  6
CONTINUOUS
 10
5.672040
 20
6.046040
  0
SEQEND
  8
0
  0
SOLID
  8
0
 62
    15
 10
5.690520
 20
6.020520
 11
5.690960
 21
6.774680
 12
5.697120
 22
5.988840
 13
5.697560
 23
6.743000
  0
POLYLINE
  8
0
  6
CONTINUOUS
 66
     1
 40
0.000000
 41
0.000000
  0
VERTEX
  8
0
  6
CONTINUOUS
 10
5.690520
 20
6.020520
  0
VERTEX
  8
0
  6
CONTINUOUS
 10
5.690960
 20
6.774680
  0
VERTEX
  8
0
  6
CONTINUOUS
 10
5.697560
 20
6.743000
  0
VERTEX
  8
0
  6
CONTINUOUS
 10
5.697120
 20
5.988840
  0
VERTEX
  8
0
  6
CONTINUOUS
 10
5.690520
 20
6.020520
  0
SEQEND
  8
0
  0
SOLID
  8
0
 62
    15
 10
5.715160
 20
5.987960
 11
5.716040
 21
6.742560
 12
5.721760
 22
6.019640
 13
5.722640
 23
6.774240
  0
POLYLINE
  8
0
  6
CONTINUOUS
 66
     1
 40
0.000000
 41
0.000000
  0
VERTEX
  8
0
  6
CONTINUOUS
 10
5.715160
 20
5.987960
  0
VERTEX
  8
0
  6
CONTINUOUS
 10
5.716040
 20
6.742560
  0
VERTEX
  8
0
  6
CONTINUOUS
 10
5.722640
 20
6.774240
  0
VERTEX
  8
0
  6
CONTINUOUS
 10
5.721760
 20
6.019640
  0
VERTEX
  8
0
  6
CONTINUOUS
 10
5.715160
 20
5.987960
  0
SEQEND
  8
0
  0
SOLID
  8
0
 62
    15
 10
5.715160
 20
5.988840
 11
5.716040
 21
6.743000
 12
5.715160
 22
5.987960
 13
5.716040
 23
6.742560
  0
POLYLINE
  8
0
  6
CONTINUOUS
 66
     1
 40
0.000000
 41
0.000000
  0
VERTEX
  8
0
  6
CONTINUOUS
 10
5.715160
 20
5.988840
  0
VERTEX
  8
0
  6
CONTINUOUS
 10
5.716040
 20
6.743000
  0
VERTEX
  8
0
  6
CONTINUOUS
 10
5.716040
 20
6.742560
  0
VERTEX
  8
0
  6
CONTINUOUS
 10
5.715160
 20
5.987960
  0
VERTEX
  8
0
  6
CONTINUOUS
 10
5.715160
 20
5.988840
  0
SEQEND
  8
0
  0
SOLID
  8
0
 62
    15
 10
5.697120
 20
5.988840
 11
5.697560
 21
6.743000
 12
5.715160
 22
5.988840
 13
5.716040
 23
6.743000
  0
POLYLINE
  8
0
  6
CONTINUOUS
 66
     1
 40
0.000000
 41
0.000000
  0
VERTEX
  8
0
  6
CONTINUOUS
 10
5.697120
 20
5.988840
  0
VERTEX
  8
0
  6
CONTINUOUS
 10
5.697560
 20
6.743000
  0
VERTEX
  8
0
  6
CONTINUOUS
 10
5.716040
 20
6.743000
  0
VERTEX
  8
0
  6
CONTINUOUS
 10
5.715160
 20
5.988840
  0
VERTEX
  8
0
  6
CONTINUOUS
 10
5.697120
 20
5.988840
  0
SEQEND
  8
0
  0
SOLID
  8
0
 62
    15
 10
5.721760
 20
6.019640
 11
5.722640
 21
6.774240
 12
5.740240
 22
6.045600
 13
5.740680
 23
6.800200
  0
POLYLINE
  8
0
  6
CONTINUOUS
 66
     1
 40
0.000000
 41
0.000000
  0
VERTEX
  8
0
  6
CONTINUOUS
 10
5.721760
 20
6.019640
  0
VERTEX
  8
0
  6
CONTINUOUS
 10
5.722640
 20
6.774240
  0
VERTEX
  8
0
  6
CONTINUOUS
 10
5.740680
 20
6.800200
  0
VERTEX
  8
0
  6
CONTINUOUS
 10
5.740240
 20
6.045600
  0
VERTEX
  8
0
  6
CONTINUOUS
 10
5.721760
 20
6.019640
  0
SEQEND
  8
0
  0
SOLID
  8
0
 62
    15
 10
5.740240
 20
6.045600
 11
5.740680
 21
6.800200
 12
5.767080
 22
6.063200
 13
5.767520
 23
6.817360
  0
POLYLINE
  8
0
  6
CONTINUOUS
 66
     1
 40
0.000000
 41
0.000000
  0
VERTEX
  8
0
  6
CONTINUOUS
 10
5.740240
 20
6.045600
  0
VERTEX
  8
0
  6
CONTINUOUS
 10
5.740680
 20
6.800200
  0
VERTEX
  8
0
  6
CONTINUOUS
 10
5.767520
 20
6.817360
  0
VERTEX
  8
0
  6
CONTINUOUS
 10
5.767080
 20
6.063200
  0
VERTEX
  8
0
  6
CONTINUOUS
 10
5.740240
 20
6.045600
  0
SEQEND
  8
0
  0
SOLID
  8
0
 62
    15
 10
5.767080
 20
6.063200
 11
5.767520
 21
6.817360
 12
5.800080
 22
6.069360
 13
5.800520
 23
6.823960
  0
POLYLINE
  8
0
  6
CONTINUOUS
 66
     1
 40
0.000000
 41
0.000000
  0
VERTEX
  8
0
  6
CONTINUOUS
 10
5.767080
 20
6.063200
  0
VERTEX
  8
0
  6
CONTINUOUS
 10
5.767520
 20
6.817360
  0
VERTEX
  8
0
  6
CONTINUOUS
 10
5.800520
 20
6.823960
  0
VERTEX
  8
0
  6
CONTINUOUS
 10
5.800080
 20
6.069360
  0
VERTEX
  8
0
  6
CONTINUOUS
 10
5.767080
 20
6.063200
  0
SEQEND
  8
0
  0
SOLID
  8
0
 62
    15
 10
5.800080
 20
6.069360
 11
5.800520
 21
6.823960
 12
5.832640
 22
6.063200
 13
5.833520
 23
6.817360
  0
POLYLINE
  8
0
  6
CONTINUOUS
 66
     1
 40
0.000000
 41
0.000000
  0
VERTEX
  8
0
  6
CONTINUOUS
 10
5.800080
 20
6.069360
  0
VERTEX
  8
0
  6
CONTINUOUS
 10
5.800520
 20
6.823960
  0
VERTEX
  8
0
  6
CONTINUOUS
 10
5.833520
 20
6.817360
  0
VERTEX
  8
0
  6
CONTINUOUS
 10
5.832640
 20
6.063200
  0
VERTEX
  8
0
  6
CONTINUOUS
 10
5.800080
 20
6.069360
  0
SEQEND
  8
0
  0
SOLID
  8
0
 62
    15
 10
5.832640
 20
6.063200
 11
5.833520
 21
6.817360
 12
5.859480
 22
6.045600
 13
5.860360
 23
6.800200
  0
POLYLINE
  8
0
  6
CONTINUOUS
 66
     1
 40
0.000000
 41
0.000000
  0
VERTEX
  8
0
  6
CONTINUOUS
 10
5.832640
 20
6.063200
  0
VERTEX
  8
0
  6
CONTINUOUS
 10
5.833520
 20
6.817360
  0
VERTEX
  8
0
  6
CONTINUOUS
 10
5.860360
 20
6.800200
  0
VERTEX
  8
0
  6
CONTINUOUS
 10
5.859480
 20
6.045600
  0
VERTEX
  8
0
  6
CONTINUOUS
 10
5.832640
 20
6.063200
  0
SEQEND
  8
0
  0
SOLID
  8
0
 62
    15
 10
5.859480
 20
6.045600
 11
5.860360
 21
6.800200
 12
5.877960
 22
6.019640
 13
5.878400
 23
6.774240
  0
POLYLINE
  8
0
  6
CONTINUOUS
 66
     1
 40
0.000000
 41
0.000000
  0
VERTEX
  8
0
  6
CONTINUOUS
 10
5.859480
 20
6.045600
  0
VERTEX
  8
0
  6
CONTINUOUS
 10
5.860360
 20
6.800200
  0
VERTEX
  8
0
  6
CONTINUOUS
 10
5.878400
 20
6.774240
  0
VERTEX
  8
0
  6
CONTINUOUS
 10
5.877960
 20
6.019640
  0
VERTEX
  8
0
  6
CONTINUOUS
 10
5.859480
 20
6.045600
  0
SEQEND
  8
0
  0
SOLID
  8
0
 62
    15
 10
5.877960
 20
6.019640
 11
5.878400
 21
6.774240
 12
5.884560
 22
5.987960
 13
5.885000
 23
6.742560
  0
POLYLINE
  8
0
  6
CONTINUOUS
 66
     1
 40
0.000000
 41
0.000000
  0
VERTEX
  8
0
  6
CONTINUOUS
 10
5.877960
 20
6.019640
  0
VERTEX
  8
0
  6
CONTINUOUS
 10
5.878400
 20
6.774240
  0
VERTEX
  8
0
  6
CONTINUOUS
 10
5.885000
 20
6.742560
  0
VERTEX
  8
0
  6
CONTINUOUS
 10
5.884560
 20
5.987960
  0
VERTEX
  8
0
  6
CONTINUOUS
 10
5.877960
 20
6.019640
  0
SEQEND
  8
0
  0
SOLID
  8
0
 62
    15
 10
4.047560
 20
6.190360
 11
4.048440
 21
6.944960
 12
4.131160
 22
6.190360
 13
4.132040
 23
6.944960
  0
POLYLINE
  8
0
  6
CONTINUOUS
 66
     1
 40
0.000000
 41
0.000000
  0
VERTEX
  8
0
  6
CONTINUOUS
 10
4.047560
 20
6.190360
  0
VERTEX
  8
0
  6
CONTINUOUS
 10
4.048440
 20
6.944960
  0
VERTEX
  8
0
  6
CONTINUOUS
 10
4.132040
 20
6.944960
  0
VERTEX
  8
0
  6
CONTINUOUS
 10
4.131160
 20
6.190360
  0
VERTEX
  8
0
  6
CONTINUOUS
 10
4.047560
 20
6.190360
  0
SEQEND
  8
0
  0
SOLID
  8
0
 62
    15
 10
5.909640
 20
5.987960
 11
5.910080
 21
6.742560
 12
5.916240
 22
6.019640
 13
5.916680
 23
6.774240
  0
POLYLINE
  8
0
  6
CONTINUOUS
 66
     1
 40
0.000000
 41
0.000000
  0
VERTEX
  8
0
  6
CONTINUOUS
 10
5.909640
 20
5.987960
  0
VERTEX
  8
0
  6
CONTINUOUS
 10
5.910080
 20
6.742560
  0
VERTEX
  8
0
  6
CONTINUOUS
 10
5.916680
 20
6.774240
  0
VERTEX
  8
0
  6
CONTINUOUS
 10
5.916240
 20
6.019640
  0
VERTEX
  8
0
  6
CONTINUOUS
 10
5.909640
 20
5.987960
  0
SEQEND
  8
0
  0
SOLID
  8
0
 62
    15
 10
5.909640
 20
5.988400
 11
5.910080
 21
6.742560
 12
5.909640
 22
5.988400
 13
5.909640
 23
5.987960
  0
POLYLINE
  8
0
  6
CONTINUOUS
 66
     1
 40
0.000000
 41
0.000000
  0
VERTEX
  8
0
  6
CONTINUOUS
 10
5.909640
 20
5.988400
  0
VERTEX
  8
0
  6
CONTINUOUS
 10
5.910080
 20
6.742560
  0
VERTEX
  8
0
  6
CONTINUOUS
 10
5.909640
 20
5.987960
  0
VERTEX
  8
0
  6
CONTINUOUS
 10
5.909640
 20
5.988400
  0
SEQEND
  8
0
  0
SOLID
  8
0
 62
    15
 10
5.900400
 20
5.988400
 11
5.901280
 21
6.742560
 12
5.909640
 22
5.988400
 13
5.910080
 23
6.742560
  0
POLYLINE
  8
0
  6
CONTINUOUS
 66
     1
 40
0.000000
 41
0.000000
  0
VERTEX
  8
0
  6
CONTINUOUS
 10
5.900400
 20
5.988400
  0
VERTEX
  8
0
  6
CONTINUOUS
 10
5.901280
 20
6.742560
  0
VERTEX
  8
0
  6
CONTINUOUS
 10
5.910080
 20
6.742560
  0
VERTEX
  8
0
  6
CONTINUOUS
 10
5.909640
 20
5.988400
  0
VERTEX
  8
0
  6
CONTINUOUS
 10
5.900400
 20
5.988400
  0
SEQEND
  8
0
  0
SOLID
  8
0
 62
    15
 10
5.916240
 20
6.019640
 11
5.916680
 21
6.774240
 12
5.934280
 22
6.045600
 13
5.935160
 23
6.800200
  0
POLYLINE
  8
0
  6
CONTINUOUS
 66
     1
 40
0.000000
 41
0.000000
  0
VERTEX
  8
0
  6
CONTINUOUS
 10
5.916240
 20
6.019640
  0
VERTEX
  8
0
  6
CONTINUOUS
 10
5.916680
 20
6.774240
  0
VERTEX
  8
0
  6
CONTINUOUS
 10
5.935160
 20
6.800200
  0
VERTEX
  8
0
  6
CONTINUOUS
 10
5.934280
 20
6.045600
  0
VERTEX
  8
0
  6
CONTINUOUS
 10
5.916240
 20
6.019640
  0
SEQEND
  8
0
  0
SOLID
  8
0
 62
    15
 10
5.934280
 20
6.045600
 11
5.935160
 21
6.800200
 12
5.961120
 22
6.063200
 13
5.962000
 23
6.817360
  0
POLYLINE
  8
0
  6
CONTINUOUS
 66
     1
 40
0.000000
 41
0.000000
  0
VERTEX
  8
0
  6
CONTINUOUS
 10
5.934280
 20
6.045600
  0
VERTEX
  8
0
  6
CONTINUOUS
 10
5.935160
 20
6.800200
  0
VERTEX
  8
0
  6
CONTINUOUS
 10
5.962000
 20
6.817360
  0
VERTEX
  8
0
  6
CONTINUOUS
 10
5.961120
 20
6.063200
  0
VERTEX
  8
0
  6
CONTINUOUS
 10
5.934280
 20
6.045600
  0
SEQEND
  8
0
  0
SOLID
  8
0
 62
    15
 10
5.961120
 20
6.063200
 11
5.962000
 21
6.817360
 12
5.994120
 22
6.069360
 13
5.995000
 23
6.823960
  0
POLYLINE
  8
0
  6
CONTINUOUS
 66
     1
 40
0.000000
 41
0.000000
  0
VERTEX
  8
0
  6
CONTINUOUS
 10
5.961120
 20
6.063200
  0
VERTEX
  8
0
  6
CONTINUOUS
 10
5.962000
 20
6.817360
  0
VERTEX
  8
0
  6
CONTINUOUS
 10
5.995000
 20
6.823960
  0
VERTEX
  8
0
  6
CONTINUOUS
 10
5.994120
 20
6.069360
  0
VERTEX
  8
0
  6
CONTINUOUS
 10
5.961120
 20
6.063200
  0
SEQEND
  8
0
  0
SOLID
  8
0
 62
    15
 10
5.994120
 20
6.069360
 11
5.995000
 21
6.823960
 12
6.027120
 22
6.063200
 13
6.027560
 23
6.817360
  0
POLYLINE
  8
0
  6
CONTINUOUS
 66
     1
 40
0.000000
 41
0.000000
  0
VERTEX
  8
0
  6
CONTINUOUS
 10
5.994120
 20
6.069360
  0
VERTEX
  8
0
  6
CONTINUOUS
 10
5.995000
 20
6.823960
  0
VERTEX
  8
0
  6
CONTINUOUS
 10
6.027560
 20
6.817360
  0
VERTEX
  8
0
  6
CONTINUOUS
 10
6.027120
 20
6.063200
  0
VERTEX
  8
0
  6
CONTINUOUS
 10
5.994120
 20
6.069360
  0
SEQEND
  8
0
  0
SOLID
  8
0
 62
    15
 10
6.027120
 20
6.063200
 11
6.027560
 21
6.817360
 12
6.053960
 22
6.045600
 13
6.054840
 23
6.800200
  0
POLYLINE
  8
0
  6
CONTINUOUS
 66
     1
 40
0.000000
 41
0.000000
  0
VERTEX
  8
0
  6
CONTINUOUS
 10
6.027120
 20
6.063200
  0
VERTEX
  8
0
  6
CONTINUOUS
 10
6.027560
 20
6.817360
  0
VERTEX
  8
0
  6
CONTINUOUS
 10
6.054840
 20
6.800200
  0
VERTEX
  8
0
  6
CONTINUOUS
 10
6.053960
 20
6.045600
  0
VERTEX
  8
0
  6
CONTINUOUS
 10
6.027120
 20
6.063200
  0
SEQEND
  8
0
  0
SOLID
  8
0
 62
    15
 10
6.116440
 20
5.964640
 11
6.117320
 21
6.718800
 12
6.124360
 22
5.939560
 13
6.125240
 23
6.693720
  0
POLYLINE
  8
0
  6
CONTINUOUS
 66
     1
 40
0.000000
 41
0.000000
  0
VERTEX
  8
0
  6
CONTINUOUS
 10
6.116440
 20
5.964640
  0
VERTEX
  8
0
  6
CONTINUOUS
 10
6.117320
 20
6.718800
  0
VERTEX
  8
0
  6
CONTINUOUS
 10
6.125240
 20
6.693720
  0
VERTEX
  8
0
  6
CONTINUOUS
 10
6.124360
 20
5.939560
  0
VERTEX
  8
0
  6
CONTINUOUS
 10
6.116440
 20
5.964640
  0
SEQEND
  8
0
  0
SOLID
  8
0
 62
    15
 10
6.114240
 20
5.987960
 11
6.114680
 21
6.742560
 12
6.116440
 22
5.964640
 13
6.117320
 23
6.718800
  0
POLYLINE
  8
0
  6
CONTINUOUS
 66
     1
 40
0.000000
 41
0.000000
  0
VERTEX
  8
0
  6
CONTINUOUS
 10
6.114240
 20
5.987960
  0
VERTEX
  8
0
  6
CONTINUOUS
 10
6.114680
 20
6.742560
  0
VERTEX
  8
0
  6
CONTINUOUS
 10
6.117320
 20
6.718800
  0
VERTEX
  8
0
  6
CONTINUOUS
 10
6.116440
 20
5.964640
  0
VERTEX
  8
0
  6
CONTINUOUS
 10
6.114240
 20
5.987960
  0
SEQEND
  8
0
  0
SOLID
  8
0
 62
    15
 10
6.078600
 20
5.987960
 11
6.079480
 21
6.742560
 12
6.114240
 22
5.987960
 13
6.114680
 23
6.742560
  0
POLYLINE
  8
0
  6
CONTINUOUS
 66
     1
 40
0.000000
 41
0.000000
  0
VERTEX
  8
0
  6
CONTINUOUS
 10
6.078600
 20
5.987960
  0
VERTEX
  8
0
  6
CONTINUOUS
 10
6.079480
 20
6.742560
  0
VERTEX
  8
0
  6
CONTINUOUS
 10
6.114680
 20
6.742560
  0
VERTEX
  8
0
  6
CONTINUOUS
 10
6.114240
 20
5.987960
  0
VERTEX
  8
0
  6
CONTINUOUS
 10
6.078600
 20
5.987960
  0
SEQEND
  8
0
  0
SOLID
  8
0
 62
    15
 10
6.072000
 20
6.019640
 11
6.072880
 21
6.774240
 12
6.078600
 22
5.987960
 13
6.079480
 23
6.742560
  0
POLYLINE
  8
0
  6
CONTINUOUS
 66
     1
 40
0.000000
 41
0.000000
  0
VERTEX
  8
0
  6
CONTINUOUS
 10
6.072000
 20
6.019640
  0
VERTEX
  8
0
  6
CONTINUOUS
 10
6.072880
 20
6.774240
  0
VERTEX
  8
0
  6
CONTINUOUS
 10
6.079480
 20
6.742560
  0
VERTEX
  8
0
  6
CONTINUOUS
 10
6.078600
 20
5.987960
  0
VERTEX
  8
0
  6
CONTINUOUS
 10
6.072000
 20
6.019640
  0
SEQEND
  8
0
  0
SOLID
  8
0
 62
    15
 10
6.053960
 20
6.045600
 11
6.054840
 21
6.800200
 12
6.072000
 22
6.019640
 13
6.072880
 23
6.774240
  0
POLYLINE
  8
0
  6
CONTINUOUS
 66
     1
 40
0.000000
 41
0.000000
  0
VERTEX
  8
0
  6
CONTINUOUS
 10
6.053960
 20
6.045600
  0
VERTEX
  8
0
  6
CONTINUOUS
 10
6.054840
 20
6.800200
  0
VERTEX
  8
0
  6
CONTINUOUS
 10
6.072880
 20
6.774240
  0
VERTEX
  8
0
  6
CONTINUOUS
 10
6.072000
 20
6.019640
  0
VERTEX
  8
0
  6
CONTINUOUS
 10
6.053960
 20
6.045600
  0
SEQEND
  8
0
  0
SOLID
  8
0
 62
    15
 10
6.124360
 20
5.939560
 11
6.125240
 21
6.693720
 12
6.137560
 22
5.914920
 13
6.138440
 23
6.669080
  0
POLYLINE
  8
0
  6
CONTINUOUS
 66
     1
 40
0.000000
 41
0.000000
  0
VERTEX
  8
0
  6
CONTINUOUS
 10
6.124360
 20
5.939560
  0
VERTEX
  8
0
  6
CONTINUOUS
 10
6.125240
 20
6.693720
  0
VERTEX
  8
0
  6
CONTINUOUS
 10
6.138440
 20
6.669080
  0
VERTEX
  8
0
  6
CONTINUOUS
 10
6.137560
 20
5.914920
  0
VERTEX
  8
0
  6
CONTINUOUS
 10
6.124360
 20
5.939560
  0
SEQEND
  8
0
  0
SOLID
  8
0
 62
    15
 10
6.137560
 20
5.914920
 11
6.138440
 21
6.669080
 12
6.156480
 22
5.891160
 13
6.156920
 23
6.645760
  0
POLYLINE
  8
0
  6
CONTINUOUS
 66
     1
 40
0.000000
 41
0.000000
  0
VERTEX
  8
0
  6
CONTINUOUS
 10
6.137560
 20
5.914920
  0
VERTEX
  8
0
  6
CONTINUOUS
 10
6.138440
 20
6.669080
  0
VERTEX
  8
0
  6
CONTINUOUS
 10
6.156920
 20
6.645760
  0
VERTEX
  8
0
  6
CONTINUOUS
 10
6.156480
 20
5.891160
  0
VERTEX
  8
0
  6
CONTINUOUS
 10
6.137560
 20
5.914920
  0
SEQEND
  8
0
  0
SOLID
  8
0
 62
    15
 10
6.156480
 20
5.891160
 11
6.156920
 21
6.645760
 12
6.180240
 22
5.870920
 13
6.181120
 23
6.625080
  0
POLYLINE
  8
0
  6
CONTINUOUS
 66
     1
 40
0.000000
 41
0.000000
  0
VERTEX
  8
0
  6
CONTINUOUS
 10
6.156480
 20
5.891160
  0
VERTEX
  8
0
  6
CONTINUOUS
 10
6.156920
 20
6.645760
  0
VERTEX
  8
0
  6
CONTINUOUS
 10
6.181120
 20
6.625080
  0
VERTEX
  8
0
  6
CONTINUOUS
 10
6.180240
 20
5.870920
  0
VERTEX
  8
0
  6
CONTINUOUS
 10
6.156480
 20
5.891160
  0
SEQEND
  8
0
  0
SOLID
  8
0
 62
    15
 10
6.180240
 20
5.870920
 11
6.181120
 21
6.625080
 12
6.210160
 22
5.854200
 13
6.211040
 23
6.608800
  0
POLYLINE
  8
0
  6
CONTINUOUS
 66
     1
 40
0.000000
 41
0.000000
  0
VERTEX
  8
0
  6
CONTINUOUS
 10
6.180240
 20
5.870920
  0
VERTEX
  8
0
  6
CONTINUOUS
 10
6.181120
 20
6.625080
  0
VERTEX
  8
0
  6
CONTINUOUS
 10
6.211040
 20
6.608800
  0
VERTEX
  8
0
  6
CONTINUOUS
 10
6.210160
 20
5.854200
  0
VERTEX
  8
0
  6
CONTINUOUS
 10
6.180240
 20
5.870920
  0
SEQEND
  8
0
  0
SOLID
  8
0
 62
    15
 10
6.210160
 20
5.854200
 11
6.211040
 21
6.608800
 12
6.245800
 22
5.843640
 13
6.246680
 23
6.597800
  0
POLYLINE
  8
0
  6
CONTINUOUS
 66
     1
 40
0.000000
 41
0.000000
  0
VERTEX
  8
0
  6
CONTINUOUS
 10
6.210160
 20
5.854200
  0
VERTEX
  8
0
  6
CONTINUOUS
 10
6.211040
 20
6.608800
  0
VERTEX
  8
0
  6
CONTINUOUS
 10
6.246680
 20
6.597800
  0
VERTEX
  8
0
  6
CONTINUOUS
 10
6.245800
 20
5.843640
  0
VERTEX
  8
0
  6
CONTINUOUS
 10
6.210160
 20
5.854200
  0
SEQEND
  8
0
  0
SOLID
  8
0
 62
    15
 10
6.287160
 20
5.839680
 11
6.288040
 21
6.593840
 12
6.287160
 22
5.720440
 13
6.288040
 23
6.474600
  0
POLYLINE
  8
0
  6
CONTINUOUS
 66
     1
 40
0.000000
 41
0.000000
  0
VERTEX
  8
0
  6
CONTINUOUS
 10
6.287160
 20
5.839680
  0
VERTEX
  8
0
  6
CONTINUOUS
 10
6.288040
 20
6.593840
  0
VERTEX
  8
0
  6
CONTINUOUS
 10
6.288040
 20
6.474600
  0
VERTEX
  8
0
  6
CONTINUOUS
 10
6.287160
 20
5.720440
  0
VERTEX
  8
0
  6
CONTINUOUS
 10
6.287160
 20
5.839680
  0
SEQEND
  8
0
  0
SOLID
  8
0
 62
    15
 10
6.245800
 20
5.843640
 11
6.246680
 21
6.597800
 12
6.287160
 22
5.839680
 13
6.288040
 23
6.593840
  0
POLYLINE
  8
0
  6
CONTINUOUS
 66
     1
 40
0.000000
 41
0.000000
  0
VERTEX
  8
0
  6
CONTINUOUS
 10
6.245800
 20
5.843640
  0
VERTEX
  8
0
  6
CONTINUOUS
 10
6.246680
 20
6.597800
  0
VERTEX
  8
0
  6
CONTINUOUS
 10
6.288040
 20
6.593840
  0
VERTEX
  8
0
  6
CONTINUOUS
 10
6.287160
 20
5.839680
  0
VERTEX
  8
0
  6
CONTINUOUS
 10
6.245800
 20
5.843640
  0
SEQEND
  8
0
  0
SOLID
  8
0
 62
    15
 10
3.725480
 20
6.339080
 11
3.726360
 21
7.093240
 12
3.728120
 22
6.314440
 13
3.728560
 23
7.069040
  0
POLYLINE
  8
0
  6
CONTINUOUS
 66
     1
 40
0.000000
 41
0.000000
  0
VERTEX
  8
0
  6
CONTINUOUS
 10
3.725480
 20
6.339080
  0
VERTEX
  8
0
  6
CONTINUOUS
 10
3.726360
 20
7.093240
  0
VERTEX
  8
0
  6
CONTINUOUS
 10
3.728560
 20
7.069040
  0
VERTEX
  8
0
  6
CONTINUOUS
 10
3.728120
 20
6.314440
  0
VERTEX
  8
0
  6
CONTINUOUS
 10
3.725480
 20
6.339080
  0
SEQEND
  8
0
  0
SOLID
  8
0
 62
    15
 10
3.087920
 20
6.341720
 11
3.088800
 21
7.096320
 12
3.726360
 22
6.341720
 13
3.727240
 23
7.096320
  0
POLYLINE
  8
0
  6
CONTINUOUS
 66
     1
 40
0.000000
 41
0.000000
  0
VERTEX
  8
0
  6
CONTINUOUS
 10
3.087920
 20
6.341720
  0
VERTEX
  8
0
  6
CONTINUOUS
 10
3.088800
 20
7.096320
  0
VERTEX
  8
0
  6
CONTINUOUS
 10
3.727240
 20
7.096320
  0
VERTEX
  8
0
  6
CONTINUOUS
 10
3.726360
 20
6.341720
  0
VERTEX
  8
0
  6
CONTINUOUS
 10
3.087920
 20
6.341720
  0
SEQEND
  8
0
  0
SOLID
  8
0
 62
    15
 10
3.728120
 20
6.314440
 11
3.728560
 21
7.069040
 12
3.735600
 22
6.289360
 13
3.736480
 23
7.043520
  0
POLYLINE
  8
0
  6
CONTINUOUS
 66
     1
 40
0.000000
 41
0.000000
  0
VERTEX
  8
0
  6
CONTINUOUS
 10
3.728120
 20
6.314440
  0
VERTEX
  8
0
  6
CONTINUOUS
 10
3.728560
 20
7.069040
  0
VERTEX
  8
0
  6
CONTINUOUS
 10
3.736480
 20
7.043520
  0
VERTEX
  8
0
  6
CONTINUOUS
 10
3.735600
 20
6.289360
  0
VERTEX
  8
0
  6
CONTINUOUS
 10
3.728120
 20
6.314440
  0
SEQEND
  8
0
  0
SOLID
  8
0
 62
    15
 10
3.735600
 20
6.289360
 11
3.736480
 21
7.043520
 12
3.751880
 22
6.264280
 13
3.752320
 23
7.018880
  0
POLYLINE
  8
0
  6
CONTINUOUS
 66
     1
 40
0.000000
 41
0.000000
  0
VERTEX
  8
0
  6
CONTINUOUS
 10
3.735600
 20
6.289360
  0
VERTEX
  8
0
  6
CONTINUOUS
 10
3.736480
 20
7.043520
  0
VERTEX
  8
0
  6
CONTINUOUS
 10
3.752320
 20
7.018880
  0
VERTEX
  8
0
  6
CONTINUOUS
 10
3.751880
 20
6.264280
  0
VERTEX
  8
0
  6
CONTINUOUS
 10
3.735600
 20
6.289360
  0
SEQEND
  8
0
  0
SOLID
  8
0
 62
    15
 10
3.751880
 20
6.264280
 11
3.752320
 21
7.018880
 12
3.778720
 22
6.241400
 13
3.779600
 23
6.995560
  0
POLYLINE
  8
0
  6
CONTINUOUS
 66
     1
 40
0.000000
 41
0.000000
  0
VERTEX
  8
0
  6
CONTINUOUS
 10
3.751880
 20
6.264280
  0
VERTEX
  8
0
  6
CONTINUOUS
 10
3.752320
 20
7.018880
  0
VERTEX
  8
0
  6
CONTINUOUS
 10
3.779600
 20
6.995560
  0
VERTEX
  8
0
  6
CONTINUOUS
 10
3.778720
 20
6.241400
  0
VERTEX
  8
0
  6
CONTINUOUS
 10
3.751880
 20
6.264280
  0
SEQEND
  8
0
  0
SOLID
  8
0
 62
    15
 10
3.778720
 20
6.241400
 11
3.779600
 21
6.995560
 12
3.819640
 22
6.220720
 13
3.820520
 23
6.975320
  0
POLYLINE
  8
0
  6
CONTINUOUS
 66
     1
 40
0.000000
 41
0.000000
  0
VERTEX
  8
0
  6
CONTINUOUS
 10
3.778720
 20
6.241400
  0
VERTEX
  8
0
  6
CONTINUOUS
 10
3.779600
 20
6.995560
  0
VERTEX
  8
0
  6
CONTINUOUS
 10
3.820520
 20
6.975320
  0
VERTEX
  8
0
  6
CONTINUOUS
 10
3.819640
 20
6.220720
  0
VERTEX
  8
0
  6
CONTINUOUS
 10
3.778720
 20
6.241400
  0
SEQEND
  8
0
  0
SOLID
  8
0
 62
    15
 10
3.819640
 20
6.220720
 11
3.820520
 21
6.975320
 12
3.846040
 22
6.212360
 13
3.846920
 23
6.966520
  0
POLYLINE
  8
0
  6
CONTINUOUS
 66
     1
 40
0.000000
 41
0.000000
  0
VERTEX
  8
0
  6
CONTINUOUS
 10
3.819640
 20
6.220720
  0
VERTEX
  8
0
  6
CONTINUOUS
 10
3.820520
 20
6.975320
  0
VERTEX
  8
0
  6
CONTINUOUS
 10
3.846920
 20
6.966520
  0
VERTEX
  8
0
  6
CONTINUOUS
 10
3.846040
 20
6.212360
  0
VERTEX
  8
0
  6
CONTINUOUS
 10
3.819640
 20
6.220720
  0
SEQEND
  8
0
  0
SOLID
  8
0
 62
    15
 10
3.846040
 20
6.212360
 11
3.846920
 21
6.966520
 12
3.877280
 22
6.204880
 13
3.877720
 23
6.959040
  0
POLYLINE
  8
0
  6
CONTINUOUS
 66
     1
 40
0.000000
 41
0.000000
  0
VERTEX
  8
0
  6
CONTINUOUS
 10
3.846040
 20
6.212360
  0
VERTEX
  8
0
  6
CONTINUOUS
 10
3.846920
 20
6.966520
  0
VERTEX
  8
0
  6
CONTINUOUS
 10
3.877720
 20
6.959040
  0
VERTEX
  8
0
  6
CONTINUOUS
 10
3.877280
 20
6.204880
  0
VERTEX
  8
0
  6
CONTINUOUS
 10
3.846040
 20
6.212360
  0
SEQEND
  8
0
  0
SOLID
  8
0
 62
    15
 10
3.877280
 20
6.204880
 11
3.877720
 21
6.959040
 12
3.912920
 22
6.198720
 13
3.913800
 23
6.953320
  0
POLYLINE
  8
0
  6
CONTINUOUS
 66
     1
 40
0.000000
 41
0.000000
  0
VERTEX
  8
0
  6
CONTINUOUS
 10
3.877280
 20
6.204880
  0
VERTEX
  8
0
  6
CONTINUOUS
 10
3.877720
 20
6.959040
  0
VERTEX
  8
0
  6
CONTINUOUS
 10
3.913800
 20
6.953320
  0
VERTEX
  8
0
  6
CONTINUOUS
 10
3.912920
 20
6.198720
  0
VERTEX
  8
0
  6
CONTINUOUS
 10
3.877280
 20
6.204880
  0
SEQEND
  8
0
  0
SOLID
  8
0
 62
    15
 10
3.912920
 20
6.198720
 11
3.913800
 21
6.953320
 12
3.953840
 22
6.194320
 13
3.954720
 23
6.948480
  0
POLYLINE
  8
0
  6
CONTINUOUS
 66
     1
 40
0.000000
 41
0.000000
  0
VERTEX
  8
0
  6
CONTINUOUS
 10
3.912920
 20
6.198720
  0
VERTEX
  8
0
  6
CONTINUOUS
 10
3.913800
 20
6.953320
  0
VERTEX
  8
0
  6
CONTINUOUS
 10
3.954720
 20
6.948480
  0
VERTEX
  8
0
  6
CONTINUOUS
 10
3.953840
 20
6.194320
  0
VERTEX
  8
0
  6
CONTINUOUS
 10
3.912920
 20
6.198720
  0
SEQEND
  8
0
  0
SOLID
  8
0
 62
    15
 10
3.953840
 20
6.194320
 11
3.954720
 21
6.948480
 12
4.000480
 22
6.191240
 13
4.001360
 23
6.945840
  0
POLYLINE
  8
0
  6
CONTINUOUS
 66
     1
 40
0.000000
 41
0.000000
  0
VERTEX
  8
0
  6
CONTINUOUS
 10
3.953840
 20
6.194320
  0
VERTEX
  8
0
  6
CONTINUOUS
 10
3.954720
 20
6.948480
  0
VERTEX
  8
0
  6
CONTINUOUS
 10
4.001360
 20
6.945840
  0
VERTEX
  8
0
  6
CONTINUOUS
 10
4.000480
 20
6.191240
  0
VERTEX
  8
0
  6
CONTINUOUS
 10
3.953840
 20
6.194320
  0
SEQEND
  8
0
  0
SOLID
  8
0
 62
    15
 10
4.000480
 20
6.191240
 11
4.001360
 21
6.945840
 12
4.053280
 22
6.190360
 13
4.053720
 23
6.944960
  0
POLYLINE
  8
0
  6
CONTINUOUS
 66
     1
 40
0.000000
 41
0.000000
  0
VERTEX
  8
0
  6
CONTINUOUS
 10
4.000480
 20
6.191240
  0
VERTEX
  8
0
  6
CONTINUOUS
 10
4.001360
 20
6.945840
  0
VERTEX
  8
0
  6
CONTINUOUS
 10
4.053720
 20
6.944960
  0
VERTEX
  8
0
  6
CONTINUOUS
 10
4.053280
 20
6.190360
  0
VERTEX
  8
0
  6
CONTINUOUS
 10
4.000480
 20
6.191240
  0
SEQEND
  8
0
  0
SOLID
  8
0
 62
    15
 10
3.087040
 20
6.342600
 11
3.087920
 21
7.096760
 12
3.087040
 22
5.720000
 13
3.087920
 23
6.474600
  0
POLYLINE
  8
0
  6
CONTINUOUS
 66
     1
 40
0.000000
 41
0.000000
  0
VERTEX
  8
0
  6
CONTINUOUS
 10
3.087040
 20
6.342600
  0
VERTEX
  8
0
  6
CONTINUOUS
 10
3.087920
 20
7.096760
  0
VERTEX
  8
0
  6
CONTINUOUS
 10
3.087920
 20
6.474600
  0
VERTEX
  8
0
  6
CONTINUOUS
 10
3.087040
 20
5.720000
  0
VERTEX
  8
0
  6
CONTINUOUS
 10
3.087040
 20
6.342600
  0
SEQEND
  8
0
  0
SOLID
  8
0
 62
    15
 10
2.721400
 20
6.607040
 11
2.722280
 21
7.361640
 12
2.724480
 22
6.626840
 13
2.725360
 23
7.381440
  0
POLYLINE
  8
0
  6
CONTINUOUS
 66
     1
 40
0.000000
 41
0.000000
  0
VERTEX
  8
0
  6
CONTINUOUS
 10
2.721400
 20
6.607040
  0
VERTEX
  8
0
  6
CONTINUOUS
 10
2.722280
 20
7.361640
  0
VERTEX
  8
0
  6
CONTINUOUS
 10
2.725360
 20
7.381440
  0
VERTEX
  8
0
  6
CONTINUOUS
 10
2.724480
 20
6.626840
  0
VERTEX
  8
0
  6
CONTINUOUS
 10
2.721400
 20
6.607040
  0
SEQEND
  8
0
  0
SOLID
  8
0
 62
    15
 10
2.724480
 20
6.626840
 11
2.725360
 21
7.381440
 12
2.732840
 22
6.635200
 13
2.733720
 23
7.389360
  0
POLYLINE
  8
0
  6
CONTINUOUS
 66
     1
 40
0.000000
 41
0.000000
  0
VERTEX
  8
0
  6
CONTINUOUS
 10
2.724480
 20
6.626840
  0
VERTEX
  8
0
  6
CONTINUOUS
 10
2.725360
 20
7.381440
  0
VERTEX
  8
0
  6
CONTINUOUS
 10
2.733720
 20
7.389360
  0
VERTEX
  8
0
  6
CONTINUOUS
 10
2.732840
 20
6.635200
  0
VERTEX
  8
0
  6
CONTINUOUS
 10
2.724480
 20
6.626840
  0
SEQEND
  8
0
  0
SOLID
  8
0
 62
    15
 10
2.732840
 20
6.635200
 11
2.733720
 21
7.389360
 12
2.753080
 22
6.637840
 13
2.753960
 23
7.392000
  0
POLYLINE
  8
0
  6
CONTINUOUS
 66
     1
 40
0.000000
 41
0.000000
  0
VERTEX
  8
0
  6
CONTINUOUS
 10
2.732840
 20
6.635200
  0
VERTEX
  8
0
  6
CONTINUOUS
 10
2.733720
 20
7.389360
  0
VERTEX
  8
0
  6
CONTINUOUS
 10
2.753960
 20
7.392000
  0
VERTEX
  8
0
  6
CONTINUOUS
 10
2.753080
 20
6.637840
  0
VERTEX
  8
0
  6
CONTINUOUS
 10
2.732840
 20
6.635200
  0
SEQEND
  8
0
  0
SOLID
  8
0
 62
    15
 10
2.753080
 20
6.637840
 11
2.753960
 21
7.392000
 12
3.258640
 22
6.637840
 13
3.259520
 23
7.392000
  0
POLYLINE
  8
0
  6
CONTINUOUS
 66
     1
 40
0.000000
 41
0.000000
  0
VERTEX
  8
0
  6
CONTINUOUS
 10
2.753080
 20
6.637840
  0
VERTEX
  8
0
  6
CONTINUOUS
 10
2.753960
 20
7.392000
  0
VERTEX
  8
0
  6
CONTINUOUS
 10
3.259520
 20
7.392000
  0
VERTEX
  8
0
  6
CONTINUOUS
 10
3.258640
 20
6.637840
  0
VERTEX
  8
0
  6
CONTINUOUS
 10
2.753080
 20
6.637840
  0
SEQEND
  8
0
  0
SOLID
  8
0
 62
    15
 10
3.258640
 20
6.637840
 11
3.259520
 21
7.392000
 12
3.265240
 22
6.604840
 13
3.266120
 23
7.359000
  0
POLYLINE
  8
0
  6
CONTINUOUS
 66
     1
 40
0.000000
 41
0.000000
  0
VERTEX
  8
0
  6
CONTINUOUS
 10
3.258640
 20
6.637840
  0
VERTEX
  8
0
  6
CONTINUOUS
 10
3.259520
 20
7.392000
  0
VERTEX
  8
0
  6
CONTINUOUS
 10
3.266120
 20
7.359000
  0
VERTEX
  8
0
  6
CONTINUOUS
 10
3.265240
 20
6.604840
  0
VERTEX
  8
0
  6
CONTINUOUS
 10
3.258640
 20
6.637840
  0
SEQEND
  8
0
  0
SOLID
  8
0
 62
    15
 10
3.265240
 20
6.604840
 11
3.266120
 21
7.359000
 12
3.278880
 22
6.572280
 13
3.279760
 23
7.326880
  0
POLYLINE
  8
0
  6
CONTINUOUS
 66
     1
 40
0.000000
 41
0.000000
  0
VERTEX
  8
0
  6
CONTINUOUS
 10
3.265240
 20
6.604840
  0
VERTEX
  8
0
  6
CONTINUOUS
 10
3.266120
 20
7.359000
  0
VERTEX
  8
0
  6
CONTINUOUS
 10
3.279760
 20
7.326880
  0
VERTEX
  8
0
  6
CONTINUOUS
 10
3.278880
 20
6.572280
  0
VERTEX
  8
0
  6
CONTINUOUS
 10
3.265240
 20
6.604840
  0
SEQEND
  8
0
  0
SOLID
  8
0
 62
    15
 10
3.278880
 20
6.572280
 11
3.279760
 21
7.326880
 12
3.300880
 22
6.541920
 13
3.301760
 23
7.296080
  0
POLYLINE
  8
0
  6
CONTINUOUS
 66
     1
 40
0.000000
 41
0.000000
  0
VERTEX
  8
0
  6
CONTINUOUS
 10
3.278880
 20
6.572280
  0
VERTEX
  8
0
  6
CONTINUOUS
 10
3.279760
 20
7.326880
  0
VERTEX
  8
0
  6
CONTINUOUS
 10
3.301760
 20
7.296080
  0
VERTEX
  8
0
  6
CONTINUOUS
 10
3.300880
 20
6.541920
  0
VERTEX
  8
0
  6
CONTINUOUS
 10
3.278880
 20
6.572280
  0
SEQEND
  8
0
  0
SOLID
  8
0
 62
    15
 10
3.300880
 20
6.541920
 11
3.301760
 21
7.296080
 12
3.332560
 22
6.514200
 13
3.333440
 23
7.268360
  0
POLYLINE
  8
0
  6
CONTINUOUS
 66
     1
 40
0.000000
 41
0.000000
  0
VERTEX
  8
0
  6
CONTINUOUS
 10
3.300880
 20
6.541920
  0
VERTEX
  8
0
  6
CONTINUOUS
 10
3.301760
 20
7.296080
  0
VERTEX
  8
0
  6
CONTINUOUS
 10
3.333440
 20
7.268360
  0
VERTEX
  8
0
  6
CONTINUOUS
 10
3.332560
 20
6.514200
  0
VERTEX
  8
0
  6
CONTINUOUS
 10
3.300880
 20
6.541920
  0
SEQEND
  8
0
  0
SOLID
  8
0
 62
    15
 10
3.332560
 20
6.514200
 11
3.333440
 21
7.268360
 12
3.375240
 22
6.490440
 13
3.375680
 23
7.245040
  0
POLYLINE
  8
0
  6
CONTINUOUS
 66
     1
 40
0.000000
 41
0.000000
  0
VERTEX
  8
0
  6
CONTINUOUS
 10
3.332560
 20
6.514200
  0
VERTEX
  8
0
  6
CONTINUOUS
 10
3.333440
 20
7.268360
  0
VERTEX
  8
0
  6
CONTINUOUS
 10
3.375680
 20
7.245040
  0
VERTEX
  8
0
  6
CONTINUOUS
 10
3.375240
 20
6.490440
  0
VERTEX
  8
0
  6
CONTINUOUS
 10
3.332560
 20
6.514200
  0
SEQEND
  8
0
  0
SOLID
  8
0
 62
    15
 10
3.375240
 20
6.490440
 11
3.375680
 21
7.245040
 12
3.429800
 22
6.472400
 13
3.430680
 23
7.226560
  0
POLYLINE
  8
0
  6
CONTINUOUS
 66
     1
 40
0.000000
 41
0.000000
  0
VERTEX
  8
0
  6
CONTINUOUS
 10
3.375240
 20
6.490440
  0
VERTEX
  8
0
  6
CONTINUOUS
 10
3.375680
 20
7.245040
  0
VERTEX
  8
0
  6
CONTINUOUS
 10
3.430680
 20
7.226560
  0
VERTEX
  8
0
  6
CONTINUOUS
 10
3.429800
 20
6.472400
  0
VERTEX
  8
0
  6
CONTINUOUS
 10
3.375240
 20
6.490440
  0
SEQEND
  8
0
  0
SOLID
  8
0
 62
    15
 10
3.429800
 20
6.472400
 11
3.430680
 21
7.226560
 12
3.498000
 22
6.460520
 13
3.498880
 23
7.214680
  0
POLYLINE
  8
0
  6
CONTINUOUS
 66
     1
 40
0.000000
 41
0.000000
  0
VERTEX
  8
0
  6
CONTINUOUS
 10
3.429800
 20
6.472400
  0
VERTEX
  8
0
  6
CONTINUOUS
 10
3.430680
 20
7.226560
  0
VERTEX
  8
0
  6
CONTINUOUS
 10
3.498880
 20
7.214680
  0
VERTEX
  8
0
  6
CONTINUOUS
 10
3.498000
 20
6.460520
  0
VERTEX
  8
0
  6
CONTINUOUS
 10
3.429800
 20
6.472400
  0
SEQEND
  8
0
  0
SOLID
  8
0
 62
    15
 10
3.498000
 20
6.460520
 11
3.498880
 21
7.214680
 12
3.537600
 22
6.457440
 13
3.538480
 23
7.211600
  0
POLYLINE
  8
0
  6
CONTINUOUS
 66
     1
 40
0.000000
 41
0.000000
  0
VERTEX
  8
0
  6
CONTINUOUS
 10
3.498000
 20
6.460520
  0
VERTEX
  8
0
  6
CONTINUOUS
 10
3.498880
 20
7.214680
  0
VERTEX
  8
0
  6
CONTINUOUS
 10
3.538480
 20
7.211600
  0
VERTEX
  8
0
  6
CONTINUOUS
 10
3.537600
 20
6.457440
  0
VERTEX
  8
0
  6
CONTINUOUS
 10
3.498000
 20
6.460520
  0
SEQEND
  8
0
  0
SOLID
  8
0
 62
    15
 10
3.537600
 20
6.457440
 11
3.538480
 21
7.211600
 12
3.581160
 22
6.456560
 13
3.582040
 23
7.210720
  0
POLYLINE
  8
0
  6
CONTINUOUS
 66
     1
 40
0.000000
 41
0.000000
  0
VERTEX
  8
0
  6
CONTINUOUS
 10
3.537600
 20
6.457440
  0
VERTEX
  8
0
  6
CONTINUOUS
 10
3.538480
 20
7.211600
  0
VERTEX
  8
0
  6
CONTINUOUS
 10
3.582040
 20
7.210720
  0
VERTEX
  8
0
  6
CONTINUOUS
 10
3.581160
 20
6.456560
  0
VERTEX
  8
0
  6
CONTINUOUS
 10
3.537600
 20
6.457440
  0
SEQEND
  8
0
  0
SOLID
  8
0
 62
    15
 10
3.581160
 20
6.456560
 11
3.582040
 21
7.210720
 12
3.582480
 22
6.456560
 13
3.582920
 23
7.211160
  0
POLYLINE
  8
0
  6
CONTINUOUS
 66
     1
 40
0.000000
 41
0.000000
  0
VERTEX
  8
0
  6
CONTINUOUS
 10
3.581160
 20
6.456560
  0
VERTEX
  8
0
  6
CONTINUOUS
 10
3.582040
 20
7.210720
  0
VERTEX
  8
0
  6
CONTINUOUS
 10
3.582920
 20
7.211160
  0
VERTEX
  8
0
  6
CONTINUOUS
 10
3.582480
 20
6.456560
  0
VERTEX
  8
0
  6
CONTINUOUS
 10
3.581160
 20
6.456560
  0
SEQEND
  8
0
  0
SOLID
  8
0
 62
    15
 10
3.582480
 20
6.456560
 11
3.582920
 21
7.211160
 12
3.583800
 22
6.481640
 13
3.584680
 23
7.235800
  0
POLYLINE
  8
0
  6
CONTINUOUS
 66
     1
 40
0.000000
 41
0.000000
  0
VERTEX
  8
0
  6
CONTINUOUS
 10
3.582480
 20
6.456560
  0
VERTEX
  8
0
  6
CONTINUOUS
 10
3.582920
 20
7.211160
  0
VERTEX
  8
0
  6
CONTINUOUS
 10
3.584680
 20
7.235800
  0
VERTEX
  8
0
  6
CONTINUOUS
 10
3.583800
 20
6.481640
  0
VERTEX
  8
0
  6
CONTINUOUS
 10
3.582480
 20
6.456560
  0
SEQEND
  8
0
  0
SOLID
  8
0
 62
    15
 10
3.583800
 20
6.481640
 11
3.584680
 21
7.235800
 12
3.590400
 22
6.505400
 13
3.590840
 23
7.259560
  0
POLYLINE
  8
0
  6
CONTINUOUS
 66
     1
 40
0.000000
 41
0.000000
  0
VERTEX
  8
0
  6
CONTINUOUS
 10
3.583800
 20
6.481640
  0
VERTEX
  8
0
  6
CONTINUOUS
 10
3.584680
 20
7.235800
  0
VERTEX
  8
0
  6
CONTINUOUS
 10
3.590840
 20
7.259560
  0
VERTEX
  8
0
  6
CONTINUOUS
 10
3.590400
 20
6.505400
  0
VERTEX
  8
0
  6
CONTINUOUS
 10
3.583800
 20
6.481640
  0
SEQEND
  8
0
  0
SOLID
  8
0
 62
    15
 10
3.590400
 20
6.505400
 11
3.590840
 21
7.259560
 12
3.601400
 22
6.526960
 13
3.601840
 23
7.281120
  0
POLYLINE
  8
0
  6
CONTINUOUS
 66
     1
 40
0.000000
 41
0.000000
  0
VERTEX
  8
0
  6
CONTINUOUS
 10
3.590400
 20
6.505400
  0
VERTEX
  8
0
  6
CONTINUOUS
 10
3.590840
 20
7.259560
  0
VERTEX
  8
0
  6
CONTINUOUS
 10
3.601840
 20
7.281120
  0
VERTEX
  8
0
  6
CONTINUOUS
 10
3.601400
 20
6.526960
  0
VERTEX
  8
0
  6
CONTINUOUS
 10
3.590400
 20
6.505400
  0
SEQEND
  8
0
  0
SOLID
  8
0
 62
    15
 10
3.601400
 20
6.526960
 11
3.601840
 21
7.281120
 12
3.615920
 22
6.546320
 13
3.616800
 23
7.300480
  0
POLYLINE
  8
0
  6
CONTINUOUS
 66
     1
 40
0.000000
 41
0.000000
  0
VERTEX
  8
0
  6
CONTINUOUS
 10
3.601400
 20
6.526960
  0
VERTEX
  8
0
  6
CONTINUOUS
 10
3.601840
 20
7.281120
  0
VERTEX
  8
0
  6
CONTINUOUS
 10
3.616800
 20
7.300480
  0
VERTEX
  8
0
  6
CONTINUOUS
 10
3.615920
 20
6.546320
  0
VERTEX
  8
0
  6
CONTINUOUS
 10
3.601400
 20
6.526960
  0
SEQEND
  8
0
  0
SOLID
  8
0
 62
    15
 10
3.615920
 20
6.546320
 11
3.616800
 21
7.300480
 12
3.634400
 22
6.562160
 13
3.634840
 23
7.316760
  0
POLYLINE
  8
0
  6
CONTINUOUS
 66
     1
 40
0.000000
 41
0.000000
  0
VERTEX
  8
0
  6
CONTINUOUS
 10
3.615920
 20
6.546320
  0
VERTEX
  8
0
  6
CONTINUOUS
 10
3.616800
 20
7.300480
  0
VERTEX
  8
0
  6
CONTINUOUS
 10
3.634840
 20
7.316760
  0
VERTEX
  8
0
  6
CONTINUOUS
 10
3.634400
 20
6.562160
  0
VERTEX
  8
0
  6
CONTINUOUS
 10
3.615920
 20
6.546320
  0
SEQEND
  8
0
  0
SOLID
  8
0
 62
    15
 10
3.634400
 20
6.562160
 11
3.634840
 21
7.316760
 12
3.655080
 22
6.574480
 13
3.655960
 23
7.329080
  0
POLYLINE
  8
0
  6
CONTINUOUS
 66
     1
 40
0.000000
 41
0.000000
  0
VERTEX
  8
0
  6
CONTINUOUS
 10
3.634400
 20
6.562160
  0
VERTEX
  8
0
  6
CONTINUOUS
 10
3.634840
 20
7.316760
  0
VERTEX
  8
0
  6
CONTINUOUS
 10
3.655960
 20
7.329080
  0
VERTEX
  8
0
  6
CONTINUOUS
 10
3.655080
 20
6.574480
  0
VERTEX
  8
0
  6
CONTINUOUS
 10
3.634400
 20
6.562160
  0
SEQEND
  8
0
  0
SOLID
  8
0
 62
    15
 10
3.655080
 20
6.574480
 11
3.655960
 21
7.329080
 12
3.678840
 22
6.582400
 13
3.679280
 23
7.336560
  0
POLYLINE
  8
0
  6
CONTINUOUS
 66
     1
 40
0.000000
 41
0.000000
  0
VERTEX
  8
0
  6
CONTINUOUS
 10
3.655080
 20
6.574480
  0
VERTEX
  8
0
  6
CONTINUOUS
 10
3.655960
 20
7.329080
  0
VERTEX
  8
0
  6
CONTINUOUS
 10
3.679280
 20
7.336560
  0
VERTEX
  8
0
  6
CONTINUOUS
 10
3.678840
 20
6.582400
  0
VERTEX
  8
0
  6
CONTINUOUS
 10
3.655080
 20
6.574480
  0
SEQEND
  8
0
  0
SOLID
  8
0
 62
    15
 10
3.678840
 20
6.582400
 11
3.679280
 21
7.336560
 12
3.703920
 22
6.585040
 13
3.704360
 23
7.339640
  0
POLYLINE
  8
0
  6
CONTINUOUS
 66
     1
 40
0.000000
 41
0.000000
  0
VERTEX
  8
0
  6
CONTINUOUS
 10
3.678840
 20
6.582400
  0
VERTEX
  8
0
  6
CONTINUOUS
 10
3.679280
 20
7.336560
  0
VERTEX
  8
0
  6
CONTINUOUS
 10
3.704360
 20
7.339640
  0
VERTEX
  8
0
  6
CONTINUOUS
 10
3.703920
 20
6.585040
  0
VERTEX
  8
0
  6
CONTINUOUS
 10
3.678840
 20
6.582400
  0
SEQEND
  8
0
  0
SOLID
  8
0
 62
    15
 10
3.703920
 20
6.585040
 11
3.704360
 21
7.339640
 12
3.729000
 22
6.582840
 13
3.729880
 23
7.337000
  0
POLYLINE
  8
0
  6
CONTINUOUS
 66
     1
 40
0.000000
 41
0.000000
  0
VERTEX
  8
0
  6
CONTINUOUS
 10
3.703920
 20
6.585040
  0
VERTEX
  8
0
  6
CONTINUOUS
 10
3.704360
 20
7.339640
  0
VERTEX
  8
0
  6
CONTINUOUS
 10
3.729880
 20
7.337000
  0
VERTEX
  8
0
  6
CONTINUOUS
 10
3.729000
 20
6.582840
  0
VERTEX
  8
0
  6
CONTINUOUS
 10
3.703920
 20
6.585040
  0
SEQEND
  8
0
  0
SOLID
  8
0
 62
    15
 10
3.729000
 20
6.582840
 11
3.729880
 21
7.337000
 12
3.752760
 22
6.575800
 13
3.753200
 23
7.329960
  0
POLYLINE
  8
0
  6
CONTINUOUS
 66
     1
 40
0.000000
 41
0.000000
  0
VERTEX
  8
0
  6
CONTINUOUS
 10
3.729000
 20
6.582840
  0
VERTEX
  8
0
  6
CONTINUOUS
 10
3.729880
 20
7.337000
  0
VERTEX
  8
0
  6
CONTINUOUS
 10
3.753200
 20
7.329960
  0
VERTEX
  8
0
  6
CONTINUOUS
 10
3.752760
 20
6.575800
  0
VERTEX
  8
0
  6
CONTINUOUS
 10
3.729000
 20
6.582840
  0
SEQEND
  8
0
  0
SOLID
  8
0
 62
    15
 10
3.752760
 20
6.575800
 11
3.753200
 21
7.329960
 12
3.773880
 22
6.564800
 13
3.774320
 23
7.318960
  0
POLYLINE
  8
0
  6
CONTINUOUS
 66
     1
 40
0.000000
 41
0.000000
  0
VERTEX
  8
0
  6
CONTINUOUS
 10
3.752760
 20
6.575800
  0
VERTEX
  8
0
  6
CONTINUOUS
 10
3.753200
 20
7.329960
  0
VERTEX
  8
0
  6
CONTINUOUS
 10
3.774320
 20
7.318960
  0
VERTEX
  8
0
  6
CONTINUOUS
 10
3.773880
 20
6.564800
  0
VERTEX
  8
0
  6
CONTINUOUS
 10
3.752760
 20
6.575800
  0
SEQEND
  8
0
  0
SOLID
  8
0
 62
    15
 10
3.773880
 20
6.564800
 11
3.774320
 21
7.318960
 12
3.792360
 22
6.549840
 13
3.793240
 23
7.304440
  0
POLYLINE
  8
0
  6
CONTINUOUS
 66
     1
 40
0.000000
 41
0.000000
  0
VERTEX
  8
0
  6
CONTINUOUS
 10
3.773880
 20
6.564800
  0
VERTEX
  8
0
  6
CONTINUOUS
 10
3.774320
 20
7.318960
  0
VERTEX
  8
0
  6
CONTINUOUS
 10
3.793240
 20
7.304440
  0
VERTEX
  8
0
  6
CONTINUOUS
 10
3.792360
 20
6.549840
  0
VERTEX
  8
0
  6
CONTINUOUS
 10
3.773880
 20
6.564800
  0
SEQEND
  8
0
  0
SOLID
  8
0
 62
    15
 10
3.792360
 20
6.549840
 11
3.793240
 21
7.304440
 12
3.807760
 22
6.532240
 13
3.808200
 23
7.286400
  0
POLYLINE
  8
0
  6
CONTINUOUS
 66
     1
 40
0.000000
 41
0.000000
  0
VERTEX
  8
0
  6
CONTINUOUS
 10
3.792360
 20
6.549840
  0
VERTEX
  8
0
  6
CONTINUOUS
 10
3.793240
 20
7.304440
  0
VERTEX
  8
0
  6
CONTINUOUS
 10
3.808200
 20
7.286400
  0
VERTEX
  8
0
  6
CONTINUOUS
 10
3.807760
 20
6.532240
  0
VERTEX
  8
0
  6
CONTINUOUS
 10
3.792360
 20
6.549840
  0
SEQEND
  8
0
  0
SOLID
  8
0
 62
    15
 10
3.807760
 20
6.532240
 11
3.808200
 21
7.286400
 12
3.819200
 22
6.511560
 13
3.819640
 23
7.266160
  0
POLYLINE
  8
0
  6
CONTINUOUS
 66
     1
 40
0.000000
 41
0.000000
  0
VERTEX
  8
0
  6
CONTINUOUS
 10
3.807760
 20
6.532240
  0
VERTEX
  8
0
  6
CONTINUOUS
 10
3.808200
 20
7.286400
  0
VERTEX
  8
0
  6
CONTINUOUS
 10
3.819640
 20
7.266160
  0
VERTEX
  8
0
  6
CONTINUOUS
 10
3.819200
 20
6.511560
  0
VERTEX
  8
0
  6
CONTINUOUS
 10
3.807760
 20
6.532240
  0
SEQEND
  8
0
  0
SOLID
  8
0
 62
    15
 10
3.819200
 20
6.511560
 11
3.819640
 21
7.266160
 12
3.826240
 22
6.489120
 13
3.827120
 23
7.243280
  0
POLYLINE
  8
0
  6
CONTINUOUS
 66
     1
 40
0.000000
 41
0.000000
  0
VERTEX
  8
0
  6
CONTINUOUS
 10
3.819200
 20
6.511560
  0
VERTEX
  8
0
  6
CONTINUOUS
 10
3.819640
 20
7.266160
  0
VERTEX
  8
0
  6
CONTINUOUS
 10
3.827120
 20
7.243280
  0
VERTEX
  8
0
  6
CONTINUOUS
 10
3.826240
 20
6.489120
  0
VERTEX
  8
0
  6
CONTINUOUS
 10
3.819200
 20
6.511560
  0
SEQEND
  8
0
  0
SOLID
  8
0
 62
    15
 10
3.826240
 20
6.489120
 11
3.827120
 21
7.243280
 12
3.828880
 22
6.464920
 13
3.829760
 23
7.219080
  0
POLYLINE
  8
0
  6
CONTINUOUS
 66
     1
 40
0.000000
 41
0.000000
  0
VERTEX
  8
0
  6
CONTINUOUS
 10
3.826240
 20
6.489120
  0
VERTEX
  8
0
  6
CONTINUOUS
 10
3.827120
 20
7.243280
  0
VERTEX
  8
0
  6
CONTINUOUS
 10
3.829760
 20
7.219080
  0
VERTEX
  8
0
  6
CONTINUOUS
 10
3.828880
 20
6.464920
  0
VERTEX
  8
0
  6
CONTINUOUS
 10
3.826240
 20
6.489120
  0
SEQEND
  8
0
  0
POLYLINE
  8
0
  6
CONTINUOUS
 66
     1
 40
0.000000
 41
0.000000
  0
VERTEX
  8
0
  6
CONTINUOUS
 10
4.047560
 20
6.190360
  0
VERTEX
  8
0
  6
CONTINUOUS
 10
4.131160
 20
6.190360
  0
VERTEX
  8
0
  6
CONTINUOUS
 10
4.126760
 20
6.189920
  0
VERTEX
  8
0
  6
CONTINUOUS
 10
4.179560
 20
6.190800
  0
VERTEX
  8
0
  6
CONTINUOUS
 10
4.226200
 20
6.193880
  0
VERTEX
  8
0
  6
CONTINUOUS
 10
4.267120
 20
6.198280
  0
VERTEX
  8
0
  6
CONTINUOUS
 10
4.303200
 20
6.204440
  0
VERTEX
  8
0
  6
CONTINUOUS
 10
4.334000
 20
6.211920
  0
VERTEX
  8
0
  6
CONTINUOUS
 10
4.360400
 20
6.220280
  0
VERTEX
  8
0
  6
CONTINUOUS
 10
4.401320
 20
6.240520
  0
VERTEX
  8
0
  6
CONTINUOUS
 10
4.428160
 20
6.263840
  0
VERTEX
  8
0
  6
CONTINUOUS
 10
4.444440
 20
6.288920
  0
VERTEX
  8
0
  6
CONTINUOUS
 10
4.451920
 20
6.314000
  0
VERTEX
  8
0
  6
CONTINUOUS
 10
4.454560
 20
6.338640
  0
VERTEX
  8
0
  6
CONTINUOUS
 10
4.506040
 20
6.338640
  0
VERTEX
  8
0
  6
CONTINUOUS
 10
4.528480
 20
6.368560
  0
VERTEX
  8
0
  6
CONTINUOUS
 10
4.557960
 20
6.394080
  0
VERTEX
  8
0
  6
CONTINUOUS
 10
4.594480
 20
6.412120
  0
VERTEX
  8
0
  6
CONTINUOUS
 10
4.638920
 20
6.419160
  0
VERTEX
  8
0
  6
CONTINUOUS
 10
4.664000
 20
6.417400
  0
VERTEX
  8
0
  6
CONTINUOUS
 10
4.691720
 20
6.411680
  0
VERTEX
  8
0
  6
CONTINUOUS
 10
4.721200
 20
6.401560
  0
VERTEX
  8
0
  6
CONTINUOUS
 10
4.753320
 20
6.387040
  0
VERTEX
  8
0
  6
CONTINUOUS
 10
4.787640
 20
6.366800
  0
VERTEX
  8
0
  6
CONTINUOUS
 10
4.824160
 20
6.341280
  0
VERTEX
  8
0
  6
CONTINUOUS
 10
4.863760
 20
6.309600
  0
VERTEX
  8
0
  6
CONTINUOUS
 10
5.048120
 20
6.135800
  0
VERTEX
  8
0
  6
CONTINUOUS
 10
5.100480
 20
6.088720
  0
VERTEX
  8
0
  6
CONTINUOUS
 10
5.143600
 20
6.053080
  0
VERTEX
  8
0
  6
CONTINUOUS
 10
5.179680
 20
6.028440
  0
VERTEX
  8
0
  6
CONTINUOUS
 10
5.211360
 20
6.012160
  0
VERTEX
  8
0
  6
CONTINUOUS
 10
5.241280
 20
6.003800
  0
VERTEX
  8
0
  6
CONTINUOUS
 10
5.270760
 20
6.001160
  0
VERTEX
  8
0
  6
CONTINUOUS
 10
5.298480
 20
6.002920
  0
VERTEX
  8
0
  6
CONTINUOUS
 10
5.320480
 20
6.007320
  0
VERTEX
  8
0
  6
CONTINUOUS
 10
5.337640
 20
6.013920
  0
VERTEX
  8
0
  6
CONTINUOUS
 10
5.350400
 20
6.022720
  0
VERTEX
  8
0
  6
CONTINUOUS
 10
5.366240
 20
6.043840
  0
VERTEX
  8
0
  6
CONTINUOUS
 10
5.375040
 20
6.067160
  0
VERTEX
  8
0
  6
CONTINUOUS
 10
5.497360
 20
6.067160
  0
VERTEX
  8
0
  6
CONTINUOUS
 10
5.497360
 20
5.988400
  0
VERTEX
  8
0
  6
CONTINUOUS
 10
5.527720
 20
5.988840
  0
VERTEX
  8
0
  6
CONTINUOUS
 10
5.534320
 20
6.020520
  0
VERTEX
  8
0
  6
CONTINUOUS
 10
5.552360
 20
6.046040
  0
VERTEX
  8
0
  6
CONTINUOUS
 10
5.579640
 20
6.063640
  0
VERTEX
  8
0
  6
CONTINUOUS
 10
5.612200
 20
6.070240
  0
VERTEX
  8
0
  6
CONTINUOUS
 10
5.645200
 20
6.063640
  0
VERTEX
  8
0
  6
CONTINUOUS
 10
5.672040
 20
6.046040
  0
VERTEX
  8
0
  6
CONTINUOUS
 10
5.690520
 20
6.020520
  0
VERTEX
  8
0
  6
CONTINUOUS
 10
5.697120
 20
5.988840
  0
VERTEX
  8
0
  6
CONTINUOUS
 10
5.715160
 20
5.988840
  0
VERTEX
  8
0
  6
CONTINUOUS
 10
5.715160
 20
5.987960
  0
VERTEX
  8
0
  6
CONTINUOUS
 10
5.721760
 20
6.019640
  0
VERTEX
  8
0
  6
CONTINUOUS
 10
5.740240
 20
6.045600
  0
VERTEX
  8
0
  6
CONTINUOUS
 10
5.767080
 20
6.063200
  0
VERTEX
  8
0
  6
CONTINUOUS
 10
5.800080
 20
6.069360
  0
VERTEX
  8
0
  6
CONTINUOUS
 10
5.832640
 20
6.063200
  0
VERTEX
  8
0
  6
CONTINUOUS
 10
5.859480
 20
6.045600
  0
VERTEX
  8
0
  6
CONTINUOUS
 10
5.877960
 20
6.019640
  0
VERTEX
  8
0
  6
CONTINUOUS
 10
5.884560
 20
5.987960
  0
VERTEX
  8
0
  6
CONTINUOUS
 10
5.909640
 20
5.988400
  0
VERTEX
  8
0
  6
CONTINUOUS
 10
5.909640
 20
5.987960
  0
VERTEX
  8
0
  6
CONTINUOUS
 10
5.916240
 20
6.019640
  0
VERTEX
  8
0
  6
CONTINUOUS
 10
5.934280
 20
6.045600
  0
VERTEX
  8
0
  6
CONTINUOUS
 10
5.961120
 20
6.063200
  0
VERTEX
  8
0
  6
CONTINUOUS
 10
5.994120
 20
6.069360
  0
VERTEX
  8
0
  6
CONTINUOUS
 10
6.027120
 20
6.063200
  0
VERTEX
  8
0
  6
CONTINUOUS
 10
6.053960
 20
6.045600
  0
VERTEX
  8
0
  6
CONTINUOUS
 10
6.072000
 20
6.019640
  0
VERTEX
  8
0
  6
CONTINUOUS
 10
6.078600
 20
5.987960
  0
VERTEX
  8
0
  6
CONTINUOUS
 10
6.114240
 20
5.987960
  0
VERTEX
  8
0
  6
CONTINUOUS
 10
6.116440
 20
5.964640
  0
VERTEX
  8
0
  6
CONTINUOUS
 10
6.124360
 20
5.939560
  0
VERTEX
  8
0
  6
CONTINUOUS
 10
6.137560
 20
5.914920
  0
VERTEX
  8
0
  6
CONTINUOUS
 10
6.156480
 20
5.891160
  0
VERTEX
  8
0
  6
CONTINUOUS
 10
6.180240
 20
5.870920
  0
VERTEX
  8
0
  6
CONTINUOUS
 10
6.210160
 20
5.854200
  0
VERTEX
  8
0
  6
CONTINUOUS
 10
6.245800
 20
5.843640
  0
VERTEX
  8
0
  6
CONTINUOUS
 10
6.287160
 20
5.839680
  0
VERTEX
  8
0
  6
CONTINUOUS
 10
6.287160
 20
5.720440
  0
VERTEX
  8
0
  6
CONTINUOUS
 10
3.087920
 20
5.720440
  0
VERTEX
  8
0
  6
CONTINUOUS
 10
3.087920
 20
6.341720
  0
VERTEX
  8
0
  6
CONTINUOUS
 10
3.726360
 20
6.341720
  0
VERTEX
  8
0
  6
CONTINUOUS
 10
3.725480
 20
6.339080
  0
VERTEX
  8
0
  6
CONTINUOUS
 10
3.728120
 20
6.314440
  0
VERTEX
  8
0
  6
CONTINUOUS
 10
3.735600
 20
6.289360
  0
VERTEX
  8
0
  6
CONTINUOUS
 10
3.751880
 20
6.264280
  0
VERTEX
  8
0
  6
CONTINUOUS
 10
3.778720
 20
6.241400
  0
VERTEX
  8
0
  6
CONTINUOUS
 10
3.819640
 20
6.220720
  0
VERTEX
  8
0
  6
CONTINUOUS
 10
3.846040
 20
6.212360
  0
VERTEX
  8
0
  6
CONTINUOUS
 10
3.877280
 20
6.204880
  0
VERTEX
  8
0
  6
CONTINUOUS
 10
3.912920
 20
6.198720
  0
VERTEX
  8
0
  6
CONTINUOUS
 10
3.953840
 20
6.194320
  0
VERTEX
  8
0
  6
CONTINUOUS
 10
4.000480
 20
6.191240
  0
VERTEX
  8
0
  6
CONTINUOUS
 10
4.053280
 20
6.190360
  0
VERTEX
  8
0
  6
CONTINUOUS
 10
4.047560
 20
6.190360
  0
SEQEND
  8
0
  0
POLYLINE
  8
0
  6
CONTINUOUS
 66
     1
 40
0.000000
 41
0.000000
  0
VERTEX
  8
0
  6
CONTINUOUS
 10
3.725040
 20
6.342600
  0
VERTEX
  8
0
  6
CONTINUOUS
 10
3.087040
 20
6.342600
  0
VERTEX
  8
0
  6
CONTINUOUS
 10
3.087040
 20
5.720000
  0
VERTEX
  8
0
  6
CONTINUOUS
 10
2.721400
 20
5.720000
  0
VERTEX
  8
0
  6
CONTINUOUS
 10
2.721400
 20
6.607040
  0
VERTEX
  8
0
  6
CONTINUOUS
 10
2.724480
 20
6.626840
  0
VERTEX
  8
0
  6
CONTINUOUS
 10
2.732840
 20
6.635200
  0
VERTEX
  8
0
  6
CONTINUOUS
 10
2.753080
 20
6.637840
  0
VERTEX
  8
0
  6
CONTINUOUS
 10
3.258640
 20
6.637840
  0
VERTEX
  8
0
  6
CONTINUOUS
 10
3.265240
 20
6.604840
  0
VERTEX
  8
0
  6
CONTINUOUS
 10
3.278880
 20
6.572280
  0
VERTEX
  8
0
  6
CONTINUOUS
 10
3.300880
 20
6.541920
  0
VERTEX
  8
0
  6
CONTINUOUS
 10
3.332560
 20
6.514200
  0
VERTEX
  8
0
  6
CONTINUOUS
 10
3.375240
 20
6.490440
  0
VERTEX
  8
0
  6
CONTINUOUS
 10
3.429800
 20
6.472400
  0
VERTEX
  8
0
  6
CONTINUOUS
 10
3.498000
 20
6.460520
  0
VERTEX
  8
0
  6
CONTINUOUS
 10
3.537600
 20
6.457440
  0
VERTEX
  8
0
  6
CONTINUOUS
 10
3.581160
 20
6.456560
  0
VERTEX
  8
0
  6
CONTINUOUS
 10
3.582480
 20
6.456560
  0
VERTEX
  8
0
  6
CONTINUOUS
 10
3.583800
 20
6.481640
  0
VERTEX
  8
0
  6
CONTINUOUS
 10
3.590400
 20
6.505400
  0
VERTEX
  8
0
  6
CONTINUOUS
 10
3.601400
 20
6.526960
  0
VERTEX
  8
0
  6
CONTINUOUS
 10
3.615920
 20
6.546320
  0
VERTEX
  8
0
  6
CONTINUOUS
 10
3.634400
 20
6.562160
  0
VERTEX
  8
0
  6
CONTINUOUS
 10
3.655080
 20
6.574480
  0
VERTEX
  8
0
  6
CONTINUOUS
 10
3.678840
 20
6.582400
  0
VERTEX
  8
0
  6
CONTINUOUS
 10
3.703920
 20
6.585040
  0
VERTEX
  8
0
  6
CONTINUOUS
 10
3.729000
 20
6.582840
  0
VERTEX
  8
0
  6
CONTINUOUS
 10
3.752760
 20
6.575800
  0
VERTEX
  8
0
  6
CONTINUOUS
 10
3.773880
 20
6.564800
  0
VERTEX
  8
0
  6
CONTINUOUS
 10
3.792360
 20
6.549840
  0
VERTEX
  8
0
  6
CONTINUOUS
 10
3.807760
 20
6.532240
  0
VERTEX
  8
0
  6
CONTINUOUS
 10
3.819200
 20
6.511560
  0
VERTEX
  8
0
  6
CONTINUOUS
 10
3.826240
 20
6.489120
  0
VERTEX
  8
0
  6
CONTINUOUS
 10
3.828880
 20
6.464920
  0
VERTEX
  8
0
  6
CONTINUOUS
 10
3.820960
 20
6.422680
  0
VERTEX
  8
0
  6
CONTINUOUS
 10
3.799400
 20
6.385720
  0
VERTEX
  8
0
  6
CONTINUOUS
 10
3.766840
 20
6.358000
  0
VERTEX
  8
0
  6
CONTINUOUS
 10
3.726800
 20
6.342160
  0
VERTEX
  8
0
  6
CONTINUOUS
 10
3.725040
 20
6.342600
  0
SEQEND
  8
0
  0
TEXT
  8
0
 10
3.158760
 20
5.830440
 40
0.138263
  1
A
 41
1.000000
  7
SN0
 71
     0
 72
     5
 11
3.269798
 21
5.830440
  0
TEXT
  8
0
 10
2.804120
 20
5.830000
 40
0.138263
  1
B
 41
1.000000
  7
SN0
 71
     0
 72
     5
 11
2.915158
 21
5.830000
  0
TEXT
  8
0
 10
7.431160
 20
9.560760
 40
0.138263
  1
case
 41
1.000000
  7
SN0
 71
     0
 72
     5
 11
7.782782
 21
9.560760
  0
TEXT
  8
0
 10
7.301800
 20
9.368920
 40
0.138263
  1
726A&B
 41
1.000000
  7
SN0
 71
     0
 72
     5
 11
7.912511
 21
9.368920
  0
SOLID
  8
0
 62
     7
 10
4.589200
 20
3.581600
 11
4.595800
 21
4.312880
 12
4.651680
 22
3.585560
 13
4.657840
 23
4.316840
  0
POLYLINE
  8
0
  6
CONTINUOUS
 66
     1
 40
0.000000
 41
0.000000
  0
VERTEX
  8
0
  6
CONTINUOUS
 10
4.589200
 20
3.581600
  0
VERTEX
  8
0
  6
CONTINUOUS
 10
4.595800
 20
4.312880
  0
VERTEX
  8
0
  6
CONTINUOUS
 10
4.657840
 20
4.316840
  0
VERTEX
  8
0
  6
CONTINUOUS
 10
4.651680
 20
3.585560
  0
VERTEX
  8
0
  6
CONTINUOUS
 10
4.589200
 20
3.581600
  0
SEQEND
  8
0
  0
SOLID
  8
0
 62
    15
 10
3.332120
 20
3.731640
 11
3.338280
 21
4.462920
 12
3.342240
 22
3.701280
 13
3.348840
 23
4.432560
  0
POLYLINE
  8
0
  6
CONTINUOUS
 66
     1
 40
0.000000
 41
0.000000
  0
VERTEX
  8
0
  6
CONTINUOUS
 10
3.332120
 20
3.731640
  0
VERTEX
  8
0
  6
CONTINUOUS
 10
3.338280
 20
4.462920
  0
VERTEX
  8
0
  6
CONTINUOUS
 10
3.348840
 20
4.432560
  0
VERTEX
  8
0
  6
CONTINUOUS
 10
3.342240
 20
3.701280
  0
VERTEX
  8
0
  6
CONTINUOUS
 10
3.332120
 20
3.731640
  0
SEQEND
  8
0
  0
SOLID
  8
0
 62
    15
 10
3.342240
 20
3.701280
 11
3.348840
 21
4.432560
 12
3.357640
 22
3.674440
 13
3.363800
 23
4.405720
  0
POLYLINE
  8
0
  6
CONTINUOUS
 66
     1
 40
0.000000
 41
0.000000
  0
VERTEX
  8
0
  6
CONTINUOUS
 10
3.342240
 20
3.701280
  0
VERTEX
  8
0
  6
CONTINUOUS
 10
3.348840
 20
4.432560
  0
VERTEX
  8
0
  6
CONTINUOUS
 10
3.363800
 20
4.405720
  0
VERTEX
  8
0
  6
CONTINUOUS
 10
3.357640
 20
3.674440
  0
VERTEX
  8
0
  6
CONTINUOUS
 10
3.342240
 20
3.701280
  0
SEQEND
  8
0
  0
SOLID
  8
0
 62
    15
 10
3.357640
 20
3.674440
 11
3.363800
 21
4.405720
 12
3.378320
 22
3.651560
 13
3.384480
 23
4.382840
  0
POLYLINE
  8
0
  6
CONTINUOUS
 66
     1
 40
0.000000
 41
0.000000
  0
VERTEX
  8
0
  6
CONTINUOUS
 10
3.357640
 20
3.674440
  0
VERTEX
  8
0
  6
CONTINUOUS
 10
3.363800
 20
4.405720
  0
VERTEX
  8
0
  6
CONTINUOUS
 10
3.384480
 20
4.382840
  0
VERTEX
  8
0
  6
CONTINUOUS
 10
3.378320
 20
3.651560
  0
VERTEX
  8
0
  6
CONTINUOUS
 10
3.357640
 20
3.674440
  0
SEQEND
  8
0
  0
SOLID
  8
0
 62
    15
 10
3.378320
 20
3.651560
 11
3.384480
 21
4.382840
 12
3.405600
 22
3.632640
 13
3.411760
 23
4.363920
  0
POLYLINE
  8
0
  6
CONTINUOUS
 66
     1
 40
0.000000
 41
0.000000
  0
VERTEX
  8
0
  6
CONTINUOUS
 10
3.378320
 20
3.651560
  0
VERTEX
  8
0
  6
CONTINUOUS
 10
3.384480
 20
4.382840
  0
VERTEX
  8
0
  6
CONTINUOUS
 10
3.411760
 20
4.363920
  0
VERTEX
  8
0
  6
CONTINUOUS
 10
3.405600
 20
3.632640
  0
VERTEX
  8
0
  6
CONTINUOUS
 10
3.378320
 20
3.651560
  0
SEQEND
  8
0
  0
SOLID
  8
0
 62
    15
 10
3.405600
 20
3.632640
 11
3.411760
 21
4.363920
 12
3.439480
 22
3.618560
 13
3.445640
 23
4.349840
  0
POLYLINE
  8
0
  6
CONTINUOUS
 66
     1
 40
0.000000
 41
0.000000
  0
VERTEX
  8
0
  6
CONTINUOUS
 10
3.405600
 20
3.632640
  0
VERTEX
  8
0
  6
CONTINUOUS
 10
3.411760
 20
4.363920
  0
VERTEX
  8
0
  6
CONTINUOUS
 10
3.445640
 20
4.349840
  0
VERTEX
  8
0
  6
CONTINUOUS
 10
3.439480
 20
3.618560
  0
VERTEX
  8
0
  6
CONTINUOUS
 10
3.405600
 20
3.632640
  0
SEQEND
  8
0
  0
SOLID
  8
0
 62
     7
 10
3.439480
 20
3.618560
 11
3.445640
 21
4.349840
 12
3.480400
 22
3.610200
 13
3.486560
 23
4.341480
  0
POLYLINE
  8
0
  6
CONTINUOUS
 66
     1
 40
0.000000
 41
0.000000
  0
VERTEX
  8
0
  6
CONTINUOUS
 10
3.439480
 20
3.618560
  0
VERTEX
  8
0
  6
CONTINUOUS
 10
3.445640
 20
4.349840
  0
VERTEX
  8
0
  6
CONTINUOUS
 10
3.486560
 20
4.341480
  0
VERTEX
  8
0
  6
CONTINUOUS
 10
3.480400
 20
3.610200
  0
VERTEX
  8
0
  6
CONTINUOUS
 10
3.439480
 20
3.618560
  0
SEQEND
  8
0
  0
SOLID
  8
0
 62
    15
 10
3.480400
 20
3.610200
 11
3.486560
 21
4.341480
 12
3.492280
 22
3.639240
 13
3.498440
 23
4.370520
  0
POLYLINE
  8
0
  6
CONTINUOUS
 66
     1
 40
0.000000
 41
0.000000
  0
VERTEX
  8
0
  6
CONTINUOUS
 10
3.480400
 20
3.610200
  0
VERTEX
  8
0
  6
CONTINUOUS
 10
3.486560
 20
4.341480
  0
VERTEX
  8
0
  6
CONTINUOUS
 10
3.498440
 20
4.370520
  0
VERTEX
  8
0
  6
CONTINUOUS
 10
3.492280
 20
3.639240
  0
VERTEX
  8
0
  6
CONTINUOUS
 10
3.480400
 20
3.610200
  0
SEQEND
  8
0
  0
SOLID
  8
0
 62
    15
 10
3.492280
 20
3.639240
 11
3.498440
 21
4.370520
 12
3.508560
 22
3.664760
 13
3.514720
 23
4.396040
  0
POLYLINE
  8
0
  6
CONTINUOUS
 66
     1
 40
0.000000
 41
0.000000
  0
VERTEX
  8
0
  6
CONTINUOUS
 10
3.492280
 20
3.639240
  0
VERTEX
  8
0
  6
CONTINUOUS
 10
3.498440
 20
4.370520
  0
VERTEX
  8
0
  6
CONTINUOUS
 10
3.514720
 20
4.396040
  0
VERTEX
  8
0
  6
CONTINUOUS
 10
3.508560
 20
3.664760
  0
VERTEX
  8
0
  6
CONTINUOUS
 10
3.492280
 20
3.639240
  0
SEQEND
  8
0
  0
SOLID
  8
0
 62
    15
 10
3.508560
 20
3.664760
 11
3.514720
 21
4.396040
 12
3.553440
 22
3.703920
 13
3.559600
 23
4.435200
  0
POLYLINE
  8
0
  6
CONTINUOUS
 66
     1
 40
0.000000
 41
0.000000
  0
VERTEX
  8
0
  6
CONTINUOUS
 10
3.508560
 20
3.664760
  0
VERTEX
  8
0
  6
CONTINUOUS
 10
3.514720
 20
4.396040
  0
VERTEX
  8
0
  6
CONTINUOUS
 10
3.559600
 20
4.435200
  0
VERTEX
  8
0
  6
CONTINUOUS
 10
3.553440
 20
3.703920
  0
VERTEX
  8
0
  6
CONTINUOUS
 10
3.508560
 20
3.664760
  0
SEQEND
  8
0
  0
SOLID
  8
0
 62
    15
 10
3.553440
 20
3.703920
 11
3.559600
 21
4.435200
 12
3.609760
 22
3.728120
 13
3.615920
 23
4.459400
  0
POLYLINE
  8
0
  6
CONTINUOUS
 66
     1
 40
0.000000
 41
0.000000
  0
VERTEX
  8
0
  6
CONTINUOUS
 10
3.553440
 20
3.703920
  0
VERTEX
  8
0
  6
CONTINUOUS
 10
3.559600
 20
4.435200
  0
VERTEX
  8
0
  6
CONTINUOUS
 10
3.615920
 20
4.459400
  0
VERTEX
  8
0
  6
CONTINUOUS
 10
3.609760
 20
3.728120
  0
VERTEX
  8
0
  6
CONTINUOUS
 10
3.553440
 20
3.703920
  0
SEQEND
  8
0
  0
SOLID
  8
0
 62
     7
 10
3.609760
 20
3.728120
 11
3.615920
 21
4.459400
 12
3.673120
 22
3.736920
 13
3.679280
 23
4.468200
  0
POLYLINE
  8
0
  6
CONTINUOUS
 66
     1
 40
0.000000
 41
0.000000
  0
VERTEX
  8
0
  6
CONTINUOUS
 10
3.609760
 20
3.728120
  0
VERTEX
  8
0
  6
CONTINUOUS
 10
3.615920
 20
4.459400
  0
VERTEX
  8
0
  6
CONTINUOUS
 10
3.679280
 20
4.468200
  0
VERTEX
  8
0
  6
CONTINUOUS
 10
3.673120
 20
3.736920
  0
VERTEX
  8
0
  6
CONTINUOUS
 10
3.609760
 20
3.728120
  0
SEQEND
  8
0
  0
SOLID
  8
0
 62
     7
 10
3.673120
 20
3.736920
 11
3.679280
 21
4.468200
 12
3.738240
 22
3.730320
 13
3.744400
 23
4.461600
  0
POLYLINE
  8
0
  6
CONTINUOUS
 66
     1
 40
0.000000
 41
0.000000
  0
VERTEX
  8
0
  6
CONTINUOUS
 10
3.673120
 20
3.736920
  0
VERTEX
  8
0
  6
CONTINUOUS
 10
3.679280
 20
4.468200
  0
VERTEX
  8
0
  6
CONTINUOUS
 10
3.744400
 20
4.461600
  0
VERTEX
  8
0
  6
CONTINUOUS
 10
3.738240
 20
3.730320
  0
VERTEX
  8
0
  6
CONTINUOUS
 10
3.673120
 20
3.736920
  0
SEQEND
  8
0
  0
SOLID
  8
0
 62
    15
 10
3.738240
 20
3.730320
 11
3.744400
 21
4.461600
 12
3.800720
 22
3.707880
 13
3.806880
 23
4.439160
  0
POLYLINE
  8
0
  6
CONTINUOUS
 66
     1
 40
0.000000
 41
0.000000
  0
VERTEX
  8
0
  6
CONTINUOUS
 10
3.738240
 20
3.730320
  0
VERTEX
  8
0
  6
CONTINUOUS
 10
3.744400
 20
4.461600
  0
VERTEX
  8
0
  6
CONTINUOUS
 10
3.806880
 20
4.439160
  0
VERTEX
  8
0
  6
CONTINUOUS
 10
3.800720
 20
3.707880
  0
VERTEX
  8
0
  6
CONTINUOUS
 10
3.738240
 20
3.730320
  0
SEQEND
  8
0
  0
SOLID
  8
0
 62
    15
 10
3.800720
 20
3.707880
 11
3.806880
 21
4.439160
 12
3.854840
 22
3.669600
 13
3.861000
 23
4.400880
  0
POLYLINE
  8
0
  6
CONTINUOUS
 66
     1
 40
0.000000
 41
0.000000
  0
VERTEX
  8
0
  6
CONTINUOUS
 10
3.800720
 20
3.707880
  0
VERTEX
  8
0
  6
CONTINUOUS
 10
3.806880
 20
4.439160
  0
VERTEX
  8
0
  6
CONTINUOUS
 10
3.861000
 20
4.400880
  0
VERTEX
  8
0
  6
CONTINUOUS
 10
3.854840
 20
3.669600
  0
VERTEX
  8
0
  6
CONTINUOUS
 10
3.800720
 20
3.707880
  0
SEQEND
  8
0
  0
SOLID
  8
0
 62
    15
 10
3.854840
 20
3.669600
 11
3.861000
 21
4.400880
 12
3.877720
 22
3.644080
 13
3.883880
 23
4.375360
  0
POLYLINE
  8
0
  6
CONTINUOUS
 66
     1
 40
0.000000
 41
0.000000
  0
VERTEX
  8
0
  6
CONTINUOUS
 10
3.854840
 20
3.669600
  0
VERTEX
  8
0
  6
CONTINUOUS
 10
3.861000
 20
4.400880
  0
VERTEX
  8
0
  6
CONTINUOUS
 10
3.883880
 20
4.375360
  0
VERTEX
  8
0
  6
CONTINUOUS
 10
3.877720
 20
3.644080
  0
VERTEX
  8
0
  6
CONTINUOUS
 10
3.854840
 20
3.669600
  0
SEQEND
  8
0
  0
SOLID
  8
0
 62
    15
 10
3.877720
 20
3.644080
 11
3.883880
 21
4.375360
 12
3.896200
 22
3.614600
 13
3.902800
 23
4.345880
  0
POLYLINE
  8
0
  6
CONTINUOUS
 66
     1
 40
0.000000
 41
0.000000
  0
VERTEX
  8
0
  6
CONTINUOUS
 10
3.877720
 20
3.644080
  0
VERTEX
  8
0
  6
CONTINUOUS
 10
3.883880
 20
4.375360
  0
VERTEX
  8
0
  6
CONTINUOUS
 10
3.902800
 20
4.345880
  0
VERTEX
  8
0
  6
CONTINUOUS
 10
3.896200
 20
3.614600
  0
VERTEX
  8
0
  6
CONTINUOUS
 10
3.877720
 20
3.644080
  0
SEQEND
  8
0
  0
SOLID
  8
0
 62
    15
 10
3.896200
 20
3.614600
 11
3.902800
 21
4.345880
 12
3.927880
 22
3.557840
 13
3.934040
 23
4.289120
  0
POLYLINE
  8
0
  6
CONTINUOUS
 66
     1
 40
0.000000
 41
0.000000
  0
VERTEX
  8
0
  6
CONTINUOUS
 10
3.896200
 20
3.614600
  0
VERTEX
  8
0
  6
CONTINUOUS
 10
3.902800
 20
4.345880
  0
VERTEX
  8
0
  6
CONTINUOUS
 10
3.934040
 20
4.289120
  0
VERTEX
  8
0
  6
CONTINUOUS
 10
3.927880
 20
3.557840
  0
VERTEX
  8
0
  6
CONTINUOUS
 10
3.896200
 20
3.614600
  0
SEQEND
  8
0
  0
SOLID
  8
0
 62
    15
 10
3.927880
 20
3.557840
 11
3.934040
 21
4.289120
 12
3.956040
 22
3.512960
 13
3.962200
 23
4.244240
  0
POLYLINE
  8
0
  6
CONTINUOUS
 66
     1
 40
0.000000
 41
0.000000
  0
VERTEX
  8
0
  6
CONTINUOUS
 10
3.927880
 20
3.557840
  0
VERTEX
  8
0
  6
CONTINUOUS
 10
3.934040
 20
4.289120
  0
VERTEX
  8
0
  6
CONTINUOUS
 10
3.962200
 20
4.244240
  0
VERTEX
  8
0
  6
CONTINUOUS
 10
3.956040
 20
3.512960
  0
VERTEX
  8
0
  6
CONTINUOUS
 10
3.927880
 20
3.557840
  0
SEQEND
  8
0
  0
SOLID
  8
0
 62
    15
 10
3.956040
 20
3.512960
 11
3.962200
 21
4.244240
 12
3.983320
 22
3.477760
 13
3.989920
 23
4.209040
  0
POLYLINE
  8
0
  6
CONTINUOUS
 66
     1
 40
0.000000
 41
0.000000
  0
VERTEX
  8
0
  6
CONTINUOUS
 10
3.956040
 20
3.512960
  0
VERTEX
  8
0
  6
CONTINUOUS
 10
3.962200
 20
4.244240
  0
VERTEX
  8
0
  6
CONTINUOUS
 10
3.989920
 20
4.209040
  0
VERTEX
  8
0
  6
CONTINUOUS
 10
3.983320
 20
3.477760
  0
VERTEX
  8
0
  6
CONTINUOUS
 10
3.956040
 20
3.512960
  0
SEQEND
  8
0
  0
SOLID
  8
0
 62
    15
 10
3.983320
 20
3.477760
 11
3.989920
 21
4.209040
 12
4.012360
 22
3.451360
 13
4.018520
 23
4.182640
  0
POLYLINE
  8
0
  6
CONTINUOUS
 66
     1
 40
0.000000
 41
0.000000
  0
VERTEX
  8
0
  6
CONTINUOUS
 10
3.983320
 20
3.477760
  0
VERTEX
  8
0
  6
CONTINUOUS
 10
3.989920
 20
4.209040
  0
VERTEX
  8
0
  6
CONTINUOUS
 10
4.018520
 20
4.182640
  0
VERTEX
  8
0
  6
CONTINUOUS
 10
4.012360
 20
3.451360
  0
VERTEX
  8
0
  6
CONTINUOUS
 10
3.983320
 20
3.477760
  0
SEQEND
  8
0
  0
SOLID
  8
0
 62
    15
 10
4.012360
 20
3.451360
 11
4.018520
 21
4.182640
 12
4.044040
 22
3.432000
 13
4.050200
 23
4.163280
  0
POLYLINE
  8
0
  6
CONTINUOUS
 66
     1
 40
0.000000
 41
0.000000
  0
VERTEX
  8
0
  6
CONTINUOUS
 10
4.012360
 20
3.451360
  0
VERTEX
  8
0
  6
CONTINUOUS
 10
4.018520
 20
4.182640
  0
VERTEX
  8
0
  6
CONTINUOUS
 10
4.050200
 20
4.163280
  0
VERTEX
  8
0
  6
CONTINUOUS
 10
4.044040
 20
3.432000
  0
VERTEX
  8
0
  6
CONTINUOUS
 10
4.012360
 20
3.451360
  0
SEQEND
  8
0
  0
SOLID
  8
0
 62
    15
 10
4.044040
 20
3.432000
 11
4.050200
 21
4.163280
 12
4.081440
 22
3.418360
 13
4.087600
 23
4.149640
  0
POLYLINE
  8
0
  6
CONTINUOUS
 66
     1
 40
0.000000
 41
0.000000
  0
VERTEX
  8
0
  6
CONTINUOUS
 10
4.044040
 20
3.432000
  0
VERTEX
  8
0
  6
CONTINUOUS
 10
4.050200
 20
4.163280
  0
VERTEX
  8
0
  6
CONTINUOUS
 10
4.087600
 20
4.149640
  0
VERTEX
  8
0
  6
CONTINUOUS
 10
4.081440
 20
3.418360
  0
VERTEX
  8
0
  6
CONTINUOUS
 10
4.044040
 20
3.432000
  0
SEQEND
  8
0
  0
SOLID
  8
0
 62
     7
 10
4.081440
 20
3.418360
 11
4.087600
 21
4.149640
 12
4.126320
 22
3.408240
 13
4.132480
 23
4.139520
  0
POLYLINE
  8
0
  6
CONTINUOUS
 66
     1
 40
0.000000
 41
0.000000
  0
VERTEX
  8
0
  6
CONTINUOUS
 10
4.081440
 20
3.418360
  0
VERTEX
  8
0
  6
CONTINUOUS
 10
4.087600
 20
4.149640
  0
VERTEX
  8
0
  6
CONTINUOUS
 10
4.132480
 20
4.139520
  0
VERTEX
  8
0
  6
CONTINUOUS
 10
4.126320
 20
3.408240
  0
VERTEX
  8
0
  6
CONTINUOUS
 10
4.081440
 20
3.418360
  0
SEQEND
  8
0
  0
SOLID
  8
0
 62
     7
 10
4.126320
 20
3.408240
 11
4.132480
 21
4.139520
 12
4.180880
 22
3.400760
 13
4.187040
 23
4.132040
  0
POLYLINE
  8
0
  6
CONTINUOUS
 66
     1
 40
0.000000
 41
0.000000
  0
VERTEX
  8
0
  6
CONTINUOUS
 10
4.126320
 20
3.408240
  0
VERTEX
  8
0
  6
CONTINUOUS
 10
4.132480
 20
4.139520
  0
VERTEX
  8
0
  6
CONTINUOUS
 10
4.187040
 20
4.132040
  0
VERTEX
  8
0
  6
CONTINUOUS
 10
4.180880
 20
3.400760
  0
VERTEX
  8
0
  6
CONTINUOUS
 10
4.126320
 20
3.408240
  0
SEQEND
  8
0
  0
SOLID
  8
0
 62
     7
 10
4.180880
 20
3.400760
 11
4.187040
 21
4.132040
 12
4.227520
 22
3.404280
 13
4.233680
 23
4.135560
  0
POLYLINE
  8
0
  6
CONTINUOUS
 66
     1
 40
0.000000
 41
0.000000
  0
VERTEX
  8
0
  6
CONTINUOUS
 10
4.180880
 20
3.400760
  0
VERTEX
  8
0
  6
CONTINUOUS
 10
4.187040
 20
4.132040
  0
VERTEX
  8
0
  6
CONTINUOUS
 10
4.233680
 20
4.135560
  0
VERTEX
  8
0
  6
CONTINUOUS
 10
4.227520
 20
3.404280
  0
VERTEX
  8
0
  6
CONTINUOUS
 10
4.180880
 20
3.400760
  0
SEQEND
  8
0
  0
SOLID
  8
0
 62
     7
 10
4.227520
 20
3.404280
 11
4.233680
 21
4.135560
 12
4.268880
 22
3.413960
 13
4.275480
 23
4.145240
  0
POLYLINE
  8
0
  6
CONTINUOUS
 66
     1
 40
0.000000
 41
0.000000
  0
VERTEX
  8
0
  6
CONTINUOUS
 10
4.227520
 20
3.404280
  0
VERTEX
  8
0
  6
CONTINUOUS
 10
4.233680
 20
4.135560
  0
VERTEX
  8
0
  6
CONTINUOUS
 10
4.275480
 20
4.145240
  0
VERTEX
  8
0
  6
CONTINUOUS
 10
4.268880
 20
3.413960
  0
VERTEX
  8
0
  6
CONTINUOUS
 10
4.227520
 20
3.404280
  0
SEQEND
  8
0
  0
SOLID
  8
0
 62
    15
 10
4.268880
 20
3.413960
 11
4.275480
 21
4.145240
 12
4.340160
 22
3.446960
 13
4.346760
 23
4.178240
  0
POLYLINE
  8
0
  6
CONTINUOUS
 66
     1
 40
0.000000
 41
0.000000
  0
VERTEX
  8
0
  6
CONTINUOUS
 10
4.268880
 20
3.413960
  0
VERTEX
  8
0
  6
CONTINUOUS
 10
4.275480
 20
4.145240
  0
VERTEX
  8
0
  6
CONTINUOUS
 10
4.346760
 20
4.178240
  0
VERTEX
  8
0
  6
CONTINUOUS
 10
4.340160
 20
3.446960
  0
VERTEX
  8
0
  6
CONTINUOUS
 10
4.268880
 20
3.413960
  0
SEQEND
  8
0
  0
SOLID
  8
0
 62
    15
 10
4.340160
 20
3.446960
 11
4.346760
 21
4.178240
 12
4.371840
 22
3.467200
 13
4.378000
 23
4.198480
  0
POLYLINE
  8
0
  6
CONTINUOUS
 66
     1
 40
0.000000
 41
0.000000
  0
VERTEX
  8
0
  6
CONTINUOUS
 10
4.340160
 20
3.446960
  0
VERTEX
  8
0
  6
CONTINUOUS
 10
4.346760
 20
4.178240
  0
VERTEX
  8
0
  6
CONTINUOUS
 10
4.378000
 20
4.198480
  0
VERTEX
  8
0
  6
CONTINUOUS
 10
4.371840
 20
3.467200
  0
VERTEX
  8
0
  6
CONTINUOUS
 10
4.340160
 20
3.446960
  0
SEQEND
  8
0
  0
SOLID
  8
0
 62
    15
 10
4.371840
 20
3.467200
 11
4.378000
 21
4.198480
 12
4.401760
 22
3.488320
 13
4.407920
 23
4.219600
  0
POLYLINE
  8
0
  6
CONTINUOUS
 66
     1
 40
0.000000
 41
0.000000
  0
VERTEX
  8
0
  6
CONTINUOUS
 10
4.371840
 20
3.467200
  0
VERTEX
  8
0
  6
CONTINUOUS
 10
4.378000
 20
4.198480
  0
VERTEX
  8
0
  6
CONTINUOUS
 10
4.407920
 20
4.219600
  0
VERTEX
  8
0
  6
CONTINUOUS
 10
4.401760
 20
3.488320
  0
VERTEX
  8
0
  6
CONTINUOUS
 10
4.371840
 20
3.467200
  0
SEQEND
  8
0
  0
SOLID
  8
0
 62
    15
 10
4.401760
 20
3.488320
 11
4.407920
 21
4.219600
 12
4.460280
 22
3.527480
 13
4.466440
 23
4.258760
  0
POLYLINE
  8
0
  6
CONTINUOUS
 66
     1
 40
0.000000
 41
0.000000
  0
VERTEX
  8
0
  6
CONTINUOUS
 10
4.401760
 20
3.488320
  0
VERTEX
  8
0
  6
CONTINUOUS
 10
4.407920
 20
4.219600
  0
VERTEX
  8
0
  6
CONTINUOUS
 10
4.466440
 20
4.258760
  0
VERTEX
  8
0
  6
CONTINUOUS
 10
4.460280
 20
3.527480
  0
VERTEX
  8
0
  6
CONTINUOUS
 10
4.401760
 20
3.488320
  0
SEQEND
  8
0
  0
SOLID
  8
0
 62
    15
 10
4.460280
 20
3.527480
 11
4.466440
 21
4.258760
 12
4.476120
 22
3.536720
 13
4.482280
 23
4.268000
  0
POLYLINE
  8
0
  6
CONTINUOUS
 66
     1
 40
0.000000
 41
0.000000
  0
VERTEX
  8
0
  6
CONTINUOUS
 10
4.460280
 20
3.527480
  0
VERTEX
  8
0
  6
CONTINUOUS
 10
4.466440
 20
4.258760
  0
VERTEX
  8
0
  6
CONTINUOUS
 10
4.482280
 20
4.268000
  0
VERTEX
  8
0
  6
CONTINUOUS
 10
4.476120
 20
3.536720
  0
VERTEX
  8
0
  6
CONTINUOUS
 10
4.460280
 20
3.527480
  0
SEQEND
  8
0
  0
SOLID
  8
0
 62
    15
 10
4.476120
 20
3.536720
 11
4.482280
 21
4.268000
 12
4.494160
 22
3.546840
 13
4.500320
 23
4.278120
  0
POLYLINE
  8
0
  6
CONTINUOUS
 66
     1
 40
0.000000
 41
0.000000
  0
VERTEX
  8
0
  6
CONTINUOUS
 10
4.476120
 20
3.536720
  0
VERTEX
  8
0
  6
CONTINUOUS
 10
4.482280
 20
4.268000
  0
VERTEX
  8
0
  6
CONTINUOUS
 10
4.500320
 20
4.278120
  0
VERTEX
  8
0
  6
CONTINUOUS
 10
4.494160
 20
3.546840
  0
VERTEX
  8
0
  6
CONTINUOUS
 10
4.476120
 20
3.536720
  0
SEQEND
  8
0
  0
SOLID
  8
0
 62
    15
 10
4.494160
 20
3.546840
 11
4.500320
 21
4.278120
 12
4.536840
 22
3.566640
 13
4.543440
 23
4.297920
  0
POLYLINE
  8
0
  6
CONTINUOUS
 66
     1
 40
0.000000
 41
0.000000
  0
VERTEX
  8
0
  6
CONTINUOUS
 10
4.494160
 20
3.546840
  0
VERTEX
  8
0
  6
CONTINUOUS
 10
4.500320
 20
4.278120
  0
VERTEX
  8
0
  6
CONTINUOUS
 10
4.543440
 20
4.297920
  0
VERTEX
  8
0
  6
CONTINUOUS
 10
4.536840
 20
3.566640
  0
VERTEX
  8
0
  6
CONTINUOUS
 10
4.494160
 20
3.546840
  0
SEQEND
  8
0
  0
SOLID
  8
0
 62
     7
 10
4.536840
 20
3.566640
 11
4.543440
 21
4.297920
 12
4.589200
 22
3.581600
 13
4.595800
 23
4.312880
  0
POLYLINE
  8
0
  6
CONTINUOUS
 66
     1
 40
0.000000
 41
0.000000
  0
VERTEX
  8
0
  6
CONTINUOUS
 10
4.536840
 20
3.566640
  0
VERTEX
  8
0
  6
CONTINUOUS
 10
4.543440
 20
4.297920
  0
VERTEX
  8
0
  6
CONTINUOUS
 10
4.595800
 20
4.312880
  0
VERTEX
  8
0
  6
CONTINUOUS
 10
4.589200
 20
3.581600
  0
VERTEX
  8
0
  6
CONTINUOUS
 10
4.536840
 20
3.566640
  0
SEQEND
  8
0
  0
SOLID
  8
0
 62
    15
 10
3.324640
 20
3.799400
 11
3.331240
 21
4.530680
 12
3.332120
 22
3.731640
 13
3.338280
 23
4.462920
  0
POLYLINE
  8
0
  6
CONTINUOUS
 66
     1
 40
0.000000
 41
0.000000
  0
VERTEX
  8
0
  6
CONTINUOUS
 10
3.324640
 20
3.799400
  0
VERTEX
  8
0
  6
CONTINUOUS
 10
3.331240
 20
4.530680
  0
VERTEX
  8
0
  6
CONTINUOUS
 10
3.338280
 20
4.462920
  0
VERTEX
  8
0
  6
CONTINUOUS
 10
3.332120
 20
3.731640
  0
VERTEX
  8
0
  6
CONTINUOUS
 10
3.324640
 20
3.799400
  0
SEQEND
  8
0
  0
SOLID
  8
0
 62
     7
 10
4.651680
 20
3.585560
 11
4.657840
 21
4.316840
 12
4.686440
 22
3.582040
 13
4.692600
 23
4.313320
  0
POLYLINE
  8
0
  6
CONTINUOUS
 66
     1
 40
0.000000
 41
0.000000
  0
VERTEX
  8
0
  6
CONTINUOUS
 10
4.651680
 20
3.585560
  0
VERTEX
  8
0
  6
CONTINUOUS
 10
4.657840
 20
4.316840
  0
VERTEX
  8
0
  6
CONTINUOUS
 10
4.692600
 20
4.313320
  0
VERTEX
  8
0
  6
CONTINUOUS
 10
4.686440
 20
3.582040
  0
VERTEX
  8
0
  6
CONTINUOUS
 10
4.651680
 20
3.585560
  0
SEQEND
  8
0
  0
SOLID
  8
0
 62
    15
 10
4.686440
 20
3.582040
 11
4.692600
 21
4.313320
 12
4.723840
 22
3.573240
 13
4.730000
 23
4.304520
  0
POLYLINE
  8
0
  6
CONTINUOUS
 66
     1
 40
0.000000
 41
0.000000
  0
VERTEX
  8
0
  6
CONTINUOUS
 10
4.686440
 20
3.582040
  0
VERTEX
  8
0
  6
CONTINUOUS
 10
4.692600
 20
4.313320
  0
VERTEX
  8
0
  6
CONTINUOUS
 10
4.730000
 20
4.304520
  0
VERTEX
  8
0
  6
CONTINUOUS
 10
4.723840
 20
3.573240
  0
VERTEX
  8
0
  6
CONTINUOUS
 10
4.686440
 20
3.582040
  0
SEQEND
  8
0
  0
SOLID
  8
0
 62
    15
 10
4.723840
 20
3.573240
 11
4.730000
 21
4.304520
 12
4.763880
 22
3.558720
 13
4.770040
 23
4.290000
  0
POLYLINE
  8
0
  6
CONTINUOUS
 66
     1
 40
0.000000
 41
0.000000
  0
VERTEX
  8
0
  6
CONTINUOUS
 10
4.723840
 20
3.573240
  0
VERTEX
  8
0
  6
CONTINUOUS
 10
4.730000
 20
4.304520
  0
VERTEX
  8
0
  6
CONTINUOUS
 10
4.770040
 20
4.290000
  0
VERTEX
  8
0
  6
CONTINUOUS
 10
4.763880
 20
3.558720
  0
VERTEX
  8
0
  6
CONTINUOUS
 10
4.723840
 20
3.573240
  0
SEQEND
  8
0
  0
SOLID
  8
0
 62
    15
 10
4.763880
 20
3.558720
 11
4.770040
 21
4.290000
 12
4.807000
 22
3.538040
 13
4.813160
 23
4.269320
  0
POLYLINE
  8
0
  6
CONTINUOUS
 66
     1
 40
0.000000
 41
0.000000
  0
VERTEX
  8
0
  6
CONTINUOUS
 10
4.763880
 20
3.558720
  0
VERTEX
  8
0
  6
CONTINUOUS
 10
4.770040
 20
4.290000
  0
VERTEX
  8
0
  6
CONTINUOUS
 10
4.813160
 20
4.269320
  0
VERTEX
  8
0
  6
CONTINUOUS
 10
4.807000
 20
3.538040
  0
VERTEX
  8
0
  6
CONTINUOUS
 10
4.763880
 20
3.558720
  0
SEQEND
  8
0
  0
SOLID
  8
0
 62
    15
 10
4.807000
 20
3.538040
 11
4.813160
 21
4.269320
 12
4.852320
 22
3.510320
 13
4.858480
 23
4.241600
  0
POLYLINE
  8
0
  6
CONTINUOUS
 66
     1
 40
0.000000
 41
0.000000
  0
VERTEX
  8
0
  6
CONTINUOUS
 10
4.807000
 20
3.538040
  0
VERTEX
  8
0
  6
CONTINUOUS
 10
4.813160
 20
4.269320
  0
VERTEX
  8
0
  6
CONTINUOUS
 10
4.858480
 20
4.241600
  0
VERTEX
  8
0
  6
CONTINUOUS
 10
4.852320
 20
3.510320
  0
VERTEX
  8
0
  6
CONTINUOUS
 10
4.807000
 20
3.538040
  0
SEQEND
  8
0
  0
SOLID
  8
0
 62
    15
 10
4.852320
 20
3.510320
 11
4.858480
 21
4.241600
 12
4.900720
 22
3.474680
 13
4.906880
 23
4.206400
  0
POLYLINE
  8
0
  6
CONTINUOUS
 66
     1
 40
0.000000
 41
0.000000
  0
VERTEX
  8
0
  6
CONTINUOUS
 10
4.852320
 20
3.510320
  0
VERTEX
  8
0
  6
CONTINUOUS
 10
4.858480
 20
4.241600
  0
VERTEX
  8
0
  6
CONTINUOUS
 10
4.906880
 20
4.206400
  0
VERTEX
  8
0
  6
CONTINUOUS
 10
4.900720
 20
3.474680
  0
VERTEX
  8
0
  6
CONTINUOUS
 10
4.852320
 20
3.510320
  0
SEQEND
  8
0
  0
SOLID
  8
0
 62
    15
 10
4.900720
 20
3.474680
 11
4.906880
 21
4.206400
 12
4.952200
 22
3.431120
 13
4.958360
 23
4.162400
  0
POLYLINE
  8
0
  6
CONTINUOUS
 66
     1
 40
0.000000
 41
0.000000
  0
VERTEX
  8
0
  6
CONTINUOUS
 10
4.900720
 20
3.474680
  0
VERTEX
  8
0
  6
CONTINUOUS
 10
4.906880
 20
4.206400
  0
VERTEX
  8
0
  6
CONTINUOUS
 10
4.958360
 20
4.162400
  0
VERTEX
  8
0
  6
CONTINUOUS
 10
4.952200
 20
3.431120
  0
VERTEX
  8
0
  6
CONTINUOUS
 10
4.900720
 20
3.474680
  0
SEQEND
  8
0
  0
SOLID
  8
0
 62
    15
 10
4.952200
 20
3.431120
 11
4.958360
 21
4.162400
 12
5.006320
 22
3.377880
 13
5.012480
 23
4.109160
  0
POLYLINE
  8
0
  6
CONTINUOUS
 66
     1
 40
0.000000
 41
0.000000
  0
VERTEX
  8
0
  6
CONTINUOUS
 10
4.952200
 20
3.431120
  0
VERTEX
  8
0
  6
CONTINUOUS
 10
4.958360
 20
4.162400
  0
VERTEX
  8
0
  6
CONTINUOUS
 10
5.012480
 20
4.109160
  0
VERTEX
  8
0
  6
CONTINUOUS
 10
5.006320
 20
3.377880
  0
VERTEX
  8
0
  6
CONTINUOUS
 10
4.952200
 20
3.431120
  0
SEQEND
  8
0
  0
SOLID
  8
0
 62
    15
 10
5.006320
 20
3.377880
 11
5.012480
 21
4.109160
 12
5.016000
 22
3.368200
 13
5.022160
 23
4.099480
  0
POLYLINE
  8
0
  6
CONTINUOUS
 66
     1
 40
0.000000
 41
0.000000
  0
VERTEX
  8
0
  6
CONTINUOUS
 10
5.006320
 20
3.377880
  0
VERTEX
  8
0
  6
CONTINUOUS
 10
5.012480
 20
4.109160
  0
VERTEX
  8
0
  6
CONTINUOUS
 10
5.022160
 20
4.099480
  0
VERTEX
  8
0
  6
CONTINUOUS
 10
5.016000
 20
3.368200
  0
VERTEX
  8
0
  6
CONTINUOUS
 10
5.006320
 20
3.377880
  0
SEQEND
  8
0
  0
SOLID
  8
0
 62
    15
 10
5.016000
 20
3.368200
 11
5.022160
 21
4.099480
 12
5.082440
 22
3.301320
 13
5.088600
 23
4.032600
  0
POLYLINE
  8
0
  6
CONTINUOUS
 66
     1
 40
0.000000
 41
0.000000
  0
VERTEX
  8
0
  6
CONTINUOUS
 10
5.016000
 20
3.368200
  0
VERTEX
  8
0
  6
CONTINUOUS
 10
5.022160
 20
4.099480
  0
VERTEX
  8
0
  6
CONTINUOUS
 10
5.088600
 20
4.032600
  0
VERTEX
  8
0
  6
CONTINUOUS
 10
5.082440
 20
3.301320
  0
VERTEX
  8
0
  6
CONTINUOUS
 10
5.016000
 20
3.368200
  0
SEQEND
  8
0
  0
SOLID
  8
0
 62
    15
 10
5.082440
 20
3.301320
 11
5.088600
 21
4.032600
 12
5.155480
 22
3.230480
 13
5.161640
 23
3.961760
  0
POLYLINE
  8
0
  6
CONTINUOUS
 66
     1
 40
0.000000
 41
0.000000
  0
VERTEX
  8
0
  6
CONTINUOUS
 10
5.082440
 20
3.301320
  0
VERTEX
  8
0
  6
CONTINUOUS
 10
5.088600
 20
4.032600
  0
VERTEX
  8
0
  6
CONTINUOUS
 10
5.161640
 20
3.961760
  0
VERTEX
  8
0
  6
CONTINUOUS
 10
5.155480
 20
3.230480
  0
VERTEX
  8
0
  6
CONTINUOUS
 10
5.082440
 20
3.301320
  0
SEQEND
  8
0
  0
SOLID
  8
0
 62
    15
 10
5.155480
 20
3.230480
 11
5.161640
 21
3.961760
 12
5.188920
 22
3.201880
 13
5.195080
 23
3.933160
  0
POLYLINE
  8
0
  6
CONTINUOUS
 66
     1
 40
0.000000
 41
0.000000
  0
VERTEX
  8
0
  6
CONTINUOUS
 10
5.155480
 20
3.230480
  0
VERTEX
  8
0
  6
CONTINUOUS
 10
5.161640
 20
3.961760
  0
VERTEX
  8
0
  6
CONTINUOUS
 10
5.195080
 20
3.933160
  0
VERTEX
  8
0
  6
CONTINUOUS
 10
5.188920
 20
3.201880
  0
VERTEX
  8
0
  6
CONTINUOUS
 10
5.155480
 20
3.230480
  0
SEQEND
  8
0
  0
SOLID
  8
0
 62
    15
 10
5.188920
 20
3.201880
 11
5.195080
 21
3.933160
 12
5.219280
 22
3.179000
 13
5.225440
 23
3.910280
  0
POLYLINE
  8
0
  6
CONTINUOUS
 66
     1
 40
0.000000
 41
0.000000
  0
VERTEX
  8
0
  6
CONTINUOUS
 10
5.188920
 20
3.201880
  0
VERTEX
  8
0
  6
CONTINUOUS
 10
5.195080
 20
3.933160
  0
VERTEX
  8
0
  6
CONTINUOUS
 10
5.225440
 20
3.910280
  0
VERTEX
  8
0
  6
CONTINUOUS
 10
5.219280
 20
3.179000
  0
VERTEX
  8
0
  6
CONTINUOUS
 10
5.188920
 20
3.201880
  0
SEQEND
  8
0
  0
SOLID
  8
0
 62
    15
 10
5.219280
 20
3.179000
 11
5.225440
 21
3.910280
 12
5.245240
 22
3.164480
 13
5.251400
 23
3.895760
  0
POLYLINE
  8
0
  6
CONTINUOUS
 66
     1
 40
0.000000
 41
0.000000
  0
VERTEX
  8
0
  6
CONTINUOUS
 10
5.219280
 20
3.179000
  0
VERTEX
  8
0
  6
CONTINUOUS
 10
5.225440
 20
3.910280
  0
VERTEX
  8
0
  6
CONTINUOUS
 10
5.251400
 20
3.895760
  0
VERTEX
  8
0
  6
CONTINUOUS
 10
5.245240
 20
3.164480
  0
VERTEX
  8
0
  6
CONTINUOUS
 10
5.219280
 20
3.179000
  0
SEQEND
  8
0
  0
SOLID
  8
0
 62
     7
 10
5.245240
 20
3.164480
 11
5.251400
 21
3.895760
 12
5.266800
 22
3.159640
 13
5.273400
 23
3.890920
  0
POLYLINE
  8
0
  6
CONTINUOUS
 66
     1
 40
0.000000
 41
0.000000
  0
VERTEX
  8
0
  6
CONTINUOUS
 10
5.245240
 20
3.164480
  0
VERTEX
  8
0
  6
CONTINUOUS
 10
5.251400
 20
3.895760
  0
VERTEX
  8
0
  6
CONTINUOUS
 10
5.273400
 20
3.890920
  0
VERTEX
  8
0
  6
CONTINUOUS
 10
5.266800
 20
3.159640
  0
VERTEX
  8
0
  6
CONTINUOUS
 10
5.245240
 20
3.164480
  0
SEQEND
  8
0
  0
SOLID
  8
0
 62
     7
 10
5.266800
 20
3.159640
 11
5.273400
 21
3.890920
 12
5.298040
 22
3.164480
 13
5.304200
 23
3.895760
  0
POLYLINE
  8
0
  6
CONTINUOUS
 66
     1
 40
0.000000
 41
0.000000
  0
VERTEX
  8
0
  6
CONTINUOUS
 10
5.266800
 20
3.159640
  0
VERTEX
  8
0
  6
CONTINUOUS
 10
5.273400
 20
3.890920
  0
VERTEX
  8
0
  6
CONTINUOUS
 10
5.304200
 20
3.895760
  0
VERTEX
  8
0
  6
CONTINUOUS
 10
5.298040
 20
3.164480
  0
VERTEX
  8
0
  6
CONTINUOUS
 10
5.266800
 20
3.159640
  0
SEQEND
  8
0
  0
SOLID
  8
0
 62
    15
 10
5.298040
 20
3.164480
 11
5.304200
 21
3.895760
 12
5.316960
 22
3.174160
 13
5.323120
 23
3.905440
  0
POLYLINE
  8
0
  6
CONTINUOUS
 66
     1
 40
0.000000
 41
0.000000
  0
VERTEX
  8
0
  6
CONTINUOUS
 10
5.298040
 20
3.164480
  0
VERTEX
  8
0
  6
CONTINUOUS
 10
5.304200
 20
3.895760
  0
VERTEX
  8
0
  6
CONTINUOUS
 10
5.323120
 20
3.905440
  0
VERTEX
  8
0
  6
CONTINUOUS
 10
5.316960
 20
3.174160
  0
VERTEX
  8
0
  6
CONTINUOUS
 10
5.298040
 20
3.164480
  0
SEQEND
  8
0
  0
SOLID
  8
0
 62
    15
 10
5.316960
 20
3.174160
 11
5.323120
 21
3.905440
 12
5.326640
 22
3.185600
 13
5.332800
 23
3.916880
  0
POLYLINE
  8
0
  6
CONTINUOUS
 66
     1
 40
0.000000
 41
0.000000
  0
VERTEX
  8
0
  6
CONTINUOUS
 10
5.316960
 20
3.174160
  0
VERTEX
  8
0
  6
CONTINUOUS
 10
5.323120
 20
3.905440
  0
VERTEX
  8
0
  6
CONTINUOUS
 10
5.332800
 20
3.916880
  0
VERTEX
  8
0
  6
CONTINUOUS
 10
5.326640
 20
3.185600
  0
VERTEX
  8
0
  6
CONTINUOUS
 10
5.316960
 20
3.174160
  0
SEQEND
  8
0
  0
SOLID
  8
0
 62
    15
 10
5.326640
 20
3.185600
 11
5.332800
 21
3.916880
 12
5.329720
 22
3.195280
 13
5.335880
 23
3.926560
  0
POLYLINE
  8
0
  6
CONTINUOUS
 66
     1
 40
0.000000
 41
0.000000
  0
VERTEX
  8
0
  6
CONTINUOUS
 10
5.326640
 20
3.185600
  0
VERTEX
  8
0
  6
CONTINUOUS
 10
5.332800
 20
3.916880
  0
VERTEX
  8
0
  6
CONTINUOUS
 10
5.335880
 20
3.926560
  0
VERTEX
  8
0
  6
CONTINUOUS
 10
5.329720
 20
3.195280
  0
VERTEX
  8
0
  6
CONTINUOUS
 10
5.326640
 20
3.185600
  0
SEQEND
  8
0
  0
SOLID
  8
0
 62
     7
 10
5.329720
 20
3.195280
 11
5.335880
 21
3.926560
 12
6.065400
 22
3.195280
 13
6.071560
 23
3.926560
  0
POLYLINE
  8
0
  6
CONTINUOUS
 66
     1
 40
0.000000
 41
0.000000
  0
VERTEX
  8
0
  6
CONTINUOUS
 10
5.329720
 20
3.195280
  0
VERTEX
  8
0
  6
CONTINUOUS
 10
5.335880
 20
3.926560
  0
VERTEX
  8
0
  6
CONTINUOUS
 10
6.071560
 20
3.926560
  0
VERTEX
  8
0
  6
CONTINUOUS
 10
6.065400
 20
3.195280
  0
VERTEX
  8
0
  6
CONTINUOUS
 10
5.329720
 20
3.195280
  0
SEQEND
  8
0
  0
SOLID
  8
0
 62
     7
 10
6.065400
 20
3.195280
 11
6.071560
 21
3.926560
 12
6.087840
 22
3.193080
 13
6.094000
 23
3.924360
  0
POLYLINE
  8
0
  6
CONTINUOUS
 66
     1
 40
0.000000
 41
0.000000
  0
VERTEX
  8
0
  6
CONTINUOUS
 10
6.065400
 20
3.195280
  0
VERTEX
  8
0
  6
CONTINUOUS
 10
6.071560
 20
3.926560
  0
VERTEX
  8
0
  6
CONTINUOUS
 10
6.094000
 20
3.924360
  0
VERTEX
  8
0
  6
CONTINUOUS
 10
6.087840
 20
3.193080
  0
VERTEX
  8
0
  6
CONTINUOUS
 10
6.065400
 20
3.195280
  0
SEQEND
  8
0
  0
SOLID
  8
0
 62
    15
 10
6.087840
 20
3.193080
 11
6.094000
 21
3.924360
 12
6.105000
 22
3.186040
 13
6.111160
 23
3.917320
  0
POLYLINE
  8
0
  6
CONTINUOUS
 66
     1
 40
0.000000
 41
0.000000
  0
VERTEX
  8
0
  6
CONTINUOUS
 10
6.087840
 20
3.193080
  0
VERTEX
  8
0
  6
CONTINUOUS
 10
6.094000
 20
3.924360
  0
VERTEX
  8
0
  6
CONTINUOUS
 10
6.111160
 20
3.917320
  0
VERTEX
  8
0
  6
CONTINUOUS
 10
6.105000
 20
3.186040
  0
VERTEX
  8
0
  6
CONTINUOUS
 10
6.087840
 20
3.193080
  0
SEQEND
  8
0
  0
SOLID
  8
0
 62
    15
 10
6.105000
 20
3.186040
 11
6.111160
 21
3.917320
 12
6.129200
 22
3.162720
 13
6.135360
 23
3.894000
  0
POLYLINE
  8
0
  6
CONTINUOUS
 66
     1
 40
0.000000
 41
0.000000
  0
VERTEX
  8
0
  6
CONTINUOUS
 10
6.105000
 20
3.186040
  0
VERTEX
  8
0
  6
CONTINUOUS
 10
6.111160
 20
3.917320
  0
VERTEX
  8
0
  6
CONTINUOUS
 10
6.135360
 20
3.894000
  0
VERTEX
  8
0
  6
CONTINUOUS
 10
6.129200
 20
3.162720
  0
VERTEX
  8
0
  6
CONTINUOUS
 10
6.105000
 20
3.186040
  0
SEQEND
  8
0
  0
SOLID
  8
0
 62
    15
 10
6.129200
 20
3.162720
 11
6.135360
 21
3.894000
 12
6.154720
 22
3.109920
 13
6.160880
 23
3.841200
  0
POLYLINE
  8
0
  6
CONTINUOUS
 66
     1
 40
0.000000
 41
0.000000
  0
VERTEX
  8
0
  6
CONTINUOUS
 10
6.129200
 20
3.162720
  0
VERTEX
  8
0
  6
CONTINUOUS
 10
6.135360
 20
3.894000
  0
VERTEX
  8
0
  6
CONTINUOUS
 10
6.160880
 20
3.841200
  0
VERTEX
  8
0
  6
CONTINUOUS
 10
6.154720
 20
3.109920
  0
VERTEX
  8
0
  6
CONTINUOUS
 10
6.129200
 20
3.162720
  0
SEQEND
  8
0
  0
SOLID
  8
0
 62
    15
 10
6.154720
 20
3.109920
 11
6.160880
 21
3.841200
 12
6.165280
 22
3.094080
 13
6.171440
 23
3.825360
  0
POLYLINE
  8
0
  6
CONTINUOUS
 66
     1
 40
0.000000
 41
0.000000
  0
VERTEX
  8
0
  6
CONTINUOUS
 10
6.154720
 20
3.109920
  0
VERTEX
  8
0
  6
CONTINUOUS
 10
6.160880
 20
3.841200
  0
VERTEX
  8
0
  6
CONTINUOUS
 10
6.171440
 20
3.825360
  0
VERTEX
  8
0
  6
CONTINUOUS
 10
6.165280
 20
3.094080
  0
VERTEX
  8
0
  6
CONTINUOUS
 10
6.154720
 20
3.109920
  0
SEQEND
  8
0
  0
SOLID
  8
0
 62
    15
 10
6.165280
 20
3.094080
 11
6.171440
 21
3.825360
 12
6.183760
 22
3.068560
 13
6.189920
 23
3.799840
  0
POLYLINE
  8
0
  6
CONTINUOUS
 66
     1
 40
0.000000
 41
0.000000
  0
VERTEX
  8
0
  6
CONTINUOUS
 10
6.165280
 20
3.094080
  0
VERTEX
  8
0
  6
CONTINUOUS
 10
6.171440
 20
3.825360
  0
VERTEX
  8
0
  6
CONTINUOUS
 10
6.189920
 20
3.799840
  0
VERTEX
  8
0
  6
CONTINUOUS
 10
6.183760
 20
3.068560
  0
VERTEX
  8
0
  6
CONTINUOUS
 10
6.165280
 20
3.094080
  0
SEQEND
  8
0
  0
SOLID
  8
0
 62
    15
 10
6.183760
 20
3.068560
 11
6.189920
 21
3.799840
 12
6.209720
 22
3.036880
 13
6.216320
 23
3.768160
  0
POLYLINE
  8
0
  6
CONTINUOUS
 66
     1
 40
0.000000
 41
0.000000
  0
VERTEX
  8
0
  6
CONTINUOUS
 10
6.183760
 20
3.068560
  0
VERTEX
  8
0
  6
CONTINUOUS
 10
6.189920
 20
3.799840
  0
VERTEX
  8
0
  6
CONTINUOUS
 10
6.216320
 20
3.768160
  0
VERTEX
  8
0
  6
CONTINUOUS
 10
6.209720
 20
3.036880
  0
VERTEX
  8
0
  6
CONTINUOUS
 10
6.183760
 20
3.068560
  0
SEQEND
  8
0
  0
SOLID
  8
0
 62
    15
 10
6.209720
 20
3.036880
 11
6.216320
 21
3.768160
 12
6.241840
 22
3.003440
 13
6.248440
 23
3.734720
  0
POLYLINE
  8
0
  6
CONTINUOUS
 66
     1
 40
0.000000
 41
0.000000
  0
VERTEX
  8
0
  6
CONTINUOUS
 10
6.209720
 20
3.036880
  0
VERTEX
  8
0
  6
CONTINUOUS
 10
6.216320
 20
3.768160
  0
VERTEX
  8
0
  6
CONTINUOUS
 10
6.248440
 20
3.734720
  0
VERTEX
  8
0
  6
CONTINUOUS
 10
6.241840
 20
3.003440
  0
VERTEX
  8
0
  6
CONTINUOUS
 10
6.209720
 20
3.036880
  0
SEQEND
  8
0
  0
SOLID
  8
0
 62
    15
 10
6.241840
 20
3.003440
 11
6.248440
 21
3.734720
 12
6.279240
 22
2.970880
 13
6.285400
 23
3.702160
  0
POLYLINE
  8
0
  6
CONTINUOUS
 66
     1
 40
0.000000
 41
0.000000
  0
VERTEX
  8
0
  6
CONTINUOUS
 10
6.241840
 20
3.003440
  0
VERTEX
  8
0
  6
CONTINUOUS
 10
6.248440
 20
3.734720
  0
VERTEX
  8
0
  6
CONTINUOUS
 10
6.285400
 20
3.702160
  0
VERTEX
  8
0
  6
CONTINUOUS
 10
6.279240
 20
2.970880
  0
VERTEX
  8
0
  6
CONTINUOUS
 10
6.241840
 20
3.003440
  0
SEQEND
  8
0
  0
SOLID
  8
0
 62
    15
 10
6.279240
 20
2.970880
 11
6.285400
 21
3.702160
 12
6.319720
 22
2.943160
 13
6.325880
 23
3.674440
  0
POLYLINE
  8
0
  6
CONTINUOUS
 66
     1
 40
0.000000
 41
0.000000
  0
VERTEX
  8
0
  6
CONTINUOUS
 10
6.279240
 20
2.970880
  0
VERTEX
  8
0
  6
CONTINUOUS
 10
6.285400
 20
3.702160
  0
VERTEX
  8
0
  6
CONTINUOUS
 10
6.325880
 20
3.674440
  0
VERTEX
  8
0
  6
CONTINUOUS
 10
6.319720
 20
2.943160
  0
VERTEX
  8
0
  6
CONTINUOUS
 10
6.279240
 20
2.970880
  0
SEQEND
  8
0
  0
SOLID
  8
0
 62
    15
 10
6.319720
 20
2.943160
 11
6.325880
 21
3.674440
 12
6.363280
 22
2.924240
 13
6.369440
 23
3.655520
  0
POLYLINE
  8
0
  6
CONTINUOUS
 66
     1
 40
0.000000
 41
0.000000
  0
VERTEX
  8
0
  6
CONTINUOUS
 10
6.319720
 20
2.943160
  0
VERTEX
  8
0
  6
CONTINUOUS
 10
6.325880
 20
3.674440
  0
VERTEX
  8
0
  6
CONTINUOUS
 10
6.369440
 20
3.655520
  0
VERTEX
  8
0
  6
CONTINUOUS
 10
6.363280
 20
2.924240
  0
VERTEX
  8
0
  6
CONTINUOUS
 10
6.319720
 20
2.943160
  0
SEQEND
  8
0
  0
SOLID
  8
0
 62
    15
 10
6.408160
 20
2.916760
 11
6.414320
 21
3.648040
 12
6.408160
 22
2.712600
 13
6.414320
 23
3.444320
  0
POLYLINE
  8
0
  6
CONTINUOUS
 66
     1
 40
0.000000
 41
0.000000
  0
VERTEX
  8
0
  6
CONTINUOUS
 10
6.408160
 20
2.916760
  0
VERTEX
  8
0
  6
CONTINUOUS
 10
6.414320
 20
3.648040
  0
VERTEX
  8
0
  6
CONTINUOUS
 10
6.414320
 20
3.444320
  0
VERTEX
  8
0
  6
CONTINUOUS
 10
6.408160
 20
2.712600
  0
VERTEX
  8
0
  6
CONTINUOUS
 10
6.408160
 20
2.916760
  0
SEQEND
  8
0
  0
SOLID
  8
0
 62
     7
 10
6.363280
 20
2.924240
 11
6.369440
 21
3.655520
 12
6.408160
 22
2.916760
 13
6.414320
 23
3.648040
  0
POLYLINE
  8
0
  6
CONTINUOUS
 66
     1
 40
0.000000
 41
0.000000
  0
VERTEX
  8
0
  6
CONTINUOUS
 10
6.363280
 20
2.924240
  0
VERTEX
  8
0
  6
CONTINUOUS
 10
6.369440
 20
3.655520
  0
VERTEX
  8
0
  6
CONTINUOUS
 10
6.414320
 20
3.648040
  0
VERTEX
  8
0
  6
CONTINUOUS
 10
6.408160
 20
2.916760
  0
VERTEX
  8
0
  6
CONTINUOUS
 10
6.363280
 20
2.924240
  0
SEQEND
  8
0
  0
SOLID
  8
0
 62
     7
 10
2.595120
 20
3.797640
 11
2.601280
 21
4.528920
 12
3.323760
 22
3.797640
 13
3.329920
 23
4.528920
  0
POLYLINE
  8
0
  6
CONTINUOUS
 66
     1
 40
0.000000
 41
0.000000
  0
VERTEX
  8
0
  6
CONTINUOUS
 10
2.595120
 20
3.797640
  0
VERTEX
  8
0
  6
CONTINUOUS
 10
2.601280
 20
4.528920
  0
VERTEX
  8
0
  6
CONTINUOUS
 10
3.329920
 20
4.528920
  0
VERTEX
  8
0
  6
CONTINUOUS
 10
3.323760
 20
3.797640
  0
VERTEX
  8
0
  6
CONTINUOUS
 10
2.595120
 20
3.797640
  0
SEQEND
  8
0
  0
SOLID
  8
0
 62
    15
 10
3.323760
 20
3.797640
 11
3.329920
 21
4.528920
 12
3.324640
 22
3.799400
 13
3.331240
 23
4.530680
  0
POLYLINE
  8
0
  6
CONTINUOUS
 66
     1
 40
0.000000
 41
0.000000
  0
VERTEX
  8
0
  6
CONTINUOUS
 10
3.323760
 20
3.797640
  0
VERTEX
  8
0
  6
CONTINUOUS
 10
3.329920
 20
4.528920
  0
VERTEX
  8
0
  6
CONTINUOUS
 10
3.331240
 20
4.530680
  0
VERTEX
  8
0
  6
CONTINUOUS
 10
3.324640
 20
3.799400
  0
VERTEX
  8
0
  6
CONTINUOUS
 10
3.323760
 20
3.797640
  0
SEQEND
  8
0
  0
POLYLINE
  8
0
  6
CONTINUOUS
 66
     1
 40
0.000000
 41
0.000000
  0
VERTEX
  8
0
  6
CONTINUOUS
 10
3.324640
 20
3.799400
  0
VERTEX
  8
0
  6
CONTINUOUS
 10
3.332120
 20
3.731640
  0
VERTEX
  8
0
  6
CONTINUOUS
 10
3.342240
 20
3.701280
  0
VERTEX
  8
0
  6
CONTINUOUS
 10
3.357640
 20
3.674440
  0
VERTEX
  8
0
  6
CONTINUOUS
 10
3.378320
 20
3.651560
  0
VERTEX
  8
0
  6
CONTINUOUS
 10
3.405600
 20
3.632640
  0
VERTEX
  8
0
  6
CONTINUOUS
 10
3.439480
 20
3.618560
  0
VERTEX
  8
0
  6
CONTINUOUS
 10
3.480400
 20
3.610200
  0
VERTEX
  8
0
  6
CONTINUOUS
 10
3.492280
 20
3.639240
  0
VERTEX
  8
0
  6
CONTINUOUS
 10
3.508560
 20
3.664760
  0
VERTEX
  8
0
  6
CONTINUOUS
 10
3.553440
 20
3.703920
  0
VERTEX
  8
0
  6
CONTINUOUS
 10
3.609760
 20
3.728120
  0
VERTEX
  8
0
  6
CONTINUOUS
 10
3.673120
 20
3.736920
  0
VERTEX
  8
0
  6
CONTINUOUS
 10
3.738240
 20
3.730320
  0
VERTEX
  8
0
  6
CONTINUOUS
 10
3.800720
 20
3.707880
  0
VERTEX
  8
0
  6
CONTINUOUS
 10
3.854840
 20
3.669600
  0
VERTEX
  8
0
  6
CONTINUOUS
 10
3.877720
 20
3.644080
  0
VERTEX
  8
0
  6
CONTINUOUS
 10
3.896200
 20
3.614600
  0
VERTEX
  8
0
  6
CONTINUOUS
 10
3.927880
 20
3.557840
  0
VERTEX
  8
0
  6
CONTINUOUS
 10
3.956040
 20
3.512960
  0
VERTEX
  8
0
  6
CONTINUOUS
 10
3.983320
 20
3.477760
  0
VERTEX
  8
0
  6
CONTINUOUS
 10
4.012360
 20
3.451360
  0
VERTEX
  8
0
  6
CONTINUOUS
 10
4.044040
 20
3.432000
  0
VERTEX
  8
0
  6
CONTINUOUS
 10
4.081440
 20
3.418360
  0
VERTEX
  8
0
  6
CONTINUOUS
 10
4.126320
 20
3.408240
  0
VERTEX
  8
0
  6
CONTINUOUS
 10
4.180880
 20
3.400760
  0
VERTEX
  8
0
  6
CONTINUOUS
 10
4.227520
 20
3.404280
  0
VERTEX
  8
0
  6
CONTINUOUS
 10
4.268880
 20
3.413960
  0
VERTEX
  8
0
  6
CONTINUOUS
 10
4.340160
 20
3.446960
  0
VERTEX
  8
0
  6
CONTINUOUS
 10
4.460280
 20
3.527480
  0
VERTEX
  8
0
  6
CONTINUOUS
 10
4.494160
 20
3.546840
  0
VERTEX
  8
0
  6
CONTINUOUS
 10
4.536840
 20
3.566640
  0
VERTEX
  8
0
  6
CONTINUOUS
 10
4.589200
 20
3.581600
  0
VERTEX
  8
0
  6
CONTINUOUS
 10
4.651680
 20
3.585560
  0
VERTEX
  8
0
  6
CONTINUOUS
 10
4.686440
 20
3.582040
  0
VERTEX
  8
0
  6
CONTINUOUS
 10
4.723840
 20
3.573240
  0
VERTEX
  8
0
  6
CONTINUOUS
 10
4.763880
 20
3.558720
  0
VERTEX
  8
0
  6
CONTINUOUS
 10
4.807000
 20
3.538040
  0
VERTEX
  8
0
  6
CONTINUOUS
 10
4.852320
 20
3.510320
  0
VERTEX
  8
0
  6
CONTINUOUS
 10
4.900720
 20
3.474680
  0
VERTEX
  8
0
  6
CONTINUOUS
 10
4.952200
 20
3.431120
  0
VERTEX
  8
0
  6
CONTINUOUS
 10
5.155480
 20
3.230480
  0
VERTEX
  8
0
  6
CONTINUOUS
 10
5.188920
 20
3.201880
  0
VERTEX
  8
0
  6
CONTINUOUS
 10
5.219280
 20
3.179000
  0
VERTEX
  8
0
  6
CONTINUOUS
 10
5.245240
 20
3.164480
  0
VERTEX
  8
0
  6
CONTINUOUS
 10
5.266800
 20
3.159640
  0
VERTEX
  8
0
  6
CONTINUOUS
 10
5.298040
 20
3.164480
  0
VERTEX
  8
0
  6
CONTINUOUS
 10
5.316960
 20
3.174160
  0
VERTEX
  8
0
  6
CONTINUOUS
 10
5.326640
 20
3.185600
  0
VERTEX
  8
0
  6
CONTINUOUS
 10
5.329720
 20
3.195280
  0
VERTEX
  8
0
  6
CONTINUOUS
 10
6.065400
 20
3.195280
  0
VERTEX
  8
0
  6
CONTINUOUS
 10
6.087840
 20
3.193080
  0
VERTEX
  8
0
  6
CONTINUOUS
 10
6.105000
 20
3.186040
  0
VERTEX
  8
0
  6
CONTINUOUS
 10
6.129200
 20
3.162720
  0
VERTEX
  8
0
  6
CONTINUOUS
 10
6.154720
 20
3.109920
  0
VERTEX
  8
0
  6
CONTINUOUS
 10
6.183760
 20
3.068560
  0
VERTEX
  8
0
  6
CONTINUOUS
 10
6.209720
 20
3.036880
  0
VERTEX
  8
0
  6
CONTINUOUS
 10
6.241840
 20
3.003440
  0
VERTEX
  8
0
  6
CONTINUOUS
 10
6.279240
 20
2.970880
  0
VERTEX
  8
0
  6
CONTINUOUS
 10
6.319720
 20
2.943160
  0
VERTEX
  8
0
  6
CONTINUOUS
 10
6.363280
 20
2.924240
  0
VERTEX
  8
0
  6
CONTINUOUS
 10
6.408160
 20
2.916760
  0
VERTEX
  8
0
  6
CONTINUOUS
 10
6.408160
 20
2.712600
  0
VERTEX
  8
0
  6
CONTINUOUS
 10
2.595120
 20
2.712600
  0
VERTEX
  8
0
  6
CONTINUOUS
 10
2.595120
 20
3.797640
  0
VERTEX
  8
0
  6
CONTINUOUS
 10
3.323760
 20
3.797640
  0
VERTEX
  8
0
  6
CONTINUOUS
 10
3.324640
 20
3.799400
  0
SEQEND
  8
0
  0
TEXT
  8
0
 10
4.366120
 20
2.458280
 40
0.138263
  1
727
 41
1.000000
  7
SN0
 71
     0
 72
     5
 11
4.643716
 21
2.458280
  0
TEXT
  8
0
 10
3.887400
 20
2.266440
 40
0.138263
  1
1-1/8" x 3-13/16"
 41
1.000000
  7
SN0
 71
     0
 72
     5
 11
5.125478
 21
2.266440
  0
POLYLINE
  8
0
  6
CONTINUOUS
 66
     1
 40
0.014080
 41
0.014080
  0
VERTEX
  8
0
  6
CONTINUOUS
 10
3.327720
 20
1.552760
  0
VERTEX
  8
0
  6
CONTINUOUS
 10
3.329480
 20
1.518000
  0
VERTEX
  8
0
  6
CONTINUOUS
 10
3.335200
 20
1.485000
  0
VERTEX
  8
0
  6
CONTINUOUS
 10
3.345320
 20
1.454640
  0
VERTEX
  8
0
  6
CONTINUOUS
 10
3.360720
 20
1.427800
  0
VERTEX
  8
0
  6
CONTINUOUS
 10
3.381400
 20
1.404480
  0
VERTEX
  8
0
  6
CONTINUOUS
 10
3.408680
 20
1.386000
  0
VERTEX
  8
0
  6
CONTINUOUS
 10
3.424520
 20
1.378080
  0
VERTEX
  8
0
  6
CONTINUOUS
 10
3.442120
 20
1.371920
  0
VERTEX
  8
0
  6
CONTINUOUS
 10
3.461920
 20
1.367080
  0
VERTEX
  8
0
  6
CONTINUOUS
 10
3.483480
 20
1.363560
  0
VERTEX
  8
0
  6
CONTINUOUS
 10
3.495360
 20
1.392600
  0
VERTEX
  8
0
  6
CONTINUOUS
 10
3.502840
 20
1.405800
  0
VERTEX
  8
0
  6
CONTINUOUS
 10
3.521320
 20
1.429120
  0
VERTEX
  8
0
  6
CONTINUOUS
 10
3.543760
 20
1.448480
  0
VERTEX
  8
0
  6
CONTINUOUS
 10
3.569720
 20
1.464760
  0
VERTEX
  8
0
  6
CONTINUOUS
 10
3.597880
 20
1.476640
  0
VERTEX
  8
0
  6
CONTINUOUS
 10
3.628240
 20
1.485000
  0
VERTEX
  8
0
  6
CONTINUOUS
 10
3.659920
 20
1.489400
  0
VERTEX
  8
0
  6
CONTINUOUS
 10
3.692480
 20
1.490280
  0
VERTEX
  8
0
  6
CONTINUOUS
 10
3.725040
 20
1.486760
  0
VERTEX
  8
0
  6
CONTINUOUS
 10
3.757160
 20
1.479720
  0
VERTEX
  8
0
  6
CONTINUOUS
 10
3.788400
 20
1.468280
  0
VERTEX
  8
0
  6
CONTINUOUS
 10
3.817880
 20
1.453320
  0
VERTEX
  8
0
  6
CONTINUOUS
 10
3.845160
 20
1.433960
  0
VERTEX
  8
0
  6
CONTINUOUS
 10
3.857920
 20
1.422960
  0
VERTEX
  8
0
  6
CONTINUOUS
 10
3.880360
 20
1.397440
  0
VERTEX
  8
0
  6
CONTINUOUS
 10
3.890480
 20
1.383360
  0
VERTEX
  8
0
  6
CONTINUOUS
 10
3.945040
 20
1.287440
  0
VERTEX
  8
0
  6
CONTINUOUS
 10
3.972760
 20
1.247400
  0
VERTEX
  8
0
  6
CONTINUOUS
 10
4.000480
 20
1.217040
  0
VERTEX
  8
0
  6
CONTINUOUS
 10
4.015440
 20
1.204720
  0
VERTEX
  8
0
  6
CONTINUOUS
 10
4.047120
 20
1.185800
  0
VERTEX
  8
0
  6
CONTINUOUS
 10
4.065160
 20
1.177880
  0
VERTEX
  8
0
  6
CONTINUOUS
 10
4.106080
 20
1.166440
  0
VERTEX
  8
0
  6
CONTINUOUS
 10
4.155360
 20
1.157640
  0
VERTEX
  8
0
  6
CONTINUOUS
 10
4.183960
 20
1.154120
  0
VERTEX
  8
0
  6
CONTINUOUS
 10
4.208160
 20
1.155000
  0
VERTEX
  8
0
  6
CONTINUOUS
 10
4.230600
 20
1.157640
  0
VERTEX
  8
0
  6
CONTINUOUS
 10
4.271960
 20
1.167320
  0
VERTEX
  8
0
  6
CONTINUOUS
 10
4.309360
 20
1.182280
  0
VERTEX
  8
0
  6
CONTINUOUS
 10
4.343680
 20
1.200320
  0
VERTEX
  8
0
  6
CONTINUOUS
 10
4.448840
 20
1.272040
  0
VERTEX
  8
0
  6
CONTINUOUS
 10
4.497240
 20
1.300200
  0
VERTEX
  8
0
  6
CONTINUOUS
 10
4.540360
 20
1.320000
  0
VERTEX
  8
0
  6
CONTINUOUS
 10
4.578640
 20
1.331880
  0
VERTEX
  8
0
  6
CONTINUOUS
 10
4.607240
 20
1.337160
  0
VERTEX
  8
0
  6
CONTINUOUS
 10
4.638040
 20
1.339360
  0
VERTEX
  8
0
  6
CONTINUOUS
 10
4.671480
 20
1.337600
  0
VERTEX
  8
0
  6
CONTINUOUS
 10
4.689520
 20
1.335400
  0
VERTEX
  8
0
  6
CONTINUOUS
 10
4.726920
 20
1.326600
  0
VERTEX
  8
0
  6
CONTINUOUS
 10
4.766960
 20
1.312080
  0
VERTEX
  8
0
  6
CONTINUOUS
 10
4.810080
 20
1.291400
  0
VERTEX
  8
0
  6
CONTINUOUS
 10
4.855400
 20
1.263680
  0
VERTEX
  8
0
  6
CONTINUOUS
 10
4.903800
 20
1.228480
  0
VERTEX
  8
0
  6
CONTINUOUS
 10
4.968480
 20
1.172160
  0
VERTEX
  8
0
  6
CONTINUOUS
 10
5.122480
 20
1.017720
  0
VERTEX
  8
0
  6
CONTINUOUS
 10
5.175720
 20
0.968880
  0
VERTEX
  8
0
  6
CONTINUOUS
 10
5.221920
 20
0.932360
  0
VERTEX
  8
0
  6
CONTINUOUS
 10
5.248320
 20
0.917840
  0
VERTEX
  8
0
  6
CONTINUOUS
 10
5.265040
 20
0.913440
  0
VERTEX
  8
0
  6
CONTINUOUS
 10
5.287040
 20
0.914320
  0
VERTEX
  8
0
  6
CONTINUOUS
 10
5.306840
 20
0.919600
  0
VERTEX
  8
0
  6
CONTINUOUS
 10
5.320040
 20
0.927520
  0
VERTEX
  8
0
  6
CONTINUOUS
 10
5.329720
 20
0.938960
  0
VERTEX
  8
0
  6
CONTINUOUS
 10
5.332800
 20
0.948640
  0
VERTEX
  8
0
  6
CONTINUOUS
 10
6.068480
 20
0.948640
  0
VERTEX
  8
0
  6
CONTINUOUS
 10
6.090920
 20
0.946000
  0
VERTEX
  8
0
  6
CONTINUOUS
 10
6.108520
 20
0.938960
  0
VERTEX
  8
0
  6
CONTINUOUS
 10
6.121720
 20
0.928840
  0
VERTEX
  8
0
  6
CONTINUOUS
 10
6.132280
 20
0.916080
  0
VERTEX
  8
0
  6
CONTINUOUS
 10
6.146800
 20
0.887920
  0
VERTEX
  8
0
  6
CONTINUOUS
 10
6.159560
 20
0.860200
  0
VERTEX
  8
0
  6
CONTINUOUS
 10
6.199160
 20
0.806520
  0
VERTEX
  8
0
  6
CONTINUOUS
 10
6.245360
 20
0.756800
  0
VERTEX
  8
0
  6
CONTINUOUS
 10
6.282320
 20
0.724240
  0
VERTEX
  8
0
  6
CONTINUOUS
 10
6.322800
 20
0.696520
  0
VERTEX
  8
0
  6
CONTINUOUS
 10
6.355360
 20
0.681120
  0
VERTEX
  8
0
  6
CONTINUOUS
 10
6.377360
 20
0.674080
  0
VERTEX
  8
0
  6
CONTINUOUS
 10
6.399800
 20
0.670560
  0
VERTEX
  8
0
  6
CONTINUOUS
 10
6.411240
 20
0.670120
  0
VERTEX
  8
0
  6
CONTINUOUS
 10
6.411240
 20
0.465960
  0
VERTEX
  8
0
  6
CONTINUOUS
 10
2.598200
 20
0.465960
  0
VERTEX
  8
0
  6
CONTINUOUS
 10
2.598200
 20
1.551000
  0
VERTEX
  8
0
  6
CONTINUOUS
 10
3.326840
 20
1.551000
  0
VERTEX
  8
0
  6
CONTINUOUS
 10
3.327720
 20
1.552760
  0
SEQEND
  8
0
  0
ENDSEC
  0
EOF
