  0
SECTION
  2
HEADER
  9
$ACADVER
  1
AC1006
  9
$EXTMIN
 10
3.035120
 20
0.850960
  9
$EXTMAX
 10
7.196640
 20
3.198800
  9
$LTSCALE
 40
0.044000
  9
$PDMODE
 70
    35
  9
$PDSIZE
 40
0.035200
  0
ENDSEC
  0
SECTION
  2
TABLES
  0
TABLE
  2
LTYPE
 70
     9
  0
LTYPE
  2
CONTINUOUS
 70
    64
  3
Solid line
 72
    65
 73
     0
 40
0.000000
  0
LTYPE
  2
DASHED
 70
    64
  3
__ __ __ __ __ __ __ __ __ __ __ __ __ __ __
 72
    65
 73
     2
 40
0.000330
 49
0.000220
 49
-0.000110
  0
LTYPE
  2
HIDDEN
 70
    64
  3
 _ _ _ _ _ _ _ _ _ _ _ _ _ _ _ _ _ _ _ _ _ _
 72
    65
 73
     2
 40
0.000165
 49
0.000110
 49
-0.000055
  0
LTYPE
  2
CENTER
 70
    64
  3
____ _ ____ _ ____ _ ____ _ ____ _ ____ _ ____
 72
    65
 73
     4
 40
0.000880
 49
0.000550
 49
-0.000110
 49
0.000110
 49
-0.000110
  0
LTYPE
  2
PHANTOM
 70
    64
  3
_____ _ _ _____ _ _ _____ _ _ _____ _ _ ____
 72
    65
 73
     6
 40
0.001100
 49
0.000550
 49
-0.000110
 49
0.000110
 49
-0.000110
 49
0.000110
 49
-0.000110
  0
LTYPE
  2
DOT
 70
    64
  3
...............................................
 72
    65
 73
     2
 40
0.000110
 49
0.000000
 49
-0.000110
  0
LTYPE
  2
DASHDOT
 70
    64
  3
__ . __ . __ . __ . __ . __ . __ . __ . __ . __
 72
    65
 73
     4
 40
0.000440
 49
0.000220
 49
-0.000110
 49
0.000000
 49
-0.000110
  0
LTYPE
  2
BORDER
 70
    64
  3
__ __ . __ __ . __ __ . __ __ . __ __ . __ __
 72
    65
 73
     6
 40
0.000770
 49
0.000220
 49
-0.000110
 49
0.000220
 49
-0.000110
 49
0.000000
 49
-0.000110
  0
LTYPE
  2
DIVIDE
 70
    64
  3
__ . . __ . . __ . . __ . . __ . . __ . . __
 72
    65
 73
     6
 40
0.000550
 49
0.000220
 49
-0.000110
 49
0.000000
 49
-0.000110
 49
0.000000
 49
-0.000110
  0
LTYPE
  2
DOTDOT
 70
    64
  3
 . .  . .  . .  . .  . .  . . 
 72
    65
 73
     5
 40
0.000242
 49
-0.000110
 49
0.000000
 49
-0.000110
 49
0.000000
 49
-0.000110
  0
ENDTAB
  0
TABLE
  2
STYLE
 70
     2
  0
STYLE
 70
     0
  2
SN0
 40
0.000000
 41
0.000440
 50
0.000000
 71
     0
 42
0.000000
  3
ROMAND
  0
STYLE
 70
    68
  2
SV0
 40
0.000000
 41
0.000440
 50
0.000000
 71
     0
 42
0.000000
  3
ROMAND
  0
ENDTAB
  0
TABLE
  2
LAYER
 70
     3
  0
LAYER
  2
FOREGROUND
 70
    64
 62
     7
  6
CONTINUOUS
  0
LAYER
  2
BACKGROUND
 70
    65
 62
    -7
  6
CONTINUOUS
  0
LAYER
  2
0
 70
    64
 62
     7
  6
CONTINUOUS
  0
ENDTAB
  0
ENDSEC
  0
SECTION
  2
ENTITIES
  0
POLYLINE
  8
FOREGROUND
  6
CONTINUOUS
 66
     1
 40
0.000000
 41
0.000000
  0
VERTEX
  8
FOREGROUND
  6
CONTINUOUS
 10
0.000000
 20
4.049760
  0
VERTEX
  8
FOREGROUND
  6
CONTINUOUS
 10
8.499920
 20
4.049760
  0
VERTEX
  8
FOREGROUND
  6
CONTINUOUS
 10
8.499920
 20
-6.950240
  0
VERTEX
  8
FOREGROUND
  6
CONTINUOUS
 10
0.000000
 20
-6.950240
  0
VERTEX
  8
FOREGROUND
  6
CONTINUOUS
 10
0.000000
 20
4.049760
  0
SEQEND
  8
0
  0
POLYLINE
  8
FOREGROUND
  6
CONTINUOUS
 66
     1
 40
0.000000
 41
0.000000
  0
VERTEX
  8
FOREGROUND
  6
CONTINUOUS
 10
0.000000
 20
4.049760
  0
VERTEX
  8
FOREGROUND
  6
CONTINUOUS
 10
8.499920
 20
4.049760
  0
VERTEX
  8
FOREGROUND
  6
CONTINUOUS
 10
8.499920
 20
-6.950240
  0
VERTEX
  8
FOREGROUND
  6
CONTINUOUS
 10
0.000000
 20
-6.950240
  0
VERTEX
  8
FOREGROUND
  6
CONTINUOUS
 10
0.000000
 20
4.049760
  0
SEQEND
  8
0
  0
POLYLINE
  8
0
  6
CONTINUOUS
 66
     1
 40
0.014080
 41
0.014080
  0
VERTEX
  8
0
  6
CONTINUOUS
 10
7.144720
 20
3.051400
  0
VERTEX
  8
0
  6
CONTINUOUS
 10
5.553240
 20
3.051400
  0
VERTEX
  8
0
  6
CONTINUOUS
 10
5.553240
 20
1.545280
  0
VERTEX
  8
0
  6
CONTINUOUS
 10
6.436320
 20
1.545280
  0
VERTEX
  8
0
  6
CONTINUOUS
 10
6.436320
 20
2.012120
  0
VERTEX
  8
0
  6
CONTINUOUS
 10
6.442480
 20
2.018280
  0
VERTEX
  8
0
  6
CONTINUOUS
 10
6.496160
 20
2.021800
  0
VERTEX
  8
0
  6
CONTINUOUS
 10
6.548080
 20
2.028400
  0
VERTEX
  8
0
  6
CONTINUOUS
 10
6.598240
 20
2.038080
  0
VERTEX
  8
0
  6
CONTINUOUS
 10
6.669960
 20
2.057440
  0
VERTEX
  8
0
  6
CONTINUOUS
 10
6.715280
 20
2.073280
  0
VERTEX
  8
0
  6
CONTINUOUS
 10
6.779520
 20
2.102320
  0
VERTEX
  8
0
  6
CONTINUOUS
 10
6.839360
 20
2.136200
  0
VERTEX
  8
0
  6
CONTINUOUS
 10
6.894800
 20
2.174920
  0
VERTEX
  8
0
  6
CONTINUOUS
 10
6.945400
 20
2.217600
  0
VERTEX
  8
0
  6
CONTINUOUS
 10
6.991600
 20
2.264680
  0
VERTEX
  8
0
  6
CONTINUOUS
 10
7.033400
 20
2.315280
  0
VERTEX
  8
0
  6
CONTINUOUS
 10
7.058480
 20
2.350920
  0
VERTEX
  8
0
  6
CONTINUOUS
 10
7.091920
 20
2.406800
  0
VERTEX
  8
0
  6
CONTINUOUS
 10
7.111720
 20
2.445520
  0
VERTEX
  8
0
  6
CONTINUOUS
 10
7.129320
 20
2.485120
  0
VERTEX
  8
0
  6
CONTINUOUS
 10
7.144720
 20
2.526040
  0
VERTEX
  8
0
  6
CONTINUOUS
 10
7.157920
 20
2.567400
  0
VERTEX
  8
0
  6
CONTINUOUS
 10
7.168480
 20
2.609640
  0
VERTEX
  8
0
  6
CONTINUOUS
 10
7.177280
 20
2.652320
  0
VERTEX
  8
0
  6
CONTINUOUS
 10
7.183880
 20
2.695440
  0
VERTEX
  8
0
  6
CONTINUOUS
 10
7.187840
 20
2.739000
  0
VERTEX
  8
0
  6
CONTINUOUS
 10
7.189600
 20
2.783000
  0
VERTEX
  8
0
  6
CONTINUOUS
 10
7.189160
 20
2.827000
  0
VERTEX
  8
0
  6
CONTINUOUS
 10
7.186080
 20
2.871000
  0
VERTEX
  8
0
  6
CONTINUOUS
 10
7.180800
 20
2.915000
  0
VERTEX
  8
0
  6
CONTINUOUS
 10
7.173320
 20
2.958560
  0
VERTEX
  8
0
  6
CONTINUOUS
 10
7.163200
 20
3.002120
  0
VERTEX
  8
0
  6
CONTINUOUS
 10
7.150880
 20
3.045240
  0
VERTEX
  8
0
  6
CONTINUOUS
 10
7.144720
 20
3.051400
  0
SEQEND
  8
0
  0
SOLID
  8
0
 62
    15
 10
3.919080
 20
1.783320
 11
4.565440
 21
2.158640
 12
3.919080
 22
1.316480
 13
4.565440
 23
1.692240
  0
POLYLINE
  8
0
  6
CONTINUOUS
 66
     1
 40
0.000000
 41
0.000000
  0
VERTEX
  8
0
  6
CONTINUOUS
 10
3.919080
 20
1.783320
  0
VERTEX
  8
0
  6
CONTINUOUS
 10
4.565440
 20
2.158640
  0
VERTEX
  8
0
  6
CONTINUOUS
 10
4.565440
 20
1.692240
  0
VERTEX
  8
0
  6
CONTINUOUS
 10
3.919080
 20
1.316480
  0
VERTEX
  8
0
  6
CONTINUOUS
 10
3.919080
 20
1.783320
  0
SEQEND
  8
0
  0
SOLID
  8
0
 62
    15
 10
4.656080
 20
2.730200
 11
5.302440
 21
3.105520
 12
4.668840
 22
2.642200
 13
5.315640
 23
3.017960
  0
POLYLINE
  8
0
  6
CONTINUOUS
 66
     1
 40
0.000000
 41
0.000000
  0
VERTEX
  8
0
  6
CONTINUOUS
 10
4.656080
 20
2.730200
  0
VERTEX
  8
0
  6
CONTINUOUS
 10
5.302440
 20
3.105520
  0
VERTEX
  8
0
  6
CONTINUOUS
 10
5.315640
 20
3.017960
  0
VERTEX
  8
0
  6
CONTINUOUS
 10
4.668840
 20
2.642200
  0
VERTEX
  8
0
  6
CONTINUOUS
 10
4.656080
 20
2.730200
  0
SEQEND
  8
0
  0
SOLID
  8
0
 62
    15
 10
4.668840
 20
2.642200
 11
5.315640
 21
3.017960
 12
4.672360
 22
2.554200
 13
5.318720
 23
2.929960
  0
POLYLINE
  8
0
  6
CONTINUOUS
 66
     1
 40
0.000000
 41
0.000000
  0
VERTEX
  8
0
  6
CONTINUOUS
 10
4.668840
 20
2.642200
  0
VERTEX
  8
0
  6
CONTINUOUS
 10
5.315640
 20
3.017960
  0
VERTEX
  8
0
  6
CONTINUOUS
 10
5.318720
 20
2.929960
  0
VERTEX
  8
0
  6
CONTINUOUS
 10
4.672360
 20
2.554200
  0
VERTEX
  8
0
  6
CONTINUOUS
 10
4.668840
 20
2.642200
  0
SEQEND
  8
0
  0
SOLID
  8
0
 62
    15
 10
4.672360
 20
2.554200
 11
5.318720
 21
2.929960
 12
4.666640
 22
2.466640
 13
5.313000
 23
2.842400
  0
POLYLINE
  8
0
  6
CONTINUOUS
 66
     1
 40
0.000000
 41
0.000000
  0
VERTEX
  8
0
  6
CONTINUOUS
 10
4.672360
 20
2.554200
  0
VERTEX
  8
0
  6
CONTINUOUS
 10
5.318720
 20
2.929960
  0
VERTEX
  8
0
  6
CONTINUOUS
 10
5.313000
 20
2.842400
  0
VERTEX
  8
0
  6
CONTINUOUS
 10
4.666640
 20
2.466640
  0
VERTEX
  8
0
  6
CONTINUOUS
 10
4.672360
 20
2.554200
  0
SEQEND
  8
0
  0
SOLID
  8
0
 62
    15
 10
4.666640
 20
2.466640
 11
5.313000
 21
2.842400
 12
4.651240
 22
2.380840
 13
5.298040
 23
2.756160
  0
POLYLINE
  8
0
  6
CONTINUOUS
 66
     1
 40
0.000000
 41
0.000000
  0
VERTEX
  8
0
  6
CONTINUOUS
 10
4.666640
 20
2.466640
  0
VERTEX
  8
0
  6
CONTINUOUS
 10
5.313000
 20
2.842400
  0
VERTEX
  8
0
  6
CONTINUOUS
 10
5.298040
 20
2.756160
  0
VERTEX
  8
0
  6
CONTINUOUS
 10
4.651240
 20
2.380840
  0
VERTEX
  8
0
  6
CONTINUOUS
 10
4.666640
 20
2.466640
  0
SEQEND
  8
0
  0
SOLID
  8
0
 62
    15
 10
4.651240
 20
2.380840
 11
5.298040
 21
2.756160
 12
4.627480
 22
2.297240
 13
5.273840
 23
2.672560
  0
POLYLINE
  8
0
  6
CONTINUOUS
 66
     1
 40
0.000000
 41
0.000000
  0
VERTEX
  8
0
  6
CONTINUOUS
 10
4.651240
 20
2.380840
  0
VERTEX
  8
0
  6
CONTINUOUS
 10
5.298040
 20
2.756160
  0
VERTEX
  8
0
  6
CONTINUOUS
 10
5.273840
 20
2.672560
  0
VERTEX
  8
0
  6
CONTINUOUS
 10
4.627480
 20
2.297240
  0
VERTEX
  8
0
  6
CONTINUOUS
 10
4.651240
 20
2.380840
  0
SEQEND
  8
0
  0
SOLID
  8
0
 62
    15
 10
4.627480
 20
2.297240
 11
5.273840
 21
2.672560
 12
4.594480
 22
2.216720
 13
5.240840
 23
2.592040
  0
POLYLINE
  8
0
  6
CONTINUOUS
 66
     1
 40
0.000000
 41
0.000000
  0
VERTEX
  8
0
  6
CONTINUOUS
 10
4.627480
 20
2.297240
  0
VERTEX
  8
0
  6
CONTINUOUS
 10
5.273840
 20
2.672560
  0
VERTEX
  8
0
  6
CONTINUOUS
 10
5.240840
 20
2.592040
  0
VERTEX
  8
0
  6
CONTINUOUS
 10
4.594480
 20
2.216720
  0
VERTEX
  8
0
  6
CONTINUOUS
 10
4.627480
 20
2.297240
  0
SEQEND
  8
0
  0
SOLID
  8
0
 62
    15
 10
3.925240
 20
1.789480
 11
4.571600
 21
2.164800
 12
3.919080
 22
1.783320
 13
4.565440
 23
2.158640
  0
POLYLINE
  8
0
  6
CONTINUOUS
 66
     1
 40
0.000000
 41
0.000000
  0
VERTEX
  8
0
  6
CONTINUOUS
 10
3.925240
 20
1.789480
  0
VERTEX
  8
0
  6
CONTINUOUS
 10
4.571600
 20
2.164800
  0
VERTEX
  8
0
  6
CONTINUOUS
 10
4.565440
 20
2.158640
  0
VERTEX
  8
0
  6
CONTINUOUS
 10
3.919080
 20
1.783320
  0
VERTEX
  8
0
  6
CONTINUOUS
 10
3.925240
 20
1.789480
  0
SEQEND
  8
0
  0
SOLID
  8
0
 62
    15
 10
4.633640
 20
2.816440
 11
5.280000
 21
3.192200
 12
4.656080
 22
2.730200
 13
5.302440
 23
3.105520
  0
POLYLINE
  8
0
  6
CONTINUOUS
 66
     1
 40
0.000000
 41
0.000000
  0
VERTEX
  8
0
  6
CONTINUOUS
 10
4.633640
 20
2.816440
  0
VERTEX
  8
0
  6
CONTINUOUS
 10
5.280000
 20
3.192200
  0
VERTEX
  8
0
  6
CONTINUOUS
 10
5.302440
 20
3.105520
  0
VERTEX
  8
0
  6
CONTINUOUS
 10
4.656080
 20
2.730200
  0
VERTEX
  8
0
  6
CONTINUOUS
 10
4.633640
 20
2.816440
  0
SEQEND
  8
0
  0
SOLID
  8
0
 62
    15
 10
4.502960
 20
2.069320
 11
5.149320
 21
2.445080
 12
4.444000
 22
2.004200
 13
5.090800
 23
2.379520
  0
POLYLINE
  8
0
  6
CONTINUOUS
 66
     1
 40
0.000000
 41
0.000000
  0
VERTEX
  8
0
  6
CONTINUOUS
 10
4.502960
 20
2.069320
  0
VERTEX
  8
0
  6
CONTINUOUS
 10
5.149320
 20
2.445080
  0
VERTEX
  8
0
  6
CONTINUOUS
 10
5.090800
 20
2.379520
  0
VERTEX
  8
0
  6
CONTINUOUS
 10
4.444000
 20
2.004200
  0
VERTEX
  8
0
  6
CONTINUOUS
 10
4.502960
 20
2.069320
  0
SEQEND
  8
0
  0
SOLID
  8
0
 62
    15
 10
4.444000
 20
2.004200
 11
5.090800
 21
2.379520
 12
4.377560
 22
1.946120
 13
5.023920
 23
2.321440
  0
POLYLINE
  8
0
  6
CONTINUOUS
 66
     1
 40
0.000000
 41
0.000000
  0
VERTEX
  8
0
  6
CONTINUOUS
 10
4.444000
 20
2.004200
  0
VERTEX
  8
0
  6
CONTINUOUS
 10
5.090800
 20
2.379520
  0
VERTEX
  8
0
  6
CONTINUOUS
 10
5.023920
 20
2.321440
  0
VERTEX
  8
0
  6
CONTINUOUS
 10
4.377560
 20
1.946120
  0
VERTEX
  8
0
  6
CONTINUOUS
 10
4.444000
 20
2.004200
  0
SEQEND
  8
0
  0
SOLID
  8
0
 62
    15
 10
4.377560
 20
1.946120
 11
5.023920
 21
2.321440
 12
4.302760
 22
1.895520
 13
4.949120
 23
2.270840
  0
POLYLINE
  8
0
  6
CONTINUOUS
 66
     1
 40
0.000000
 41
0.000000
  0
VERTEX
  8
0
  6
CONTINUOUS
 10
4.377560
 20
1.946120
  0
VERTEX
  8
0
  6
CONTINUOUS
 10
5.023920
 20
2.321440
  0
VERTEX
  8
0
  6
CONTINUOUS
 10
4.949120
 20
2.270840
  0
VERTEX
  8
0
  6
CONTINUOUS
 10
4.302760
 20
1.895520
  0
VERTEX
  8
0
  6
CONTINUOUS
 10
4.377560
 20
1.946120
  0
SEQEND
  8
0
  0
SOLID
  8
0
 62
    15
 10
4.594480
 20
2.216720
 11
5.240840
 21
2.592040
 12
4.553120
 22
2.140600
 13
5.199480
 23
2.515920
  0
POLYLINE
  8
0
  6
CONTINUOUS
 66
     1
 40
0.000000
 41
0.000000
  0
VERTEX
  8
0
  6
CONTINUOUS
 10
4.594480
 20
2.216720
  0
VERTEX
  8
0
  6
CONTINUOUS
 10
5.240840
 20
2.592040
  0
VERTEX
  8
0
  6
CONTINUOUS
 10
5.199480
 20
2.515920
  0
VERTEX
  8
0
  6
CONTINUOUS
 10
4.553120
 20
2.140600
  0
VERTEX
  8
0
  6
CONTINUOUS
 10
4.594480
 20
2.216720
  0
SEQEND
  8
0
  0
SOLID
  8
0
 62
    15
 10
4.553120
 20
2.140600
 11
5.199480
 21
2.515920
 12
4.502960
 22
2.069320
 13
5.149320
 23
2.445080
  0
POLYLINE
  8
0
  6
CONTINUOUS
 66
     1
 40
0.000000
 41
0.000000
  0
VERTEX
  8
0
  6
CONTINUOUS
 10
4.553120
 20
2.140600
  0
VERTEX
  8
0
  6
CONTINUOUS
 10
5.199480
 20
2.515920
  0
VERTEX
  8
0
  6
CONTINUOUS
 10
5.149320
 20
2.445080
  0
VERTEX
  8
0
  6
CONTINUOUS
 10
4.502960
 20
2.069320
  0
VERTEX
  8
0
  6
CONTINUOUS
 10
4.553120
 20
2.140600
  0
SEQEND
  8
0
  0
SOLID
  8
0
 62
    15
 10
3.035560
 20
2.822600
 11
3.682360
 21
3.198360
 12
4.627480
 22
2.822600
 13
5.273840
 23
3.198360
  0
POLYLINE
  8
0
  6
CONTINUOUS
 66
     1
 40
0.000000
 41
0.000000
  0
VERTEX
  8
0
  6
CONTINUOUS
 10
3.035560
 20
2.822600
  0
VERTEX
  8
0
  6
CONTINUOUS
 10
3.682360
 20
3.198360
  0
VERTEX
  8
0
  6
CONTINUOUS
 10
5.273840
 20
3.198360
  0
VERTEX
  8
0
  6
CONTINUOUS
 10
4.627480
 20
2.822600
  0
VERTEX
  8
0
  6
CONTINUOUS
 10
3.035560
 20
2.822600
  0
SEQEND
  8
0
  0
SOLID
  8
0
 62
    15
 10
4.627480
 20
2.822600
 11
5.273840
 21
3.198360
 12
4.633640
 22
2.816440
 13
5.280000
 23
3.192200
  0
POLYLINE
  8
0
  6
CONTINUOUS
 66
     1
 40
0.000000
 41
0.000000
  0
VERTEX
  8
0
  6
CONTINUOUS
 10
4.627480
 20
2.822600
  0
VERTEX
  8
0
  6
CONTINUOUS
 10
5.273840
 20
3.198360
  0
VERTEX
  8
0
  6
CONTINUOUS
 10
5.280000
 20
3.192200
  0
VERTEX
  8
0
  6
CONTINUOUS
 10
4.633640
 20
2.816440
  0
VERTEX
  8
0
  6
CONTINUOUS
 10
4.627480
 20
2.822600
  0
SEQEND
  8
0
  0
POLYLINE
  8
0
  6
CONTINUOUS
 66
     1
 40
0.000000
 41
0.000000
  0
VERTEX
  8
0
  6
CONTINUOUS
 10
4.633640
 20
2.816440
  0
VERTEX
  8
0
  6
CONTINUOUS
 10
4.656080
 20
2.730200
  0
VERTEX
  8
0
  6
CONTINUOUS
 10
4.668840
 20
2.642200
  0
VERTEX
  8
0
  6
CONTINUOUS
 10
4.672360
 20
2.554200
  0
VERTEX
  8
0
  6
CONTINUOUS
 10
4.666640
 20
2.466640
  0
VERTEX
  8
0
  6
CONTINUOUS
 10
4.651240
 20
2.380840
  0
VERTEX
  8
0
  6
CONTINUOUS
 10
4.627480
 20
2.297240
  0
VERTEX
  8
0
  6
CONTINUOUS
 10
4.594480
 20
2.216720
  0
VERTEX
  8
0
  6
CONTINUOUS
 10
4.553120
 20
2.140600
  0
VERTEX
  8
0
  6
CONTINUOUS
 10
4.502960
 20
2.069320
  0
VERTEX
  8
0
  6
CONTINUOUS
 10
4.444000
 20
2.004200
  0
VERTEX
  8
0
  6
CONTINUOUS
 10
4.377560
 20
1.946120
  0
VERTEX
  8
0
  6
CONTINUOUS
 10
4.302760
 20
1.895520
  0
VERTEX
  8
0
  6
CONTINUOUS
 10
4.219600
 20
1.853720
  0
VERTEX
  8
0
  6
CONTINUOUS
 10
4.129400
 20
1.821600
  0
VERTEX
  8
0
  6
CONTINUOUS
 10
4.030840
 20
1.799600
  0
VERTEX
  8
0
  6
CONTINUOUS
 10
3.925240
 20
1.789480
  0
VERTEX
  8
0
  6
CONTINUOUS
 10
3.919080
 20
1.783320
  0
VERTEX
  8
0
  6
CONTINUOUS
 10
3.919080
 20
1.316480
  0
VERTEX
  8
0
  6
CONTINUOUS
 10
3.036000
 20
1.316480
  0
VERTEX
  8
0
  6
CONTINUOUS
 10
3.035560
 20
2.822600
  0
VERTEX
  8
0
  6
CONTINUOUS
 10
4.627480
 20
2.822600
  0
VERTEX
  8
0
  6
CONTINUOUS
 10
4.633640
 20
2.816440
  0
SEQEND
  8
0
  0
TEXT
  8
0
 10
3.882120
 20
1.085920
 40
0.138098
  1
BA  722
 41
1.000000
  7
SN0
 71
     0
 72
     5
 11
4.472015
 21
1.085920
  0
TEXT
  8
0
 10
3.652440
 20
0.894520
 40
0.138098
  1
1-1/2" x 1-5/8"
 41
1.000000
  7
SN0
 71
     0
 72
     5
 11
4.699062
 21
0.894520
  0
ENDSEC
  0
EOF
