  0
SECTION
  2
HEADER
  9
$ACADVER
  1
AC1006
  9
$EXTMIN
 10
2.559040
 20
4.366120
  9
$EXTMAX
 10
5.940440
 20
6.633440
  9
$LTSCALE
 40
0.044000
  9
$PDMODE
 70
    35
  9
$PDSIZE
 40
0.035200
  0
ENDSEC
  0
SECTION
  2
TABLES
  0
TABLE
  2
LTYPE
 70
     9
  0
LTYPE
  2
CONTINUOUS
 70
    64
  3
Solid line
 72
    65
 73
     0
 40
0.000000
  0
LTYPE
  2
DASHED
 70
    64
  3
__ __ __ __ __ __ __ __ __ __ __ __ __ __ __
 72
    65
 73
     2
 40
0.000330
 49
0.000220
 49
-0.000110
  0
LTYPE
  2
HIDDEN
 70
    64
  3
 _ _ _ _ _ _ _ _ _ _ _ _ _ _ _ _ _ _ _ _ _ _
 72
    65
 73
     2
 40
0.000165
 49
0.000110
 49
-0.000055
  0
LTYPE
  2
CENTER
 70
    64
  3
____ _ ____ _ ____ _ ____ _ ____ _ ____ _ ____
 72
    65
 73
     4
 40
0.000880
 49
0.000550
 49
-0.000110
 49
0.000110
 49
-0.000110
  0
LTYPE
  2
PHANTOM
 70
    64
  3
_____ _ _ _____ _ _ _____ _ _ _____ _ _ ____
 72
    65
 73
     6
 40
0.001100
 49
0.000550
 49
-0.000110
 49
0.000110
 49
-0.000110
 49
0.000110
 49
-0.000110
  0
LTYPE
  2
DOT
 70
    64
  3
...............................................
 72
    65
 73
     2
 40
0.000110
 49
0.000000
 49
-0.000110
  0
LTYPE
  2
DASHDOT
 70
    64
  3
__ . __ . __ . __ . __ . __ . __ . __ . __ . __
 72
    65
 73
     4
 40
0.000440
 49
0.000220
 49
-0.000110
 49
0.000000
 49
-0.000110
  0
LTYPE
  2
BORDER
 70
    64
  3
__ __ . __ __ . __ __ . __ __ . __ __ . __ __
 72
    65
 73
     6
 40
0.000770
 49
0.000220
 49
-0.000110
 49
0.000220
 49
-0.000110
 49
0.000000
 49
-0.000110
  0
LTYPE
  2
DIVIDE
 70
    64
  3
__ . . __ . . __ . . __ . . __ . . __ . . __
 72
    65
 73
     6
 40
0.000550
 49
0.000220
 49
-0.000110
 49
0.000000
 49
-0.000110
 49
0.000000
 49
-0.000110
  0
LTYPE
  2
DOTDOT
 70
    64
  3
 . .  . .  . .  . .  . .  . . 
 72
    65
 73
     5
 40
0.000242
 49
-0.000110
 49
0.000000
 49
-0.000110
 49
0.000000
 49
-0.000110
  0
ENDTAB
  0
TABLE
  2
STYLE
 70
     2
  0
STYLE
 70
     0
  2
SN0
 40
0.000000
 41
0.000440
 50
0.000000
 71
     0
 42
0.000000
  3
ROMAND
  0
STYLE
 70
    68
  2
SV0
 40
0.000000
 41
0.000440
 50
0.000000
 71
     0
 42
0.000000
  3
ROMAND
  0
ENDTAB
  0
TABLE
  2
LAYER
 70
     3
  0
LAYER
  2
FOREGROUND
 70
    64
 62
     7
  6
CONTINUOUS
  0
LAYER
  2
BACKGROUND
 70
    65
 62
    -7
  6
CONTINUOUS
  0
LAYER
  2
0
 70
    64
 62
     7
  6
CONTINUOUS
  0
ENDTAB
  0
ENDSEC
  0
SECTION
  2
ENTITIES
  0
POLYLINE
  8
FOREGROUND
  6
CONTINUOUS
 66
     1
 40
0.000000
 41
0.000000
  0
VERTEX
  8
FOREGROUND
  6
CONTINUOUS
 10
0.000000
 20
10.999560
  0
VERTEX
  8
FOREGROUND
  6
CONTINUOUS
 10
8.499920
 20
10.999560
  0
VERTEX
  8
FOREGROUND
  6
CONTINUOUS
 10
8.499920
 20
-0.000440
  0
VERTEX
  8
FOREGROUND
  6
CONTINUOUS
 10
0.000000
 20
-0.000440
  0
VERTEX
  8
FOREGROUND
  6
CONTINUOUS
 10
0.000000
 20
10.999560
  0
SEQEND
  8
0
  0
POLYLINE
  8
FOREGROUND
  6
CONTINUOUS
 66
     1
 40
0.000000
 41
0.000000
  0
VERTEX
  8
FOREGROUND
  6
CONTINUOUS
 10
0.000000
 20
10.999560
  0
VERTEX
  8
FOREGROUND
  6
CONTINUOUS
 10
8.499920
 20
10.999560
  0
VERTEX
  8
FOREGROUND
  6
CONTINUOUS
 10
8.499920
 20
-0.000440
  0
VERTEX
  8
FOREGROUND
  6
CONTINUOUS
 10
0.000000
 20
-0.000440
  0
VERTEX
  8
FOREGROUND
  6
CONTINUOUS
 10
0.000000
 20
10.999560
  0
SEQEND
  8
0
  0
SOLID
  8
0
 62
    15
 10
2.960320
 20
5.368000
 11
3.596120
 21
5.743760
 12
2.939640
 22
5.346880
 13
3.575440
 23
5.722200
  0
POLYLINE
  8
0
  6
CONTINUOUS
 66
     1
 40
0.000000
 41
0.000000
  0
VERTEX
  8
0
  6
CONTINUOUS
 10
2.960320
 20
5.368000
  0
VERTEX
  8
0
  6
CONTINUOUS
 10
3.596120
 20
5.743760
  0
VERTEX
  8
0
  6
CONTINUOUS
 10
3.575440
 20
5.722200
  0
VERTEX
  8
0
  6
CONTINUOUS
 10
2.939640
 20
5.346880
  0
VERTEX
  8
0
  6
CONTINUOUS
 10
2.960320
 20
5.368000
  0
SEQEND
  8
0
  0
SOLID
  8
0
 62
    15
 10
3.131920
 20
6.248440
 11
3.767720
 21
6.623760
 12
3.178120
 22
6.229080
 13
3.813920
 23
6.604400
  0
POLYLINE
  8
0
  6
CONTINUOUS
 66
     1
 40
0.000000
 41
0.000000
  0
VERTEX
  8
0
  6
CONTINUOUS
 10
3.131920
 20
6.248440
  0
VERTEX
  8
0
  6
CONTINUOUS
 10
3.767720
 20
6.623760
  0
VERTEX
  8
0
  6
CONTINUOUS
 10
3.813920
 20
6.604400
  0
VERTEX
  8
0
  6
CONTINUOUS
 10
3.178120
 20
6.229080
  0
VERTEX
  8
0
  6
CONTINUOUS
 10
3.131920
 20
6.248440
  0
SEQEND
  8
0
  0
SOLID
  8
0
 62
    15
 10
3.178120
 20
6.229080
 11
3.813920
 21
6.604400
 12
3.219480
 22
6.200040
 13
3.855280
 23
6.575360
  0
POLYLINE
  8
0
  6
CONTINUOUS
 66
     1
 40
0.000000
 41
0.000000
  0
VERTEX
  8
0
  6
CONTINUOUS
 10
3.178120
 20
6.229080
  0
VERTEX
  8
0
  6
CONTINUOUS
 10
3.813920
 20
6.604400
  0
VERTEX
  8
0
  6
CONTINUOUS
 10
3.855280
 20
6.575360
  0
VERTEX
  8
0
  6
CONTINUOUS
 10
3.219480
 20
6.200040
  0
VERTEX
  8
0
  6
CONTINUOUS
 10
3.178120
 20
6.229080
  0
SEQEND
  8
0
  0
SOLID
  8
0
 62
    15
 10
3.219480
 20
6.200040
 11
3.855280
 21
6.575360
 12
3.255560
 22
6.162640
 13
3.891360
 23
6.538400
  0
POLYLINE
  8
0
  6
CONTINUOUS
 66
     1
 40
0.000000
 41
0.000000
  0
VERTEX
  8
0
  6
CONTINUOUS
 10
3.219480
 20
6.200040
  0
VERTEX
  8
0
  6
CONTINUOUS
 10
3.855280
 20
6.575360
  0
VERTEX
  8
0
  6
CONTINUOUS
 10
3.891360
 20
6.538400
  0
VERTEX
  8
0
  6
CONTINUOUS
 10
3.255560
 20
6.162640
  0
VERTEX
  8
0
  6
CONTINUOUS
 10
3.219480
 20
6.200040
  0
SEQEND
  8
0
  0
SOLID
  8
0
 62
    15
 10
3.255560
 20
6.162640
 11
3.891360
 21
6.538400
 12
3.285040
 22
6.118640
 13
3.920840
 23
6.494400
  0
POLYLINE
  8
0
  6
CONTINUOUS
 66
     1
 40
0.000000
 41
0.000000
  0
VERTEX
  8
0
  6
CONTINUOUS
 10
3.255560
 20
6.162640
  0
VERTEX
  8
0
  6
CONTINUOUS
 10
3.891360
 20
6.538400
  0
VERTEX
  8
0
  6
CONTINUOUS
 10
3.920840
 20
6.494400
  0
VERTEX
  8
0
  6
CONTINUOUS
 10
3.285040
 20
6.118640
  0
VERTEX
  8
0
  6
CONTINUOUS
 10
3.255560
 20
6.162640
  0
SEQEND
  8
0
  0
SOLID
  8
0
 62
    15
 10
3.285040
 20
6.118640
 11
3.920840
 21
6.494400
 12
3.307480
 22
6.069360
 13
3.943280
 23
6.444680
  0
POLYLINE
  8
0
  6
CONTINUOUS
 66
     1
 40
0.000000
 41
0.000000
  0
VERTEX
  8
0
  6
CONTINUOUS
 10
3.285040
 20
6.118640
  0
VERTEX
  8
0
  6
CONTINUOUS
 10
3.920840
 20
6.494400
  0
VERTEX
  8
0
  6
CONTINUOUS
 10
3.943280
 20
6.444680
  0
VERTEX
  8
0
  6
CONTINUOUS
 10
3.307480
 20
6.069360
  0
VERTEX
  8
0
  6
CONTINUOUS
 10
3.285040
 20
6.118640
  0
SEQEND
  8
0
  0
SOLID
  8
0
 62
    15
 10
3.307480
 20
6.069360
 11
3.943280
 21
6.444680
 12
3.322880
 22
6.015680
 13
3.958680
 23
6.391440
  0
POLYLINE
  8
0
  6
CONTINUOUS
 66
     1
 40
0.000000
 41
0.000000
  0
VERTEX
  8
0
  6
CONTINUOUS
 10
3.307480
 20
6.069360
  0
VERTEX
  8
0
  6
CONTINUOUS
 10
3.943280
 20
6.444680
  0
VERTEX
  8
0
  6
CONTINUOUS
 10
3.958680
 20
6.391440
  0
VERTEX
  8
0
  6
CONTINUOUS
 10
3.322880
 20
6.015680
  0
VERTEX
  8
0
  6
CONTINUOUS
 10
3.307480
 20
6.069360
  0
SEQEND
  8
0
  0
SOLID
  8
0
 62
    15
 10
3.322880
 20
6.015680
 11
3.958680
 21
6.391440
 12
3.329920
 22
5.959360
 13
3.965720
 23
6.335120
  0
POLYLINE
  8
0
  6
CONTINUOUS
 66
     1
 40
0.000000
 41
0.000000
  0
VERTEX
  8
0
  6
CONTINUOUS
 10
3.322880
 20
6.015680
  0
VERTEX
  8
0
  6
CONTINUOUS
 10
3.958680
 20
6.391440
  0
VERTEX
  8
0
  6
CONTINUOUS
 10
3.965720
 20
6.335120
  0
VERTEX
  8
0
  6
CONTINUOUS
 10
3.329920
 20
5.959360
  0
VERTEX
  8
0
  6
CONTINUOUS
 10
3.322880
 20
6.015680
  0
SEQEND
  8
0
  0
SOLID
  8
0
 62
    15
 10
3.329920
 20
5.959360
 11
3.965720
 21
6.335120
 12
3.328160
 22
5.901720
 13
3.963960
 23
6.277480
  0
POLYLINE
  8
0
  6
CONTINUOUS
 66
     1
 40
0.000000
 41
0.000000
  0
VERTEX
  8
0
  6
CONTINUOUS
 10
3.329920
 20
5.959360
  0
VERTEX
  8
0
  6
CONTINUOUS
 10
3.965720
 20
6.335120
  0
VERTEX
  8
0
  6
CONTINUOUS
 10
3.963960
 20
6.277480
  0
VERTEX
  8
0
  6
CONTINUOUS
 10
3.328160
 20
5.901720
  0
VERTEX
  8
0
  6
CONTINUOUS
 10
3.329920
 20
5.959360
  0
SEQEND
  8
0
  0
SOLID
  8
0
 62
    15
 10
3.328160
 20
5.901720
 11
3.963960
 21
6.277480
 12
3.316720
 22
5.844080
 13
3.952520
 23
6.219840
  0
POLYLINE
  8
0
  6
CONTINUOUS
 66
     1
 40
0.000000
 41
0.000000
  0
VERTEX
  8
0
  6
CONTINUOUS
 10
3.328160
 20
5.901720
  0
VERTEX
  8
0
  6
CONTINUOUS
 10
3.963960
 20
6.277480
  0
VERTEX
  8
0
  6
CONTINUOUS
 10
3.952520
 20
6.219840
  0
VERTEX
  8
0
  6
CONTINUOUS
 10
3.316720
 20
5.844080
  0
VERTEX
  8
0
  6
CONTINUOUS
 10
3.328160
 20
5.901720
  0
SEQEND
  8
0
  0
SOLID
  8
0
 62
    15
 10
3.316720
 20
5.844080
 11
3.952520
 21
6.219840
 12
3.295600
 22
5.787760
 13
3.931400
 23
6.163520
  0
POLYLINE
  8
0
  6
CONTINUOUS
 66
     1
 40
0.000000
 41
0.000000
  0
VERTEX
  8
0
  6
CONTINUOUS
 10
3.316720
 20
5.844080
  0
VERTEX
  8
0
  6
CONTINUOUS
 10
3.952520
 20
6.219840
  0
VERTEX
  8
0
  6
CONTINUOUS
 10
3.931400
 20
6.163520
  0
VERTEX
  8
0
  6
CONTINUOUS
 10
3.295600
 20
5.787760
  0
VERTEX
  8
0
  6
CONTINUOUS
 10
3.316720
 20
5.844080
  0
SEQEND
  8
0
  0
SOLID
  8
0
 62
    15
 10
3.295600
 20
5.787760
 11
3.931400
 21
6.163520
 12
3.263920
 22
5.734080
 13
3.899720
 23
6.109840
  0
POLYLINE
  8
0
  6
CONTINUOUS
 66
     1
 40
0.000000
 41
0.000000
  0
VERTEX
  8
0
  6
CONTINUOUS
 10
3.295600
 20
5.787760
  0
VERTEX
  8
0
  6
CONTINUOUS
 10
3.931400
 20
6.163520
  0
VERTEX
  8
0
  6
CONTINUOUS
 10
3.899720
 20
6.109840
  0
VERTEX
  8
0
  6
CONTINUOUS
 10
3.263920
 20
5.734080
  0
VERTEX
  8
0
  6
CONTINUOUS
 10
3.295600
 20
5.787760
  0
SEQEND
  8
0
  0
SOLID
  8
0
 62
    15
 10
3.017520
 20
5.573480
 11
3.653320
 21
5.948800
 12
3.017520
 22
5.411120
 13
3.653320
 23
5.786880
  0
POLYLINE
  8
0
  6
CONTINUOUS
 66
     1
 40
0.000000
 41
0.000000
  0
VERTEX
  8
0
  6
CONTINUOUS
 10
3.017520
 20
5.573480
  0
VERTEX
  8
0
  6
CONTINUOUS
 10
3.653320
 20
5.948800
  0
VERTEX
  8
0
  6
CONTINUOUS
 10
3.653320
 20
5.786880
  0
VERTEX
  8
0
  6
CONTINUOUS
 10
3.017520
 20
5.411120
  0
VERTEX
  8
0
  6
CONTINUOUS
 10
3.017520
 20
5.573480
  0
SEQEND
  8
0
  0
SOLID
  8
0
 62
    15
 10
3.220800
 20
5.684800
 11
3.856600
 21
6.060120
 12
3.165800
 22
5.640360
 13
3.801600
 23
6.015680
  0
POLYLINE
  8
0
  6
CONTINUOUS
 66
     1
 40
0.000000
 41
0.000000
  0
VERTEX
  8
0
  6
CONTINUOUS
 10
3.220800
 20
5.684800
  0
VERTEX
  8
0
  6
CONTINUOUS
 10
3.856600
 20
6.060120
  0
VERTEX
  8
0
  6
CONTINUOUS
 10
3.801600
 20
6.015680
  0
VERTEX
  8
0
  6
CONTINUOUS
 10
3.165800
 20
5.640360
  0
VERTEX
  8
0
  6
CONTINUOUS
 10
3.220800
 20
5.684800
  0
SEQEND
  8
0
  0
SOLID
  8
0
 62
    15
 10
3.165800
 20
5.640360
 11
3.801600
 21
6.015680
 12
3.133680
 22
5.620560
 13
3.769480
 23
5.996320
  0
POLYLINE
  8
0
  6
CONTINUOUS
 66
     1
 40
0.000000
 41
0.000000
  0
VERTEX
  8
0
  6
CONTINUOUS
 10
3.165800
 20
5.640360
  0
VERTEX
  8
0
  6
CONTINUOUS
 10
3.801600
 20
6.015680
  0
VERTEX
  8
0
  6
CONTINUOUS
 10
3.769480
 20
5.996320
  0
VERTEX
  8
0
  6
CONTINUOUS
 10
3.133680
 20
5.620560
  0
VERTEX
  8
0
  6
CONTINUOUS
 10
3.165800
 20
5.640360
  0
SEQEND
  8
0
  0
SOLID
  8
0
 62
    15
 10
3.263920
 20
5.734080
 11
3.899720
 21
6.109840
 12
3.220800
 22
5.684800
 13
3.856600
 23
6.060120
  0
POLYLINE
  8
0
  6
CONTINUOUS
 66
     1
 40
0.000000
 41
0.000000
  0
VERTEX
  8
0
  6
CONTINUOUS
 10
3.263920
 20
5.734080
  0
VERTEX
  8
0
  6
CONTINUOUS
 10
3.899720
 20
6.109840
  0
VERTEX
  8
0
  6
CONTINUOUS
 10
3.856600
 20
6.060120
  0
VERTEX
  8
0
  6
CONTINUOUS
 10
3.220800
 20
5.684800
  0
VERTEX
  8
0
  6
CONTINUOUS
 10
3.263920
 20
5.734080
  0
SEQEND
  8
0
  0
SOLID
  8
0
 62
    15
 10
3.017520
 20
5.411120
 11
3.653320
 21
5.786880
 12
2.985840
 22
5.390000
 13
3.621640
 23
5.765320
  0
POLYLINE
  8
0
  6
CONTINUOUS
 66
     1
 40
0.000000
 41
0.000000
  0
VERTEX
  8
0
  6
CONTINUOUS
 10
3.017520
 20
5.411120
  0
VERTEX
  8
0
  6
CONTINUOUS
 10
3.653320
 20
5.786880
  0
VERTEX
  8
0
  6
CONTINUOUS
 10
3.621640
 20
5.765320
  0
VERTEX
  8
0
  6
CONTINUOUS
 10
2.985840
 20
5.390000
  0
VERTEX
  8
0
  6
CONTINUOUS
 10
3.017520
 20
5.411120
  0
SEQEND
  8
0
  0
SOLID
  8
0
 62
    15
 10
2.985840
 20
5.390000
 11
3.621640
 21
5.765320
 12
2.960320
 22
5.368000
 13
3.596120
 23
5.743760
  0
POLYLINE
  8
0
  6
CONTINUOUS
 66
     1
 40
0.000000
 41
0.000000
  0
VERTEX
  8
0
  6
CONTINUOUS
 10
2.985840
 20
5.390000
  0
VERTEX
  8
0
  6
CONTINUOUS
 10
3.621640
 20
5.765320
  0
VERTEX
  8
0
  6
CONTINUOUS
 10
3.596120
 20
5.743760
  0
VERTEX
  8
0
  6
CONTINUOUS
 10
2.960320
 20
5.368000
  0
VERTEX
  8
0
  6
CONTINUOUS
 10
2.985840
 20
5.390000
  0
SEQEND
  8
0
  0
SOLID
  8
0
 62
    15
 10
3.081320
 20
6.257240
 11
3.717120
 21
6.632560
 12
3.131920
 22
6.248440
 13
3.767720
 23
6.623760
  0
POLYLINE
  8
0
  6
CONTINUOUS
 66
     1
 40
0.000000
 41
0.000000
  0
VERTEX
  8
0
  6
CONTINUOUS
 10
3.081320
 20
6.257240
  0
VERTEX
  8
0
  6
CONTINUOUS
 10
3.717120
 20
6.632560
  0
VERTEX
  8
0
  6
CONTINUOUS
 10
3.767720
 20
6.623760
  0
VERTEX
  8
0
  6
CONTINUOUS
 10
3.131920
 20
6.248440
  0
VERTEX
  8
0
  6
CONTINUOUS
 10
3.081320
 20
6.257240
  0
SEQEND
  8
0
  0
SOLID
  8
0
 62
    15
 10
2.939640
 20
5.346880
 11
3.575440
 21
5.722200
 12
2.923360
 22
5.326200
 13
3.559160
 23
5.701520
  0
POLYLINE
  8
0
  6
CONTINUOUS
 66
     1
 40
0.000000
 41
0.000000
  0
VERTEX
  8
0
  6
CONTINUOUS
 10
2.939640
 20
5.346880
  0
VERTEX
  8
0
  6
CONTINUOUS
 10
3.575440
 20
5.722200
  0
VERTEX
  8
0
  6
CONTINUOUS
 10
3.559160
 20
5.701520
  0
VERTEX
  8
0
  6
CONTINUOUS
 10
2.923360
 20
5.326200
  0
VERTEX
  8
0
  6
CONTINUOUS
 10
2.939640
 20
5.346880
  0
SEQEND
  8
0
  0
SOLID
  8
0
 62
    15
 10
2.923360
 20
5.326200
 11
3.559160
 21
5.701520
 12
2.911480
 22
5.306840
 13
3.547280
 23
5.682600
  0
POLYLINE
  8
0
  6
CONTINUOUS
 66
     1
 40
0.000000
 41
0.000000
  0
VERTEX
  8
0
  6
CONTINUOUS
 10
2.923360
 20
5.326200
  0
VERTEX
  8
0
  6
CONTINUOUS
 10
3.559160
 20
5.701520
  0
VERTEX
  8
0
  6
CONTINUOUS
 10
3.547280
 20
5.682600
  0
VERTEX
  8
0
  6
CONTINUOUS
 10
2.911480
 20
5.306840
  0
VERTEX
  8
0
  6
CONTINUOUS
 10
2.923360
 20
5.326200
  0
SEQEND
  8
0
  0
SOLID
  8
0
 62
    15
 10
2.911480
 20
5.306840
 11
3.547280
 21
5.682600
 12
2.903120
 22
5.289680
 13
3.538920
 23
5.665000
  0
POLYLINE
  8
0
  6
CONTINUOUS
 66
     1
 40
0.000000
 41
0.000000
  0
VERTEX
  8
0
  6
CONTINUOUS
 10
2.911480
 20
5.306840
  0
VERTEX
  8
0
  6
CONTINUOUS
 10
3.547280
 20
5.682600
  0
VERTEX
  8
0
  6
CONTINUOUS
 10
3.538920
 20
5.665000
  0
VERTEX
  8
0
  6
CONTINUOUS
 10
2.903120
 20
5.289680
  0
VERTEX
  8
0
  6
CONTINUOUS
 10
2.911480
 20
5.306840
  0
SEQEND
  8
0
  0
SOLID
  8
0
 62
    15
 10
2.903120
 20
5.289680
 11
3.538920
 21
5.665000
 12
2.897840
 22
5.274720
 13
3.533640
 23
5.650480
  0
POLYLINE
  8
0
  6
CONTINUOUS
 66
     1
 40
0.000000
 41
0.000000
  0
VERTEX
  8
0
  6
CONTINUOUS
 10
2.903120
 20
5.289680
  0
VERTEX
  8
0
  6
CONTINUOUS
 10
3.538920
 20
5.665000
  0
VERTEX
  8
0
  6
CONTINUOUS
 10
3.533640
 20
5.650480
  0
VERTEX
  8
0
  6
CONTINUOUS
 10
2.897840
 20
5.274720
  0
VERTEX
  8
0
  6
CONTINUOUS
 10
2.903120
 20
5.289680
  0
SEQEND
  8
0
  0
SOLID
  8
0
 62
    15
 10
2.897840
 20
5.274720
 11
3.533640
 21
5.650480
 12
2.895200
 22
5.262840
 13
3.531000
 23
5.638600
  0
POLYLINE
  8
0
  6
CONTINUOUS
 66
     1
 40
0.000000
 41
0.000000
  0
VERTEX
  8
0
  6
CONTINUOUS
 10
2.897840
 20
5.274720
  0
VERTEX
  8
0
  6
CONTINUOUS
 10
3.533640
 20
5.650480
  0
VERTEX
  8
0
  6
CONTINUOUS
 10
3.531000
 20
5.638600
  0
VERTEX
  8
0
  6
CONTINUOUS
 10
2.895200
 20
5.262840
  0
VERTEX
  8
0
  6
CONTINUOUS
 10
2.897840
 20
5.274720
  0
SEQEND
  8
0
  0
SOLID
  8
0
 62
    15
 10
2.895200
 20
5.262840
 11
3.531000
 21
5.638600
 12
2.894320
 22
5.255800
 13
3.530120
 23
5.631120
  0
POLYLINE
  8
0
  6
CONTINUOUS
 66
     1
 40
0.000000
 41
0.000000
  0
VERTEX
  8
0
  6
CONTINUOUS
 10
2.895200
 20
5.262840
  0
VERTEX
  8
0
  6
CONTINUOUS
 10
3.531000
 20
5.638600
  0
VERTEX
  8
0
  6
CONTINUOUS
 10
3.530120
 20
5.631120
  0
VERTEX
  8
0
  6
CONTINUOUS
 10
2.894320
 20
5.255800
  0
VERTEX
  8
0
  6
CONTINUOUS
 10
2.895200
 20
5.262840
  0
SEQEND
  8
0
  0
SOLID
  8
0
 62
    15
 10
2.894320
 20
5.255800
 11
3.530120
 21
5.631120
 12
2.893880
 22
5.243920
 13
3.529240
 23
5.619680
  0
POLYLINE
  8
0
  6
CONTINUOUS
 66
     1
 40
0.000000
 41
0.000000
  0
VERTEX
  8
0
  6
CONTINUOUS
 10
2.894320
 20
5.255800
  0
VERTEX
  8
0
  6
CONTINUOUS
 10
3.530120
 20
5.631120
  0
VERTEX
  8
0
  6
CONTINUOUS
 10
3.529240
 20
5.619680
  0
VERTEX
  8
0
  6
CONTINUOUS
 10
2.893880
 20
5.243920
  0
VERTEX
  8
0
  6
CONTINUOUS
 10
2.894320
 20
5.255800
  0
SEQEND
  8
0
  0
SOLID
  8
0
 62
    15
 10
2.893880
 20
5.243920
 11
3.529240
 21
5.619680
 12
2.890800
 22
5.210920
 13
3.526160
 23
5.586240
  0
POLYLINE
  8
0
  6
CONTINUOUS
 66
     1
 40
0.000000
 41
0.000000
  0
VERTEX
  8
0
  6
CONTINUOUS
 10
2.893880
 20
5.243920
  0
VERTEX
  8
0
  6
CONTINUOUS
 10
3.529240
 20
5.619680
  0
VERTEX
  8
0
  6
CONTINUOUS
 10
3.526160
 20
5.586240
  0
VERTEX
  8
0
  6
CONTINUOUS
 10
2.890800
 20
5.210920
  0
VERTEX
  8
0
  6
CONTINUOUS
 10
2.893880
 20
5.243920
  0
SEQEND
  8
0
  0
SOLID
  8
0
 62
    15
 10
2.890800
 20
5.210920
 11
3.526160
 21
5.586240
 12
2.883320
 22
5.167800
 13
3.519120
 23
5.543560
  0
POLYLINE
  8
0
  6
CONTINUOUS
 66
     1
 40
0.000000
 41
0.000000
  0
VERTEX
  8
0
  6
CONTINUOUS
 10
2.890800
 20
5.210920
  0
VERTEX
  8
0
  6
CONTINUOUS
 10
3.526160
 20
5.586240
  0
VERTEX
  8
0
  6
CONTINUOUS
 10
3.519120
 20
5.543560
  0
VERTEX
  8
0
  6
CONTINUOUS
 10
2.883320
 20
5.167800
  0
VERTEX
  8
0
  6
CONTINUOUS
 10
2.890800
 20
5.210920
  0
SEQEND
  8
0
  0
SOLID
  8
0
 62
    15
 10
2.883320
 20
5.167800
 11
3.519120
 21
5.543560
 12
2.869240
 22
5.120280
 13
3.505040
 23
5.496040
  0
POLYLINE
  8
0
  6
CONTINUOUS
 66
     1
 40
0.000000
 41
0.000000
  0
VERTEX
  8
0
  6
CONTINUOUS
 10
2.883320
 20
5.167800
  0
VERTEX
  8
0
  6
CONTINUOUS
 10
3.519120
 20
5.543560
  0
VERTEX
  8
0
  6
CONTINUOUS
 10
3.505040
 20
5.496040
  0
VERTEX
  8
0
  6
CONTINUOUS
 10
2.869240
 20
5.120280
  0
VERTEX
  8
0
  6
CONTINUOUS
 10
2.883320
 20
5.167800
  0
SEQEND
  8
0
  0
SOLID
  8
0
 62
    15
 10
2.693680
 20
4.985200
 11
3.329480
 21
5.360520
 12
2.693680
 22
4.821960
 13
3.329480
 23
5.197720
  0
POLYLINE
  8
0
  6
CONTINUOUS
 66
     1
 40
0.000000
 41
0.000000
  0
VERTEX
  8
0
  6
CONTINUOUS
 10
2.693680
 20
4.985200
  0
VERTEX
  8
0
  6
CONTINUOUS
 10
3.329480
 20
5.360520
  0
VERTEX
  8
0
  6
CONTINUOUS
 10
3.329480
 20
5.197720
  0
VERTEX
  8
0
  6
CONTINUOUS
 10
2.693680
 20
4.821960
  0
VERTEX
  8
0
  6
CONTINUOUS
 10
2.693680
 20
4.985200
  0
SEQEND
  8
0
  0
SOLID
  8
0
 62
    15
 10
2.845920
 20
5.073640
 11
3.481720
 21
5.448960
 12
2.829640
 22
5.051640
 13
3.465440
 23
5.427400
  0
POLYLINE
  8
0
  6
CONTINUOUS
 66
     1
 40
0.000000
 41
0.000000
  0
VERTEX
  8
0
  6
CONTINUOUS
 10
2.845920
 20
5.073640
  0
VERTEX
  8
0
  6
CONTINUOUS
 10
3.481720
 20
5.448960
  0
VERTEX
  8
0
  6
CONTINUOUS
 10
3.465440
 20
5.427400
  0
VERTEX
  8
0
  6
CONTINUOUS
 10
2.829640
 20
5.051640
  0
VERTEX
  8
0
  6
CONTINUOUS
 10
2.845920
 20
5.073640
  0
SEQEND
  8
0
  0
SOLID
  8
0
 62
    15
 10
2.829640
 20
5.051640
 11
3.465440
 21
5.427400
 12
2.810280
 22
5.031840
 13
3.446080
 23
5.407600
  0
POLYLINE
  8
0
  6
CONTINUOUS
 66
     1
 40
0.000000
 41
0.000000
  0
VERTEX
  8
0
  6
CONTINUOUS
 10
2.829640
 20
5.051640
  0
VERTEX
  8
0
  6
CONTINUOUS
 10
3.465440
 20
5.427400
  0
VERTEX
  8
0
  6
CONTINUOUS
 10
3.446080
 20
5.407600
  0
VERTEX
  8
0
  6
CONTINUOUS
 10
2.810280
 20
5.031840
  0
VERTEX
  8
0
  6
CONTINUOUS
 10
2.829640
 20
5.051640
  0
SEQEND
  8
0
  0
SOLID
  8
0
 62
    15
 10
2.810280
 20
5.031840
 11
3.446080
 21
5.407600
 12
2.787400
 22
5.014680
 13
3.423200
 23
5.390440
  0
POLYLINE
  8
0
  6
CONTINUOUS
 66
     1
 40
0.000000
 41
0.000000
  0
VERTEX
  8
0
  6
CONTINUOUS
 10
2.810280
 20
5.031840
  0
VERTEX
  8
0
  6
CONTINUOUS
 10
3.446080
 20
5.407600
  0
VERTEX
  8
0
  6
CONTINUOUS
 10
3.423200
 20
5.390440
  0
VERTEX
  8
0
  6
CONTINUOUS
 10
2.787400
 20
5.014680
  0
VERTEX
  8
0
  6
CONTINUOUS
 10
2.810280
 20
5.031840
  0
SEQEND
  8
0
  0
SOLID
  8
0
 62
    15
 10
2.869240
 20
5.120280
 11
3.505040
 21
5.496040
 12
2.845920
 22
5.073640
 13
3.481720
 23
5.448960
  0
POLYLINE
  8
0
  6
CONTINUOUS
 66
     1
 40
0.000000
 41
0.000000
  0
VERTEX
  8
0
  6
CONTINUOUS
 10
2.869240
 20
5.120280
  0
VERTEX
  8
0
  6
CONTINUOUS
 10
3.505040
 20
5.496040
  0
VERTEX
  8
0
  6
CONTINUOUS
 10
3.481720
 20
5.448960
  0
VERTEX
  8
0
  6
CONTINUOUS
 10
2.845920
 20
5.073640
  0
VERTEX
  8
0
  6
CONTINUOUS
 10
2.869240
 20
5.120280
  0
SEQEND
  8
0
  0
SOLID
  8
0
 62
    15
 10
2.559480
 20
6.256800
 11
3.195280
 21
6.632560
 12
3.077360
 22
6.256800
 13
3.713160
 23
6.632560
  0
POLYLINE
  8
0
  6
CONTINUOUS
 66
     1
 40
0.000000
 41
0.000000
  0
VERTEX
  8
0
  6
CONTINUOUS
 10
2.559480
 20
6.256800
  0
VERTEX
  8
0
  6
CONTINUOUS
 10
3.195280
 20
6.632560
  0
VERTEX
  8
0
  6
CONTINUOUS
 10
3.713160
 20
6.632560
  0
VERTEX
  8
0
  6
CONTINUOUS
 10
3.077360
 20
6.256800
  0
VERTEX
  8
0
  6
CONTINUOUS
 10
2.559480
 20
6.256800
  0
SEQEND
  8
0
  0
SOLID
  8
0
 62
    15
 10
3.077360
 20
6.256800
 11
3.713160
 21
6.632560
 12
3.081320
 22
6.257240
 13
3.717120
 23
6.632560
  0
POLYLINE
  8
0
  6
CONTINUOUS
 66
     1
 40
0.000000
 41
0.000000
  0
VERTEX
  8
0
  6
CONTINUOUS
 10
3.077360
 20
6.256800
  0
VERTEX
  8
0
  6
CONTINUOUS
 10
3.713160
 20
6.632560
  0
VERTEX
  8
0
  6
CONTINUOUS
 10
3.717120
 20
6.632560
  0
VERTEX
  8
0
  6
CONTINUOUS
 10
3.081320
 20
6.257240
  0
VERTEX
  8
0
  6
CONTINUOUS
 10
3.077360
 20
6.256800
  0
SEQEND
  8
0
  0
POLYLINE
  8
0
  6
CONTINUOUS
 66
     1
 40
0.000000
 41
0.000000
  0
VERTEX
  8
0
  6
CONTINUOUS
 10
3.081320
 20
6.257240
  0
VERTEX
  8
0
  6
CONTINUOUS
 10
3.131920
 20
6.248440
  0
VERTEX
  8
0
  6
CONTINUOUS
 10
3.178120
 20
6.229080
  0
VERTEX
  8
0
  6
CONTINUOUS
 10
3.219480
 20
6.200040
  0
VERTEX
  8
0
  6
CONTINUOUS
 10
3.255560
 20
6.162640
  0
VERTEX
  8
0
  6
CONTINUOUS
 10
3.285040
 20
6.118640
  0
VERTEX
  8
0
  6
CONTINUOUS
 10
3.307480
 20
6.069360
  0
VERTEX
  8
0
  6
CONTINUOUS
 10
3.322880
 20
6.015680
  0
VERTEX
  8
0
  6
CONTINUOUS
 10
3.329920
 20
5.959360
  0
VERTEX
  8
0
  6
CONTINUOUS
 10
3.328160
 20
5.901720
  0
VERTEX
  8
0
  6
CONTINUOUS
 10
3.316720
 20
5.844080
  0
VERTEX
  8
0
  6
CONTINUOUS
 10
3.295600
 20
5.787760
  0
VERTEX
  8
0
  6
CONTINUOUS
 10
3.263920
 20
5.734080
  0
VERTEX
  8
0
  6
CONTINUOUS
 10
3.220800
 20
5.684800
  0
VERTEX
  8
0
  6
CONTINUOUS
 10
3.165800
 20
5.640360
  0
VERTEX
  8
0
  6
CONTINUOUS
 10
3.133680
 20
5.620560
  0
VERTEX
  8
0
  6
CONTINUOUS
 10
3.098480
 20
5.602960
  0
VERTEX
  8
0
  6
CONTINUOUS
 10
3.059760
 20
5.587120
  0
VERTEX
  8
0
  6
CONTINUOUS
 10
3.017520
 20
5.573480
  0
VERTEX
  8
0
  6
CONTINUOUS
 10
3.017520
 20
5.411120
  0
VERTEX
  8
0
  6
CONTINUOUS
 10
2.985840
 20
5.390000
  0
VERTEX
  8
0
  6
CONTINUOUS
 10
2.960320
 20
5.368000
  0
VERTEX
  8
0
  6
CONTINUOUS
 10
2.939640
 20
5.346880
  0
VERTEX
  8
0
  6
CONTINUOUS
 10
2.923360
 20
5.326200
  0
VERTEX
  8
0
  6
CONTINUOUS
 10
2.911480
 20
5.306840
  0
VERTEX
  8
0
  6
CONTINUOUS
 10
2.903120
 20
5.289680
  0
VERTEX
  8
0
  6
CONTINUOUS
 10
2.897840
 20
5.274720
  0
VERTEX
  8
0
  6
CONTINUOUS
 10
2.895200
 20
5.262840
  0
VERTEX
  8
0
  6
CONTINUOUS
 10
2.894320
 20
5.255800
  0
VERTEX
  8
0
  6
CONTINUOUS
 10
2.893880
 20
5.243920
  0
VERTEX
  8
0
  6
CONTINUOUS
 10
2.890800
 20
5.210920
  0
VERTEX
  8
0
  6
CONTINUOUS
 10
2.883320
 20
5.167800
  0
VERTEX
  8
0
  6
CONTINUOUS
 10
2.869240
 20
5.120280
  0
VERTEX
  8
0
  6
CONTINUOUS
 10
2.845920
 20
5.073640
  0
VERTEX
  8
0
  6
CONTINUOUS
 10
2.829640
 20
5.051640
  0
VERTEX
  8
0
  6
CONTINUOUS
 10
2.810280
 20
5.031840
  0
VERTEX
  8
0
  6
CONTINUOUS
 10
2.787400
 20
5.014680
  0
VERTEX
  8
0
  6
CONTINUOUS
 10
2.760560
 20
5.001040
  0
VERTEX
  8
0
  6
CONTINUOUS
 10
2.729760
 20
4.990920
  0
VERTEX
  8
0
  6
CONTINUOUS
 10
2.693680
 20
4.985200
  0
VERTEX
  8
0
  6
CONTINUOUS
 10
2.693680
 20
4.821960
  0
VERTEX
  8
0
  6
CONTINUOUS
 10
2.559480
 20
4.821960
  0
VERTEX
  8
0
  6
CONTINUOUS
 10
2.559480
 20
6.256800
  0
VERTEX
  8
0
  6
CONTINUOUS
 10
3.077360
 20
6.256800
  0
VERTEX
  8
0
  6
CONTINUOUS
 10
3.081320
 20
6.257240
  0
SEQEND
  8
0
  0
TEXT
  8
0
 10
2.968240
 20
4.601520
 40
0.138093
  1
BA  721
 41
1.000000
  7
SN0
 71
     0
 72
     5
 11
3.557787
 21
4.601520
  0
TEXT
  8
0
 10
2.766280
 20
4.410120
 40
0.138093
  1
3/4" x 1-7/16"
 41
1.000000
  7
SN0
 71
     0
 72
     5
 11
3.758045
 21
4.410120
  0
POLYLINE
  8
0
  6
CONTINUOUS
 66
     1
 40
0.014080
 41
0.014080
  0
VERTEX
  8
0
  6
CONTINUOUS
 10
4.498560
 20
6.282320
  0
VERTEX
  8
0
  6
CONTINUOUS
 10
4.501640
 20
6.308280
  0
VERTEX
  8
0
  6
CONTINUOUS
 10
4.507360
 20
6.332920
  0
VERTEX
  8
0
  6
CONTINUOUS
 10
4.515720
 20
6.356680
  0
VERTEX
  8
0
  6
CONTINUOUS
 10
4.532880
 20
6.390120
  0
VERTEX
  8
0
  6
CONTINUOUS
 10
4.555760
 20
6.420480
  0
VERTEX
  8
0
  6
CONTINUOUS
 10
4.573360
 20
6.438960
  0
VERTEX
  8
0
  6
CONTINUOUS
 10
4.592720
 20
6.456120
  0
VERTEX
  8
0
  6
CONTINUOUS
 10
4.614280
 20
6.471960
  0
VERTEX
  8
0
  6
CONTINUOUS
 10
4.636720
 20
6.486040
  0
VERTEX
  8
0
  6
CONTINUOUS
 10
4.660920
 20
6.497920
  0
VERTEX
  8
0
  6
CONTINUOUS
 10
4.686440
 20
6.508480
  0
VERTEX
  8
0
  6
CONTINUOUS
 10
4.712400
 20
6.517280
  0
VERTEX
  8
0
  6
CONTINUOUS
 10
4.739680
 20
6.523880
  0
VERTEX
  8
0
  6
CONTINUOUS
 10
4.767840
 20
6.528280
  0
VERTEX
  8
0
  6
CONTINUOUS
 10
4.796000
 20
6.530920
  0
VERTEX
  8
0
  6
CONTINUOUS
 10
4.824600
 20
6.530920
  0
VERTEX
  8
0
  6
CONTINUOUS
 10
4.853640
 20
6.529160
  0
VERTEX
  8
0
  6
CONTINUOUS
 10
4.882680
 20
6.524760
  0
VERTEX
  8
0
  6
CONTINUOUS
 10
4.925800
 20
6.513760
  0
VERTEX
  8
0
  6
CONTINUOUS
 10
4.967600
 20
6.497040
  0
VERTEX
  8
0
  6
CONTINUOUS
 10
5.008520
 20
6.474160
  0
VERTEX
  8
0
  6
CONTINUOUS
 10
5.046800
 20
6.445120
  0
VERTEX
  8
0
  6
CONTINUOUS
 10
5.082880
 20
6.409480
  0
VERTEX
  8
0
  6
CONTINUOUS
 10
5.115440
 20
6.366800
  0
VERTEX
  8
0
  6
CONTINUOUS
 10
5.135240
 20
6.334680
  0
VERTEX
  8
0
  6
CONTINUOUS
 10
5.161200
 20
6.280560
  0
VERTEX
  8
0
  6
CONTINUOUS
 10
5.182320
 20
6.218520
  0
VERTEX
  8
0
  6
CONTINUOUS
 10
5.344240
 20
6.218520
  0
VERTEX
  8
0
  6
CONTINUOUS
 10
5.376360
 20
6.173200
  0
VERTEX
  8
0
  6
CONTINUOUS
 10
5.408920
 20
6.140200
  0
VERTEX
  8
0
  6
CONTINUOUS
 10
5.439280
 20
6.117760
  0
VERTEX
  8
0
  6
CONTINUOUS
 10
5.466120
 20
6.103680
  0
VERTEX
  8
0
  6
CONTINUOUS
 10
5.492520
 20
6.096200
  0
VERTEX
  8
0
  6
CONTINUOUS
 10
5.544880
 20
6.091800
  0
VERTEX
  8
0
  6
CONTINUOUS
 10
5.587560
 20
6.084320
  0
VERTEX
  8
0
  6
CONTINUOUS
 10
5.611320
 20
6.078160
  0
VERTEX
  8
0
  6
CONTINUOUS
 10
5.646960
 20
6.065400
  0
VERTEX
  8
0
  6
CONTINUOUS
 10
5.682160
 20
6.046920
  0
VERTEX
  8
0
  6
CONTINUOUS
 10
5.714280
 20
6.021400
  0
VERTEX
  8
0
  6
CONTINUOUS
 10
5.732760
 20
6.000280
  0
VERTEX
  8
0
  6
CONTINUOUS
 10
5.748160
 20
5.975640
  0
VERTEX
  8
0
  6
CONTINUOUS
 10
5.760480
 20
5.946600
  0
VERTEX
  8
0
  6
CONTINUOUS
 10
5.768400
 20
5.913160
  0
VERTEX
  8
0
  6
CONTINUOUS
 10
5.770600
 20
5.894680
  0
VERTEX
  8
0
  6
CONTINUOUS
 10
5.933400
 20
5.894680
  0
VERTEX
  8
0
  6
CONTINUOUS
 10
5.933400
 20
5.760480
  0
VERTEX
  8
0
  6
CONTINUOUS
 10
4.498560
 20
5.760480
  0
VERTEX
  8
0
  6
CONTINUOUS
 10
4.498560
 20
6.282320
  0
SEQEND
  8
0
  0
TEXT
  8
0
 10
4.936360
 20
5.517600
 40
0.138093
  1
BA  721
 41
1.000000
  7
SN0
 71
     0
 72
     5
 11
5.525907
 21
5.517600
  0
TEXT
  8
0
 10
4.734400
 20
5.325760
 40
0.138093
  1
3/4" x 1-7/16"
 41
1.000000
  7
SN0
 71
     0
 72
     5
 11
5.726165
 21
5.325760
  0
ENDSEC
  0
EOF
