  0
SECTION
  2
HEADER
  9
$ACADVER
  1
AC1006
  9
$EXTMIN
 10
3.429800
 20
0.795080
  9
$EXTMAX
 10
7.937600
 20
4.093320
  9
$LTSCALE
 40
0.044000
  9
$PDMODE
 70
    35
  9
$PDSIZE
 40
0.035200
  0
ENDSEC
  0
SECTION
  2
TABLES
  0
TABLE
  2
LTYPE
 70
     9
  0
LTYPE
  2
CONTINUOUS
 70
    64
  3
Solid line
 72
    65
 73
     0
 40
0.000000
  0
LTYPE
  2
DASHED
 70
    64
  3
__ __ __ __ __ __ __ __ __ __ __ __ __ __ __
 72
    65
 73
     2
 40
0.000330
 49
0.000220
 49
-0.000110
  0
LTYPE
  2
HIDDEN
 70
    64
  3
 _ _ _ _ _ _ _ _ _ _ _ _ _ _ _ _ _ _ _ _ _ _
 72
    65
 73
     2
 40
0.000165
 49
0.000110
 49
-0.000055
  0
LTYPE
  2
CENTER
 70
    64
  3
____ _ ____ _ ____ _ ____ _ ____ _ ____ _ ____
 72
    65
 73
     4
 40
0.000880
 49
0.000550
 49
-0.000110
 49
0.000110
 49
-0.000110
  0
LTYPE
  2
PHANTOM
 70
    64
  3
_____ _ _ _____ _ _ _____ _ _ _____ _ _ ____
 72
    65
 73
     6
 40
0.001100
 49
0.000550
 49
-0.000110
 49
0.000110
 49
-0.000110
 49
0.000110
 49
-0.000110
  0
LTYPE
  2
DOT
 70
    64
  3
...............................................
 72
    65
 73
     2
 40
0.000110
 49
0.000000
 49
-0.000110
  0
LTYPE
  2
DASHDOT
 70
    64
  3
__ . __ . __ . __ . __ . __ . __ . __ . __ . __
 72
    65
 73
     4
 40
0.000440
 49
0.000220
 49
-0.000110
 49
0.000000
 49
-0.000110
  0
LTYPE
  2
BORDER
 70
    64
  3
__ __ . __ __ . __ __ . __ __ . __ __ . __ __
 72
    65
 73
     6
 40
0.000770
 49
0.000220
 49
-0.000110
 49
0.000220
 49
-0.000110
 49
0.000000
 49
-0.000110
  0
LTYPE
  2
DIVIDE
 70
    64
  3
__ . . __ . . __ . . __ . . __ . . __ . . __
 72
    65
 73
     6
 40
0.000550
 49
0.000220
 49
-0.000110
 49
0.000000
 49
-0.000110
 49
0.000000
 49
-0.000110
  0
LTYPE
  2
DOTDOT
 70
    64
  3
 . .  . .  . .  . .  . .  . . 
 72
    65
 73
     5
 40
0.000242
 49
-0.000110
 49
0.000000
 49
-0.000110
 49
0.000000
 49
-0.000110
  0
ENDTAB
  0
TABLE
  2
STYLE
 70
     2
  0
STYLE
 70
     0
  2
SN0
 40
0.000000
 41
0.000440
 50
0.000000
 71
     0
 42
0.000000
  3
ROMAND
  0
STYLE
 70
    68
  2
SV0
 40
0.000000
 41
0.000440
 50
0.000000
 71
     0
 42
0.000000
  3
ROMAND
  0
ENDTAB
  0
TABLE
  2
LAYER
 70
     3
  0
LAYER
  2
FOREGROUND
 70
    64
 62
     7
  6
CONTINUOUS
  0
LAYER
  2
BACKGROUND
 70
    65
 62
    -7
  6
CONTINUOUS
  0
LAYER
  2
0
 70
    64
 62
     7
  6
CONTINUOUS
  0
ENDTAB
  0
ENDSEC
  0
SECTION
  2
ENTITIES
  0
POLYLINE
  8
FOREGROUND
  6
CONTINUOUS
 66
     1
 40
0.000000
 41
0.000000
  0
VERTEX
  8
FOREGROUND
  6
CONTINUOUS
 10
0.000000
 20
4.888400
  0
VERTEX
  8
FOREGROUND
  6
CONTINUOUS
 10
8.499920
 20
4.888400
  0
VERTEX
  8
FOREGROUND
  6
CONTINUOUS
 10
8.499920
 20
-6.111600
  0
VERTEX
  8
FOREGROUND
  6
CONTINUOUS
 10
0.000000
 20
-6.111600
  0
VERTEX
  8
FOREGROUND
  6
CONTINUOUS
 10
0.000000
 20
4.888400
  0
SEQEND
  8
0
  0
POLYLINE
  8
FOREGROUND
  6
CONTINUOUS
 66
     1
 40
0.000000
 41
0.000000
  0
VERTEX
  8
FOREGROUND
  6
CONTINUOUS
 10
0.000000
 20
4.888400
  0
VERTEX
  8
FOREGROUND
  6
CONTINUOUS
 10
8.499920
 20
4.888400
  0
VERTEX
  8
FOREGROUND
  6
CONTINUOUS
 10
8.499920
 20
-6.111600
  0
VERTEX
  8
FOREGROUND
  6
CONTINUOUS
 10
0.000000
 20
-6.111600
  0
VERTEX
  8
FOREGROUND
  6
CONTINUOUS
 10
0.000000
 20
4.888400
  0
SEQEND
  8
0
  0
POLYLINE
  8
0
  6
CONTINUOUS
 66
     1
 40
0.014080
 41
0.014080
  0
VERTEX
  8
0
  6
CONTINUOUS
 10
3.801600
 20
4.081880
  0
VERTEX
  8
0
  6
CONTINUOUS
 10
3.833280
 20
3.962640
  0
VERTEX
  8
0
  6
CONTINUOUS
 10
3.879920
 20
3.962640
  0
VERTEX
  8
0
  6
CONTINUOUS
 10
3.911160
 20
4.000040
  0
VERTEX
  8
0
  6
CONTINUOUS
 10
3.942400
 20
4.029080
  0
VERTEX
  8
0
  6
CONTINUOUS
 10
3.973200
 20
4.050200
  0
VERTEX
  8
0
  6
CONTINUOUS
 10
4.003120
 20
4.064720
  0
VERTEX
  8
0
  6
CONTINUOUS
 10
4.022480
 20
4.071320
  0
VERTEX
  8
0
  6
CONTINUOUS
 10
4.040960
 20
4.075720
  0
VERTEX
  8
0
  6
CONTINUOUS
 10
4.058560
 20
4.078360
  0
VERTEX
  8
0
  6
CONTINUOUS
 10
4.091560
 20
4.079240
  0
VERTEX
  8
0
  6
CONTINUOUS
 10
4.132040
 20
4.074400
  0
VERTEX
  8
0
  6
CONTINUOUS
 10
4.190120
 20
4.063840
  0
VERTEX
  8
0
  6
CONTINUOUS
 10
4.231920
 20
4.052840
  0
VERTEX
  8
0
  6
CONTINUOUS
 10
4.252600
 20
4.045800
  0
VERTEX
  8
0
  6
CONTINUOUS
 10
4.282520
 20
4.031280
  0
VERTEX
  8
0
  6
CONTINUOUS
 10
4.308480
 20
4.012800
  0
VERTEX
  8
0
  6
CONTINUOUS
 10
4.348080
 20
3.967480
  0
VERTEX
  8
0
  6
CONTINUOUS
 10
4.407920
 20
3.897520
  0
VERTEX
  8
0
  6
CONTINUOUS
 10
4.447960
 20
3.856600
  0
VERTEX
  8
0
  6
CONTINUOUS
 10
4.468640
 20
3.837680
  0
VERTEX
  8
0
  6
CONTINUOUS
 10
4.501200
 20
3.813040
  0
VERTEX
  8
0
  6
CONTINUOUS
 10
4.534200
 20
3.794560
  0
VERTEX
  8
0
  6
CONTINUOUS
 10
4.556200
 20
3.786640
  0
VERTEX
  8
0
  6
CONTINUOUS
 10
4.577760
 20
3.783120
  0
VERTEX
  8
0
  6
CONTINUOUS
 10
4.588760
 20
3.783120
  0
VERTEX
  8
0
  6
CONTINUOUS
 10
4.599320
 20
3.784440
  0
VERTEX
  8
0
  6
CONTINUOUS
 10
4.606800
 20
3.806440
  0
VERTEX
  8
0
  6
CONTINUOUS
 10
4.617360
 20
3.825800
  0
VERTEX
  8
0
  6
CONTINUOUS
 10
4.637160
 20
3.849120
  0
VERTEX
  8
0
  6
CONTINUOUS
 10
4.652120
 20
3.861000
  0
VERTEX
  8
0
  6
CONTINUOUS
 10
4.668840
 20
3.869800
  0
VERTEX
  8
0
  6
CONTINUOUS
 10
4.695680
 20
3.877280
  0
VERTEX
  8
0
  6
CONTINUOUS
 10
4.713720
 20
3.879040
  0
VERTEX
  8
0
  6
CONTINUOUS
 10
4.731760
 20
3.877280
  0
VERTEX
  8
0
  6
CONTINUOUS
 10
4.749800
 20
3.872880
  0
VERTEX
  8
0
  6
CONTINUOUS
 10
4.766520
 20
3.865840
  0
VERTEX
  8
0
  6
CONTINUOUS
 10
4.782360
 20
3.855720
  0
VERTEX
  8
0
  6
CONTINUOUS
 10
4.802600
 20
3.835040
  0
VERTEX
  8
0
  6
CONTINUOUS
 10
4.818000
 20
3.807760
  0
VERTEX
  8
0
  6
CONTINUOUS
 10
4.824600
 20
3.786200
  0
VERTEX
  8
0
  6
CONTINUOUS
 10
4.847040
 20
3.786200
  0
VERTEX
  8
0
  6
CONTINUOUS
 10
4.870800
 20
3.745280
  0
VERTEX
  8
0
  6
CONTINUOUS
 10
6.294640
 20
3.753200
  0
VERTEX
  8
0
  6
CONTINUOUS
 10
6.309160
 20
3.751880
  0
VERTEX
  8
0
  6
CONTINUOUS
 10
6.332920
 20
3.745720
  0
VERTEX
  8
0
  6
CONTINUOUS
 10
6.350960
 20
3.734280
  0
VERTEX
  8
0
  6
CONTINUOUS
 10
6.364160
 20
3.717560
  0
VERTEX
  8
0
  6
CONTINUOUS
 10
6.369000
 20
3.707000
  0
VERTEX
  8
0
  6
CONTINUOUS
 10
6.408600
 20
3.708760
  0
VERTEX
  8
0
  6
CONTINUOUS
 10
6.425320
 20
3.708320
  0
VERTEX
  8
0
  6
CONTINUOUS
 10
6.440280
 20
3.706560
  0
VERTEX
  8
0
  6
CONTINUOUS
 10
6.454360
 20
3.703040
  0
VERTEX
  8
0
  6
CONTINUOUS
 10
6.467120
 20
3.698200
  0
VERTEX
  8
0
  6
CONTINUOUS
 10
6.479440
 20
3.691600
  0
VERTEX
  8
0
  6
CONTINUOUS
 10
6.514640
 20
3.666080
  0
VERTEX
  8
0
  6
CONTINUOUS
 10
6.534440
 20
3.657720
  0
VERTEX
  8
0
  6
CONTINUOUS
 10
6.551600
 20
3.653760
  0
VERTEX
  8
0
  6
CONTINUOUS
 10
6.586360
 20
3.651560
  0
VERTEX
  8
0
  6
CONTINUOUS
 10
6.613200
 20
3.645400
  0
VERTEX
  8
0
  6
CONTINUOUS
 10
6.633880
 20
3.635720
  0
VERTEX
  8
0
  6
CONTINUOUS
 10
6.646200
 20
3.626040
  0
VERTEX
  8
0
  6
CONTINUOUS
 10
6.656320
 20
3.612400
  0
VERTEX
  8
0
  6
CONTINUOUS
 10
6.660280
 20
3.604480
  0
VERTEX
  8
0
  6
CONTINUOUS
 10
7.591320
 20
3.611960
  0
VERTEX
  8
0
  6
CONTINUOUS
 10
7.606280
 20
3.549040
  0
VERTEX
  8
0
  6
CONTINUOUS
 10
7.656440
 20
3.548600
  0
VERTEX
  8
0
  6
CONTINUOUS
 10
7.685040
 20
3.545520
  0
VERTEX
  8
0
  6
CONTINUOUS
 10
7.710120
 20
3.538480
  0
VERTEX
  8
0
  6
CONTINUOUS
 10
7.732560
 20
3.527040
  0
VERTEX
  8
0
  6
CONTINUOUS
 10
7.752360
 20
3.509880
  0
VERTEX
  8
0
  6
CONTINUOUS
 10
7.770400
 20
3.485680
  0
VERTEX
  8
0
  6
CONTINUOUS
 10
7.786240
 20
3.454000
  0
VERTEX
  8
0
  6
CONTINUOUS
 10
7.793720
 20
3.434640
  0
VERTEX
  8
0
  6
CONTINUOUS
 10
7.860600
 20
3.434640
  0
VERTEX
  8
0
  6
CONTINUOUS
 10
7.860600
 20
3.258640
  0
VERTEX
  8
0
  6
CONTINUOUS
 10
3.437280
 20
3.258640
  0
VERTEX
  8
0
  6
CONTINUOUS
 10
3.437280
 20
4.085400
  0
VERTEX
  8
0
  6
CONTINUOUS
 10
3.801600
 20
4.085400
  0
VERTEX
  8
0
  6
CONTINUOUS
 10
3.801600
 20
4.081880
  0
SEQEND
  8
0
  0
SOLID
  8
0
 62
    15
 10
4.921840
 20
1.809280
 11
4.924040
 21
2.554200
 12
4.945160
 22
1.768360
 13
4.947360
 23
2.513280
  0
POLYLINE
  8
0
  6
CONTINUOUS
 66
     1
 40
0.000000
 41
0.000000
  0
VERTEX
  8
0
  6
CONTINUOUS
 10
4.921840
 20
1.809280
  0
VERTEX
  8
0
  6
CONTINUOUS
 10
4.924040
 20
2.554200
  0
VERTEX
  8
0
  6
CONTINUOUS
 10
4.947360
 20
2.513280
  0
VERTEX
  8
0
  6
CONTINUOUS
 10
4.945160
 20
1.768360
  0
VERTEX
  8
0
  6
CONTINUOUS
 10
4.921840
 20
1.809280
  0
SEQEND
  8
0
  0
SOLID
  8
0
 62
    15
 10
3.908080
 20
1.985720
 11
3.910280
 21
2.730640
 12
3.954720
 22
1.985720
 13
3.956480
 23
2.730640
  0
POLYLINE
  8
0
  6
CONTINUOUS
 66
     1
 40
0.000000
 41
0.000000
  0
VERTEX
  8
0
  6
CONTINUOUS
 10
3.908080
 20
1.985720
  0
VERTEX
  8
0
  6
CONTINUOUS
 10
3.910280
 20
2.730640
  0
VERTEX
  8
0
  6
CONTINUOUS
 10
3.956480
 20
2.730640
  0
VERTEX
  8
0
  6
CONTINUOUS
 10
3.954720
 20
1.985720
  0
VERTEX
  8
0
  6
CONTINUOUS
 10
3.908080
 20
1.985720
  0
SEQEND
  8
0
  0
SOLID
  8
0
 62
    15
 10
3.954720
 20
1.985720
 11
3.956480
 21
2.730640
 12
3.996080
 22
2.034120
 13
3.998280
 23
2.779040
  0
POLYLINE
  8
0
  6
CONTINUOUS
 66
     1
 40
0.000000
 41
0.000000
  0
VERTEX
  8
0
  6
CONTINUOUS
 10
3.954720
 20
1.985720
  0
VERTEX
  8
0
  6
CONTINUOUS
 10
3.956480
 20
2.730640
  0
VERTEX
  8
0
  6
CONTINUOUS
 10
3.998280
 20
2.779040
  0
VERTEX
  8
0
  6
CONTINUOUS
 10
3.996080
 20
2.034120
  0
VERTEX
  8
0
  6
CONTINUOUS
 10
3.954720
 20
1.985720
  0
SEQEND
  8
0
  0
SOLID
  8
0
 62
    15
 10
3.996080
 20
2.034120
 11
3.998280
 21
2.779040
 12
4.037440
 22
2.067120
 13
4.039640
 23
2.812040
  0
POLYLINE
  8
0
  6
CONTINUOUS
 66
     1
 40
0.000000
 41
0.000000
  0
VERTEX
  8
0
  6
CONTINUOUS
 10
3.996080
 20
2.034120
  0
VERTEX
  8
0
  6
CONTINUOUS
 10
3.998280
 20
2.779040
  0
VERTEX
  8
0
  6
CONTINUOUS
 10
4.039640
 20
2.812040
  0
VERTEX
  8
0
  6
CONTINUOUS
 10
4.037440
 20
2.067120
  0
VERTEX
  8
0
  6
CONTINUOUS
 10
3.996080
 20
2.034120
  0
SEQEND
  8
0
  0
SOLID
  8
0
 62
    15
 10
4.037440
 20
2.067120
 11
4.039640
 21
2.812040
 12
4.077480
 22
2.088240
 13
4.079680
 23
2.833160
  0
POLYLINE
  8
0
  6
CONTINUOUS
 66
     1
 40
0.000000
 41
0.000000
  0
VERTEX
  8
0
  6
CONTINUOUS
 10
4.037440
 20
2.067120
  0
VERTEX
  8
0
  6
CONTINUOUS
 10
4.039640
 20
2.812040
  0
VERTEX
  8
0
  6
CONTINUOUS
 10
4.079680
 20
2.833160
  0
VERTEX
  8
0
  6
CONTINUOUS
 10
4.077480
 20
2.088240
  0
VERTEX
  8
0
  6
CONTINUOUS
 10
4.037440
 20
2.067120
  0
SEQEND
  8
0
  0
SOLID
  8
0
 62
    15
 10
4.077480
 20
2.088240
 11
4.079680
 21
2.833160
 12
4.115320
 22
2.098800
 13
4.117520
 23
2.843720
  0
POLYLINE
  8
0
  6
CONTINUOUS
 66
     1
 40
0.000000
 41
0.000000
  0
VERTEX
  8
0
  6
CONTINUOUS
 10
4.077480
 20
2.088240
  0
VERTEX
  8
0
  6
CONTINUOUS
 10
4.079680
 20
2.833160
  0
VERTEX
  8
0
  6
CONTINUOUS
 10
4.117520
 20
2.843720
  0
VERTEX
  8
0
  6
CONTINUOUS
 10
4.115320
 20
2.098800
  0
VERTEX
  8
0
  6
CONTINUOUS
 10
4.077480
 20
2.088240
  0
SEQEND
  8
0
  0
SOLID
  8
0
 62
    15
 10
4.115320
 20
2.098800
 11
4.117520
 21
2.843720
 12
4.150080
 22
2.102320
 13
4.152280
 23
2.847240
  0
POLYLINE
  8
0
  6
CONTINUOUS
 66
     1
 40
0.000000
 41
0.000000
  0
VERTEX
  8
0
  6
CONTINUOUS
 10
4.115320
 20
2.098800
  0
VERTEX
  8
0
  6
CONTINUOUS
 10
4.117520
 20
2.843720
  0
VERTEX
  8
0
  6
CONTINUOUS
 10
4.152280
 20
2.847240
  0
VERTEX
  8
0
  6
CONTINUOUS
 10
4.150080
 20
2.102320
  0
VERTEX
  8
0
  6
CONTINUOUS
 10
4.115320
 20
2.098800
  0
SEQEND
  8
0
  0
SOLID
  8
0
 62
    15
 10
4.150080
 20
2.102320
 11
4.152280
 21
2.847240
 12
4.180880
 22
2.101000
 13
4.183080
 23
2.845920
  0
POLYLINE
  8
0
  6
CONTINUOUS
 66
     1
 40
0.000000
 41
0.000000
  0
VERTEX
  8
0
  6
CONTINUOUS
 10
4.150080
 20
2.102320
  0
VERTEX
  8
0
  6
CONTINUOUS
 10
4.152280
 20
2.847240
  0
VERTEX
  8
0
  6
CONTINUOUS
 10
4.183080
 20
2.845920
  0
VERTEX
  8
0
  6
CONTINUOUS
 10
4.180880
 20
2.101000
  0
VERTEX
  8
0
  6
CONTINUOUS
 10
4.150080
 20
2.102320
  0
SEQEND
  8
0
  0
SOLID
  8
0
 62
    15
 10
4.180880
 20
2.101000
 11
4.183080
 21
2.845920
 12
4.206840
 22
2.097480
 13
4.209040
 23
2.842400
  0
POLYLINE
  8
0
  6
CONTINUOUS
 66
     1
 40
0.000000
 41
0.000000
  0
VERTEX
  8
0
  6
CONTINUOUS
 10
4.180880
 20
2.101000
  0
VERTEX
  8
0
  6
CONTINUOUS
 10
4.183080
 20
2.845920
  0
VERTEX
  8
0
  6
CONTINUOUS
 10
4.209040
 20
2.842400
  0
VERTEX
  8
0
  6
CONTINUOUS
 10
4.206840
 20
2.097480
  0
VERTEX
  8
0
  6
CONTINUOUS
 10
4.180880
 20
2.101000
  0
SEQEND
  8
0
  0
SOLID
  8
0
 62
    15
 10
4.206840
 20
2.097480
 11
4.209040
 21
2.842400
 12
4.264920
 22
2.086920
 13
4.267120
 23
2.831840
  0
POLYLINE
  8
0
  6
CONTINUOUS
 66
     1
 40
0.000000
 41
0.000000
  0
VERTEX
  8
0
  6
CONTINUOUS
 10
4.206840
 20
2.097480
  0
VERTEX
  8
0
  6
CONTINUOUS
 10
4.209040
 20
2.842400
  0
VERTEX
  8
0
  6
CONTINUOUS
 10
4.267120
 20
2.831840
  0
VERTEX
  8
0
  6
CONTINUOUS
 10
4.264920
 20
2.086920
  0
VERTEX
  8
0
  6
CONTINUOUS
 10
4.206840
 20
2.097480
  0
SEQEND
  8
0
  0
SOLID
  8
0
 62
    15
 10
4.264920
 20
2.086920
 11
4.267120
 21
2.831840
 12
4.306280
 22
2.075920
 13
4.308480
 23
2.820840
  0
POLYLINE
  8
0
  6
CONTINUOUS
 66
     1
 40
0.000000
 41
0.000000
  0
VERTEX
  8
0
  6
CONTINUOUS
 10
4.264920
 20
2.086920
  0
VERTEX
  8
0
  6
CONTINUOUS
 10
4.267120
 20
2.831840
  0
VERTEX
  8
0
  6
CONTINUOUS
 10
4.308480
 20
2.820840
  0
VERTEX
  8
0
  6
CONTINUOUS
 10
4.306280
 20
2.075920
  0
VERTEX
  8
0
  6
CONTINUOUS
 10
4.264920
 20
2.086920
  0
SEQEND
  8
0
  0
SOLID
  8
0
 62
    15
 10
4.306280
 20
2.075920
 11
4.308480
 21
2.820840
 12
4.347640
 22
2.059640
 13
4.349840
 23
2.804560
  0
POLYLINE
  8
0
  6
CONTINUOUS
 66
     1
 40
0.000000
 41
0.000000
  0
VERTEX
  8
0
  6
CONTINUOUS
 10
4.306280
 20
2.075920
  0
VERTEX
  8
0
  6
CONTINUOUS
 10
4.308480
 20
2.820840
  0
VERTEX
  8
0
  6
CONTINUOUS
 10
4.349840
 20
2.804560
  0
VERTEX
  8
0
  6
CONTINUOUS
 10
4.347640
 20
2.059640
  0
VERTEX
  8
0
  6
CONTINUOUS
 10
4.306280
 20
2.075920
  0
SEQEND
  8
0
  0
SOLID
  8
0
 62
    15
 10
4.347640
 20
2.059640
 11
4.349840
 21
2.804560
 12
4.383280
 22
2.035880
 13
4.385480
 23
2.780800
  0
POLYLINE
  8
0
  6
CONTINUOUS
 66
     1
 40
0.000000
 41
0.000000
  0
VERTEX
  8
0
  6
CONTINUOUS
 10
4.347640
 20
2.059640
  0
VERTEX
  8
0
  6
CONTINUOUS
 10
4.349840
 20
2.804560
  0
VERTEX
  8
0
  6
CONTINUOUS
 10
4.385480
 20
2.780800
  0
VERTEX
  8
0
  6
CONTINUOUS
 10
4.383280
 20
2.035880
  0
VERTEX
  8
0
  6
CONTINUOUS
 10
4.347640
 20
2.059640
  0
SEQEND
  8
0
  0
SOLID
  8
0
 62
    15
 10
4.383280
 20
2.035880
 11
4.385480
 21
2.780800
 12
4.392080
 22
2.027080
 13
4.394280
 23
2.772000
  0
POLYLINE
  8
0
  6
CONTINUOUS
 66
     1
 40
0.000000
 41
0.000000
  0
VERTEX
  8
0
  6
CONTINUOUS
 10
4.383280
 20
2.035880
  0
VERTEX
  8
0
  6
CONTINUOUS
 10
4.385480
 20
2.780800
  0
VERTEX
  8
0
  6
CONTINUOUS
 10
4.394280
 20
2.772000
  0
VERTEX
  8
0
  6
CONTINUOUS
 10
4.392080
 20
2.027080
  0
VERTEX
  8
0
  6
CONTINUOUS
 10
4.383280
 20
2.035880
  0
SEQEND
  8
0
  0
SOLID
  8
0
 62
    15
 10
4.392080
 20
2.027080
 11
4.394280
 21
2.772000
 12
4.403080
 22
2.014760
 13
4.405280
 23
2.759680
  0
POLYLINE
  8
0
  6
CONTINUOUS
 66
     1
 40
0.000000
 41
0.000000
  0
VERTEX
  8
0
  6
CONTINUOUS
 10
4.392080
 20
2.027080
  0
VERTEX
  8
0
  6
CONTINUOUS
 10
4.394280
 20
2.772000
  0
VERTEX
  8
0
  6
CONTINUOUS
 10
4.405280
 20
2.759680
  0
VERTEX
  8
0
  6
CONTINUOUS
 10
4.403080
 20
2.014760
  0
VERTEX
  8
0
  6
CONTINUOUS
 10
4.392080
 20
2.027080
  0
SEQEND
  8
0
  0
SOLID
  8
0
 62
    15
 10
4.403080
 20
2.014760
 11
4.405280
 21
2.759680
 12
4.430360
 22
1.981760
 13
4.432560
 23
2.726680
  0
POLYLINE
  8
0
  6
CONTINUOUS
 66
     1
 40
0.000000
 41
0.000000
  0
VERTEX
  8
0
  6
CONTINUOUS
 10
4.403080
 20
2.014760
  0
VERTEX
  8
0
  6
CONTINUOUS
 10
4.405280
 20
2.759680
  0
VERTEX
  8
0
  6
CONTINUOUS
 10
4.432560
 20
2.726680
  0
VERTEX
  8
0
  6
CONTINUOUS
 10
4.430360
 20
1.981760
  0
VERTEX
  8
0
  6
CONTINUOUS
 10
4.403080
 20
2.014760
  0
SEQEND
  8
0
  0
SOLID
  8
0
 62
    15
 10
4.430360
 20
1.981760
 11
4.432560
 21
2.726680
 12
4.463800
 22
1.942160
 13
4.466000
 23
2.687080
  0
POLYLINE
  8
0
  6
CONTINUOUS
 66
     1
 40
0.000000
 41
0.000000
  0
VERTEX
  8
0
  6
CONTINUOUS
 10
4.430360
 20
1.981760
  0
VERTEX
  8
0
  6
CONTINUOUS
 10
4.432560
 20
2.726680
  0
VERTEX
  8
0
  6
CONTINUOUS
 10
4.466000
 20
2.687080
  0
VERTEX
  8
0
  6
CONTINUOUS
 10
4.463800
 20
1.942160
  0
VERTEX
  8
0
  6
CONTINUOUS
 10
4.430360
 20
1.981760
  0
SEQEND
  8
0
  0
SOLID
  8
0
 62
    15
 10
4.463800
 20
1.942160
 11
4.466000
 21
2.687080
 12
4.502080
 22
1.899920
 13
4.504280
 23
2.644840
  0
POLYLINE
  8
0
  6
CONTINUOUS
 66
     1
 40
0.000000
 41
0.000000
  0
VERTEX
  8
0
  6
CONTINUOUS
 10
4.463800
 20
1.942160
  0
VERTEX
  8
0
  6
CONTINUOUS
 10
4.466000
 20
2.687080
  0
VERTEX
  8
0
  6
CONTINUOUS
 10
4.504280
 20
2.644840
  0
VERTEX
  8
0
  6
CONTINUOUS
 10
4.502080
 20
1.899920
  0
VERTEX
  8
0
  6
CONTINUOUS
 10
4.463800
 20
1.942160
  0
SEQEND
  8
0
  0
SOLID
  8
0
 62
    15
 10
4.502080
 20
1.899920
 11
4.504280
 21
2.644840
 12
4.543440
 22
1.861200
 13
4.545640
 23
2.606120
  0
POLYLINE
  8
0
  6
CONTINUOUS
 66
     1
 40
0.000000
 41
0.000000
  0
VERTEX
  8
0
  6
CONTINUOUS
 10
4.502080
 20
1.899920
  0
VERTEX
  8
0
  6
CONTINUOUS
 10
4.504280
 20
2.644840
  0
VERTEX
  8
0
  6
CONTINUOUS
 10
4.545640
 20
2.606120
  0
VERTEX
  8
0
  6
CONTINUOUS
 10
4.543440
 20
1.861200
  0
VERTEX
  8
0
  6
CONTINUOUS
 10
4.502080
 20
1.899920
  0
SEQEND
  8
0
  0
SOLID
  8
0
 62
    15
 10
4.543440
 20
1.861200
 11
4.545640
 21
2.606120
 12
4.587000
 22
1.829520
 13
4.589200
 23
2.574440
  0
POLYLINE
  8
0
  6
CONTINUOUS
 66
     1
 40
0.000000
 41
0.000000
  0
VERTEX
  8
0
  6
CONTINUOUS
 10
4.543440
 20
1.861200
  0
VERTEX
  8
0
  6
CONTINUOUS
 10
4.545640
 20
2.606120
  0
VERTEX
  8
0
  6
CONTINUOUS
 10
4.589200
 20
2.574440
  0
VERTEX
  8
0
  6
CONTINUOUS
 10
4.587000
 20
1.829520
  0
VERTEX
  8
0
  6
CONTINUOUS
 10
4.543440
 20
1.861200
  0
SEQEND
  8
0
  0
SOLID
  8
0
 62
    15
 10
4.587000
 20
1.829520
 11
4.589200
 21
2.574440
 12
4.631000
 22
1.810160
 13
4.633200
 23
2.554640
  0
POLYLINE
  8
0
  6
CONTINUOUS
 66
     1
 40
0.000000
 41
0.000000
  0
VERTEX
  8
0
  6
CONTINUOUS
 10
4.587000
 20
1.829520
  0
VERTEX
  8
0
  6
CONTINUOUS
 10
4.589200
 20
2.574440
  0
VERTEX
  8
0
  6
CONTINUOUS
 10
4.633200
 20
2.554640
  0
VERTEX
  8
0
  6
CONTINUOUS
 10
4.631000
 20
1.810160
  0
VERTEX
  8
0
  6
CONTINUOUS
 10
4.587000
 20
1.829520
  0
SEQEND
  8
0
  0
SOLID
  8
0
 62
    15
 10
4.631000
 20
1.810160
 11
4.633200
 21
2.554640
 12
4.652560
 22
1.806200
 13
4.654760
 23
2.551120
  0
POLYLINE
  8
0
  6
CONTINUOUS
 66
     1
 40
0.000000
 41
0.000000
  0
VERTEX
  8
0
  6
CONTINUOUS
 10
4.631000
 20
1.810160
  0
VERTEX
  8
0
  6
CONTINUOUS
 10
4.633200
 20
2.554640
  0
VERTEX
  8
0
  6
CONTINUOUS
 10
4.654760
 20
2.551120
  0
VERTEX
  8
0
  6
CONTINUOUS
 10
4.652560
 20
1.806200
  0
VERTEX
  8
0
  6
CONTINUOUS
 10
4.631000
 20
1.810160
  0
SEQEND
  8
0
  0
SOLID
  8
0
 62
    15
 10
4.652560
 20
1.806200
 11
4.654760
 21
2.551120
 12
4.674120
 22
1.807520
 13
4.676320
 23
2.552440
  0
POLYLINE
  8
0
  6
CONTINUOUS
 66
     1
 40
0.000000
 41
0.000000
  0
VERTEX
  8
0
  6
CONTINUOUS
 10
4.652560
 20
1.806200
  0
VERTEX
  8
0
  6
CONTINUOUS
 10
4.654760
 20
2.551120
  0
VERTEX
  8
0
  6
CONTINUOUS
 10
4.676320
 20
2.552440
  0
VERTEX
  8
0
  6
CONTINUOUS
 10
4.674120
 20
1.807520
  0
VERTEX
  8
0
  6
CONTINUOUS
 10
4.652560
 20
1.806200
  0
SEQEND
  8
0
  0
SOLID
  8
0
 62
    15
 10
4.674120
 20
1.807520
 11
4.676320
 21
2.552440
 12
4.682040
 22
1.829520
 13
4.684240
 23
2.574440
  0
POLYLINE
  8
0
  6
CONTINUOUS
 66
     1
 40
0.000000
 41
0.000000
  0
VERTEX
  8
0
  6
CONTINUOUS
 10
4.674120
 20
1.807520
  0
VERTEX
  8
0
  6
CONTINUOUS
 10
4.676320
 20
2.552440
  0
VERTEX
  8
0
  6
CONTINUOUS
 10
4.684240
 20
2.574440
  0
VERTEX
  8
0
  6
CONTINUOUS
 10
4.682040
 20
1.829520
  0
VERTEX
  8
0
  6
CONTINUOUS
 10
4.674120
 20
1.807520
  0
SEQEND
  8
0
  0
SOLID
  8
0
 62
    15
 10
4.682040
 20
1.829520
 11
4.684240
 21
2.574440
 12
4.692160
 22
1.848880
 13
4.694360
 23
2.593800
  0
POLYLINE
  8
0
  6
CONTINUOUS
 66
     1
 40
0.000000
 41
0.000000
  0
VERTEX
  8
0
  6
CONTINUOUS
 10
4.682040
 20
1.829520
  0
VERTEX
  8
0
  6
CONTINUOUS
 10
4.684240
 20
2.574440
  0
VERTEX
  8
0
  6
CONTINUOUS
 10
4.694360
 20
2.593800
  0
VERTEX
  8
0
  6
CONTINUOUS
 10
4.692160
 20
1.848880
  0
VERTEX
  8
0
  6
CONTINUOUS
 10
4.682040
 20
1.829520
  0
SEQEND
  8
0
  0
SOLID
  8
0
 62
    15
 10
4.692160
 20
1.848880
 11
4.694360
 21
2.593800
 12
4.719440
 22
1.878360
 13
4.721640
 23
2.623280
  0
POLYLINE
  8
0
  6
CONTINUOUS
 66
     1
 40
0.000000
 41
0.000000
  0
VERTEX
  8
0
  6
CONTINUOUS
 10
4.692160
 20
1.848880
  0
VERTEX
  8
0
  6
CONTINUOUS
 10
4.694360
 20
2.593800
  0
VERTEX
  8
0
  6
CONTINUOUS
 10
4.721640
 20
2.623280
  0
VERTEX
  8
0
  6
CONTINUOUS
 10
4.719440
 20
1.878360
  0
VERTEX
  8
0
  6
CONTINUOUS
 10
4.692160
 20
1.848880
  0
SEQEND
  8
0
  0
SOLID
  8
0
 62
    15
 10
4.719440
 20
1.878360
 11
4.721640
 21
2.623280
 12
4.752440
 22
1.895960
 13
4.754640
 23
2.640880
  0
POLYLINE
  8
0
  6
CONTINUOUS
 66
     1
 40
0.000000
 41
0.000000
  0
VERTEX
  8
0
  6
CONTINUOUS
 10
4.719440
 20
1.878360
  0
VERTEX
  8
0
  6
CONTINUOUS
 10
4.721640
 20
2.623280
  0
VERTEX
  8
0
  6
CONTINUOUS
 10
4.754640
 20
2.640880
  0
VERTEX
  8
0
  6
CONTINUOUS
 10
4.752440
 20
1.895960
  0
VERTEX
  8
0
  6
CONTINUOUS
 10
4.719440
 20
1.878360
  0
SEQEND
  8
0
  0
SOLID
  8
0
 62
    15
 10
4.752440
 20
1.895960
 11
4.754640
 21
2.640880
 12
4.788520
 22
1.902120
 13
4.790720
 23
2.647040
  0
POLYLINE
  8
0
  6
CONTINUOUS
 66
     1
 40
0.000000
 41
0.000000
  0
VERTEX
  8
0
  6
CONTINUOUS
 10
4.752440
 20
1.895960
  0
VERTEX
  8
0
  6
CONTINUOUS
 10
4.754640
 20
2.640880
  0
VERTEX
  8
0
  6
CONTINUOUS
 10
4.790720
 20
2.647040
  0
VERTEX
  8
0
  6
CONTINUOUS
 10
4.788520
 20
1.902120
  0
VERTEX
  8
0
  6
CONTINUOUS
 10
4.752440
 20
1.895960
  0
SEQEND
  8
0
  0
SOLID
  8
0
 62
    15
 10
4.788520
 20
1.902120
 11
4.790720
 21
2.647040
 12
4.824600
 22
1.896400
 13
4.826800
 23
2.641320
  0
POLYLINE
  8
0
  6
CONTINUOUS
 66
     1
 40
0.000000
 41
0.000000
  0
VERTEX
  8
0
  6
CONTINUOUS
 10
4.788520
 20
1.902120
  0
VERTEX
  8
0
  6
CONTINUOUS
 10
4.790720
 20
2.647040
  0
VERTEX
  8
0
  6
CONTINUOUS
 10
4.826800
 20
2.641320
  0
VERTEX
  8
0
  6
CONTINUOUS
 10
4.824600
 20
1.896400
  0
VERTEX
  8
0
  6
CONTINUOUS
 10
4.788520
 20
1.902120
  0
SEQEND
  8
0
  0
SOLID
  8
0
 62
    15
 10
4.824600
 20
1.896400
 11
4.826800
 21
2.641320
 12
4.857160
 22
1.878800
 13
4.858920
 23
2.623720
  0
POLYLINE
  8
0
  6
CONTINUOUS
 66
     1
 40
0.000000
 41
0.000000
  0
VERTEX
  8
0
  6
CONTINUOUS
 10
4.824600
 20
1.896400
  0
VERTEX
  8
0
  6
CONTINUOUS
 10
4.826800
 20
2.641320
  0
VERTEX
  8
0
  6
CONTINUOUS
 10
4.858920
 20
2.623720
  0
VERTEX
  8
0
  6
CONTINUOUS
 10
4.857160
 20
1.878800
  0
VERTEX
  8
0
  6
CONTINUOUS
 10
4.824600
 20
1.896400
  0
SEQEND
  8
0
  0
SOLID
  8
0
 62
    15
 10
4.857160
 20
1.878800
 11
4.858920
 21
2.623720
 12
4.883120
 22
1.849760
 13
4.884880
 23
2.594680
  0
POLYLINE
  8
0
  6
CONTINUOUS
 66
     1
 40
0.000000
 41
0.000000
  0
VERTEX
  8
0
  6
CONTINUOUS
 10
4.857160
 20
1.878800
  0
VERTEX
  8
0
  6
CONTINUOUS
 10
4.858920
 20
2.623720
  0
VERTEX
  8
0
  6
CONTINUOUS
 10
4.884880
 20
2.594680
  0
VERTEX
  8
0
  6
CONTINUOUS
 10
4.883120
 20
1.849760
  0
VERTEX
  8
0
  6
CONTINUOUS
 10
4.857160
 20
1.878800
  0
SEQEND
  8
0
  0
SOLID
  8
0
 62
    15
 10
4.883120
 20
1.849760
 11
4.884880
 21
2.594680
 12
4.899400
 22
1.809280
 13
4.901160
 23
2.554200
  0
POLYLINE
  8
0
  6
CONTINUOUS
 66
     1
 40
0.000000
 41
0.000000
  0
VERTEX
  8
0
  6
CONTINUOUS
 10
4.883120
 20
1.849760
  0
VERTEX
  8
0
  6
CONTINUOUS
 10
4.884880
 20
2.594680
  0
VERTEX
  8
0
  6
CONTINUOUS
 10
4.901160
 20
2.554200
  0
VERTEX
  8
0
  6
CONTINUOUS
 10
4.899400
 20
1.809280
  0
VERTEX
  8
0
  6
CONTINUOUS
 10
4.883120
 20
1.849760
  0
SEQEND
  8
0
  0
SOLID
  8
0
 62
    15
 10
4.899400
 20
1.809280
 11
4.901160
 21
2.554200
 12
4.921840
 22
1.809280
 13
4.924040
 23
2.554200
  0
POLYLINE
  8
0
  6
CONTINUOUS
 66
     1
 40
0.000000
 41
0.000000
  0
VERTEX
  8
0
  6
CONTINUOUS
 10
4.899400
 20
1.809280
  0
VERTEX
  8
0
  6
CONTINUOUS
 10
4.901160
 20
2.554200
  0
VERTEX
  8
0
  6
CONTINUOUS
 10
4.924040
 20
2.554200
  0
VERTEX
  8
0
  6
CONTINUOUS
 10
4.921840
 20
1.809280
  0
VERTEX
  8
0
  6
CONTINUOUS
 10
4.899400
 20
1.809280
  0
SEQEND
  8
0
  0
SOLID
  8
0
 62
    15
 10
3.876400
 20
2.104960
 11
3.878600
 21
2.849880
 12
3.908080
 22
1.985720
 13
3.910280
 23
2.730640
  0
POLYLINE
  8
0
  6
CONTINUOUS
 66
     1
 40
0.000000
 41
0.000000
  0
VERTEX
  8
0
  6
CONTINUOUS
 10
3.876400
 20
2.104960
  0
VERTEX
  8
0
  6
CONTINUOUS
 10
3.878600
 20
2.849880
  0
VERTEX
  8
0
  6
CONTINUOUS
 10
3.910280
 20
2.730640
  0
VERTEX
  8
0
  6
CONTINUOUS
 10
3.908080
 20
1.985720
  0
VERTEX
  8
0
  6
CONTINUOUS
 10
3.876400
 20
2.104960
  0
SEQEND
  8
0
  0
SOLID
  8
0
 62
    15
 10
4.945160
 20
1.768360
 11
4.947360
 21
2.513280
 12
6.369440
 22
1.776280
 13
6.371640
 23
2.521200
  0
POLYLINE
  8
0
  6
CONTINUOUS
 66
     1
 40
0.000000
 41
0.000000
  0
VERTEX
  8
0
  6
CONTINUOUS
 10
4.945160
 20
1.768360
  0
VERTEX
  8
0
  6
CONTINUOUS
 10
4.947360
 20
2.513280
  0
VERTEX
  8
0
  6
CONTINUOUS
 10
6.371640
 20
2.521200
  0
VERTEX
  8
0
  6
CONTINUOUS
 10
6.369440
 20
1.776280
  0
VERTEX
  8
0
  6
CONTINUOUS
 10
4.945160
 20
1.768360
  0
SEQEND
  8
0
  0
SOLID
  8
0
 62
    15
 10
6.369440
 20
1.776280
 11
6.371640
 21
2.521200
 12
6.396280
 22
1.772320
 13
6.398480
 23
2.517240
  0
POLYLINE
  8
0
  6
CONTINUOUS
 66
     1
 40
0.000000
 41
0.000000
  0
VERTEX
  8
0
  6
CONTINUOUS
 10
6.369440
 20
1.776280
  0
VERTEX
  8
0
  6
CONTINUOUS
 10
6.371640
 20
2.521200
  0
VERTEX
  8
0
  6
CONTINUOUS
 10
6.398480
 20
2.517240
  0
VERTEX
  8
0
  6
CONTINUOUS
 10
6.396280
 20
1.772320
  0
VERTEX
  8
0
  6
CONTINUOUS
 10
6.369440
 20
1.776280
  0
SEQEND
  8
0
  0
SOLID
  8
0
 62
    15
 10
6.396280
 20
1.772320
 11
6.398480
 21
2.517240
 12
6.417400
 22
1.763960
 13
6.419600
 23
2.508880
  0
POLYLINE
  8
0
  6
CONTINUOUS
 66
     1
 40
0.000000
 41
0.000000
  0
VERTEX
  8
0
  6
CONTINUOUS
 10
6.396280
 20
1.772320
  0
VERTEX
  8
0
  6
CONTINUOUS
 10
6.398480
 20
2.517240
  0
VERTEX
  8
0
  6
CONTINUOUS
 10
6.419600
 20
2.508880
  0
VERTEX
  8
0
  6
CONTINUOUS
 10
6.417400
 20
1.763960
  0
VERTEX
  8
0
  6
CONTINUOUS
 10
6.396280
 20
1.772320
  0
SEQEND
  8
0
  0
SOLID
  8
0
 62
    15
 10
6.417400
 20
1.763960
 11
6.419600
 21
2.508880
 12
6.432800
 22
1.749880
 13
6.435000
 23
2.494800
  0
POLYLINE
  8
0
  6
CONTINUOUS
 66
     1
 40
0.000000
 41
0.000000
  0
VERTEX
  8
0
  6
CONTINUOUS
 10
6.417400
 20
1.763960
  0
VERTEX
  8
0
  6
CONTINUOUS
 10
6.419600
 20
2.508880
  0
VERTEX
  8
0
  6
CONTINUOUS
 10
6.435000
 20
2.494800
  0
VERTEX
  8
0
  6
CONTINUOUS
 10
6.432800
 20
1.749880
  0
VERTEX
  8
0
  6
CONTINUOUS
 10
6.417400
 20
1.763960
  0
SEQEND
  8
0
  0
SOLID
  8
0
 62
    15
 10
6.432800
 20
1.749880
 11
6.435000
 21
2.494800
 12
6.443800
 22
1.730080
 13
6.446000
 23
2.475000
  0
POLYLINE
  8
0
  6
CONTINUOUS
 66
     1
 40
0.000000
 41
0.000000
  0
VERTEX
  8
0
  6
CONTINUOUS
 10
6.432800
 20
1.749880
  0
VERTEX
  8
0
  6
CONTINUOUS
 10
6.435000
 20
2.494800
  0
VERTEX
  8
0
  6
CONTINUOUS
 10
6.446000
 20
2.475000
  0
VERTEX
  8
0
  6
CONTINUOUS
 10
6.443800
 20
1.730080
  0
VERTEX
  8
0
  6
CONTINUOUS
 10
6.432800
 20
1.749880
  0
SEQEND
  8
0
  0
SOLID
  8
0
 62
    15
 10
6.443800
 20
1.730080
 11
6.446000
 21
2.475000
 12
6.483400
 22
1.731840
 13
6.485600
 23
2.476760
  0
POLYLINE
  8
0
  6
CONTINUOUS
 66
     1
 40
0.000000
 41
0.000000
  0
VERTEX
  8
0
  6
CONTINUOUS
 10
6.443800
 20
1.730080
  0
VERTEX
  8
0
  6
CONTINUOUS
 10
6.446000
 20
2.475000
  0
VERTEX
  8
0
  6
CONTINUOUS
 10
6.485600
 20
2.476760
  0
VERTEX
  8
0
  6
CONTINUOUS
 10
6.483400
 20
1.731840
  0
VERTEX
  8
0
  6
CONTINUOUS
 10
6.443800
 20
1.730080
  0
SEQEND
  8
0
  0
SOLID
  8
0
 62
    15
 10
6.483400
 20
1.731840
 11
6.485600
 21
2.476760
 12
6.515080
 22
1.729640
 13
6.517280
 23
2.474560
  0
POLYLINE
  8
0
  6
CONTINUOUS
 66
     1
 40
0.000000
 41
0.000000
  0
VERTEX
  8
0
  6
CONTINUOUS
 10
6.483400
 20
1.731840
  0
VERTEX
  8
0
  6
CONTINUOUS
 10
6.485600
 20
2.476760
  0
VERTEX
  8
0
  6
CONTINUOUS
 10
6.517280
 20
2.474560
  0
VERTEX
  8
0
  6
CONTINUOUS
 10
6.515080
 20
1.729640
  0
VERTEX
  8
0
  6
CONTINUOUS
 10
6.483400
 20
1.731840
  0
SEQEND
  8
0
  0
SOLID
  8
0
 62
    15
 10
6.515080
 20
1.729640
 11
6.517280
 21
2.474560
 12
6.541920
 22
1.721280
 13
6.544120
 23
2.466200
  0
POLYLINE
  8
0
  6
CONTINUOUS
 66
     1
 40
0.000000
 41
0.000000
  0
VERTEX
  8
0
  6
CONTINUOUS
 10
6.515080
 20
1.729640
  0
VERTEX
  8
0
  6
CONTINUOUS
 10
6.517280
 20
2.474560
  0
VERTEX
  8
0
  6
CONTINUOUS
 10
6.544120
 20
2.466200
  0
VERTEX
  8
0
  6
CONTINUOUS
 10
6.541920
 20
1.721280
  0
VERTEX
  8
0
  6
CONTINUOUS
 10
6.515080
 20
1.729640
  0
SEQEND
  8
0
  0
SOLID
  8
0
 62
    15
 10
6.541920
 20
1.721280
 11
6.544120
 21
2.466200
 12
6.566120
 22
1.705440
 13
6.568320
 23
2.450360
  0
POLYLINE
  8
0
  6
CONTINUOUS
 66
     1
 40
0.000000
 41
0.000000
  0
VERTEX
  8
0
  6
CONTINUOUS
 10
6.541920
 20
1.721280
  0
VERTEX
  8
0
  6
CONTINUOUS
 10
6.544120
 20
2.466200
  0
VERTEX
  8
0
  6
CONTINUOUS
 10
6.568320
 20
2.450360
  0
VERTEX
  8
0
  6
CONTINUOUS
 10
6.566120
 20
1.705440
  0
VERTEX
  8
0
  6
CONTINUOUS
 10
6.541920
 20
1.721280
  0
SEQEND
  8
0
  0
SOLID
  8
0
 62
    15
 10
6.566120
 20
1.705440
 11
6.568320
 21
2.450360
 12
6.589000
 22
1.689160
 13
6.591200
 23
2.434080
  0
POLYLINE
  8
0
  6
CONTINUOUS
 66
     1
 40
0.000000
 41
0.000000
  0
VERTEX
  8
0
  6
CONTINUOUS
 10
6.566120
 20
1.705440
  0
VERTEX
  8
0
  6
CONTINUOUS
 10
6.568320
 20
2.450360
  0
VERTEX
  8
0
  6
CONTINUOUS
 10
6.591200
 20
2.434080
  0
VERTEX
  8
0
  6
CONTINUOUS
 10
6.589000
 20
1.689160
  0
VERTEX
  8
0
  6
CONTINUOUS
 10
6.566120
 20
1.705440
  0
SEQEND
  8
0
  0
SOLID
  8
0
 62
    15
 10
6.589000
 20
1.689160
 11
6.591200
 21
2.434080
 12
6.609240
 22
1.680800
 13
6.611440
 23
2.425720
  0
POLYLINE
  8
0
  6
CONTINUOUS
 66
     1
 40
0.000000
 41
0.000000
  0
VERTEX
  8
0
  6
CONTINUOUS
 10
6.589000
 20
1.689160
  0
VERTEX
  8
0
  6
CONTINUOUS
 10
6.591200
 20
2.434080
  0
VERTEX
  8
0
  6
CONTINUOUS
 10
6.611440
 20
2.425720
  0
VERTEX
  8
0
  6
CONTINUOUS
 10
6.609240
 20
1.680800
  0
VERTEX
  8
0
  6
CONTINUOUS
 10
6.589000
 20
1.689160
  0
SEQEND
  8
0
  0
SOLID
  8
0
 62
    15
 10
6.609240
 20
1.680800
 11
6.611440
 21
2.425720
 12
6.626400
 22
1.677280
 13
6.628600
 23
2.422200
  0
POLYLINE
  8
0
  6
CONTINUOUS
 66
     1
 40
0.000000
 41
0.000000
  0
VERTEX
  8
0
  6
CONTINUOUS
 10
6.609240
 20
1.680800
  0
VERTEX
  8
0
  6
CONTINUOUS
 10
6.611440
 20
2.425720
  0
VERTEX
  8
0
  6
CONTINUOUS
 10
6.628600
 20
2.422200
  0
VERTEX
  8
0
  6
CONTINUOUS
 10
6.626400
 20
1.677280
  0
VERTEX
  8
0
  6
CONTINUOUS
 10
6.609240
 20
1.680800
  0
SEQEND
  8
0
  0
SOLID
  8
0
 62
    15
 10
6.626400
 20
1.677280
 11
6.628600
 21
2.422200
 12
6.634320
 22
1.676400
 13
6.636520
 23
2.421320
  0
POLYLINE
  8
0
  6
CONTINUOUS
 66
     1
 40
0.000000
 41
0.000000
  0
VERTEX
  8
0
  6
CONTINUOUS
 10
6.626400
 20
1.677280
  0
VERTEX
  8
0
  6
CONTINUOUS
 10
6.628600
 20
2.422200
  0
VERTEX
  8
0
  6
CONTINUOUS
 10
6.636520
 20
2.421320
  0
VERTEX
  8
0
  6
CONTINUOUS
 10
6.634320
 20
1.676400
  0
VERTEX
  8
0
  6
CONTINUOUS
 10
6.626400
 20
1.677280
  0
SEQEND
  8
0
  0
SOLID
  8
0
 62
    15
 10
6.634320
 20
1.676400
 11
6.636520
 21
2.421320
 12
6.649720
 22
1.675520
 13
6.651920
 23
2.420440
  0
POLYLINE
  8
0
  6
CONTINUOUS
 66
     1
 40
0.000000
 41
0.000000
  0
VERTEX
  8
0
  6
CONTINUOUS
 10
6.634320
 20
1.676400
  0
VERTEX
  8
0
  6
CONTINUOUS
 10
6.636520
 20
2.421320
  0
VERTEX
  8
0
  6
CONTINUOUS
 10
6.651920
 20
2.420440
  0
VERTEX
  8
0
  6
CONTINUOUS
 10
6.649720
 20
1.675520
  0
VERTEX
  8
0
  6
CONTINUOUS
 10
6.634320
 20
1.676400
  0
SEQEND
  8
0
  0
SOLID
  8
0
 62
    15
 10
6.649720
 20
1.675520
 11
6.651920
 21
2.420440
 12
6.660720
 22
1.674640
 13
6.662920
 23
2.419560
  0
POLYLINE
  8
0
  6
CONTINUOUS
 66
     1
 40
0.000000
 41
0.000000
  0
VERTEX
  8
0
  6
CONTINUOUS
 10
6.649720
 20
1.675520
  0
VERTEX
  8
0
  6
CONTINUOUS
 10
6.651920
 20
2.420440
  0
VERTEX
  8
0
  6
CONTINUOUS
 10
6.662920
 20
2.419560
  0
VERTEX
  8
0
  6
CONTINUOUS
 10
6.660720
 20
1.674640
  0
VERTEX
  8
0
  6
CONTINUOUS
 10
6.649720
 20
1.675520
  0
SEQEND
  8
0
  0
SOLID
  8
0
 62
    15
 10
6.660720
 20
1.674640
 11
6.662920
 21
2.419560
 12
6.688000
 22
1.668480
 13
6.690200
 23
2.413400
  0
POLYLINE
  8
0
  6
CONTINUOUS
 66
     1
 40
0.000000
 41
0.000000
  0
VERTEX
  8
0
  6
CONTINUOUS
 10
6.660720
 20
1.674640
  0
VERTEX
  8
0
  6
CONTINUOUS
 10
6.662920
 20
2.419560
  0
VERTEX
  8
0
  6
CONTINUOUS
 10
6.690200
 20
2.413400
  0
VERTEX
  8
0
  6
CONTINUOUS
 10
6.688000
 20
1.668480
  0
VERTEX
  8
0
  6
CONTINUOUS
 10
6.660720
 20
1.674640
  0
SEQEND
  8
0
  0
SOLID
  8
0
 62
    15
 10
6.688000
 20
1.668480
 11
6.690200
 21
2.413400
 12
6.715280
 22
1.654400
 13
6.717040
 23
2.399320
  0
POLYLINE
  8
0
  6
CONTINUOUS
 66
     1
 40
0.000000
 41
0.000000
  0
VERTEX
  8
0
  6
CONTINUOUS
 10
6.688000
 20
1.668480
  0
VERTEX
  8
0
  6
CONTINUOUS
 10
6.690200
 20
2.413400
  0
VERTEX
  8
0
  6
CONTINUOUS
 10
6.717040
 20
2.399320
  0
VERTEX
  8
0
  6
CONTINUOUS
 10
6.715280
 20
1.654400
  0
VERTEX
  8
0
  6
CONTINUOUS
 10
6.688000
 20
1.668480
  0
SEQEND
  8
0
  0
SOLID
  8
0
 62
    15
 10
6.715280
 20
1.654400
 11
6.717040
 21
2.399320
 12
6.726280
 22
1.642520
 13
6.728480
 23
2.387440
  0
POLYLINE
  8
0
  6
CONTINUOUS
 66
     1
 40
0.000000
 41
0.000000
  0
VERTEX
  8
0
  6
CONTINUOUS
 10
6.715280
 20
1.654400
  0
VERTEX
  8
0
  6
CONTINUOUS
 10
6.717040
 20
2.399320
  0
VERTEX
  8
0
  6
CONTINUOUS
 10
6.728480
 20
2.387440
  0
VERTEX
  8
0
  6
CONTINUOUS
 10
6.726280
 20
1.642520
  0
VERTEX
  8
0
  6
CONTINUOUS
 10
6.715280
 20
1.654400
  0
SEQEND
  8
0
  0
SOLID
  8
0
 62
    15
 10
6.726280
 20
1.642520
 11
6.728480
 21
2.387440
 12
6.735080
 22
1.627560
 13
6.737280
 23
2.372480
  0
POLYLINE
  8
0
  6
CONTINUOUS
 66
     1
 40
0.000000
 41
0.000000
  0
VERTEX
  8
0
  6
CONTINUOUS
 10
6.726280
 20
1.642520
  0
VERTEX
  8
0
  6
CONTINUOUS
 10
6.728480
 20
2.387440
  0
VERTEX
  8
0
  6
CONTINUOUS
 10
6.737280
 20
2.372480
  0
VERTEX
  8
0
  6
CONTINUOUS
 10
6.735080
 20
1.627560
  0
VERTEX
  8
0
  6
CONTINUOUS
 10
6.726280
 20
1.642520
  0
SEQEND
  8
0
  0
SOLID
  8
0
 62
    15
 10
7.681080
 20
1.572120
 11
7.683280
 21
2.316600
 12
7.715400
 22
1.572120
 13
7.717600
 23
2.317040
  0
POLYLINE
  8
0
  6
CONTINUOUS
 66
     1
 40
0.000000
 41
0.000000
  0
VERTEX
  8
0
  6
CONTINUOUS
 10
7.681080
 20
1.572120
  0
VERTEX
  8
0
  6
CONTINUOUS
 10
7.683280
 20
2.316600
  0
VERTEX
  8
0
  6
CONTINUOUS
 10
7.717600
 20
2.317040
  0
VERTEX
  8
0
  6
CONTINUOUS
 10
7.715400
 20
1.572120
  0
VERTEX
  8
0
  6
CONTINUOUS
 10
7.681080
 20
1.572120
  0
SEQEND
  8
0
  0
SOLID
  8
0
 62
    15
 10
7.666120
 20
1.635040
 11
7.668320
 21
2.379960
 12
7.681080
 22
1.572120
 13
7.683280
 23
2.316600
  0
POLYLINE
  8
0
  6
CONTINUOUS
 66
     1
 40
0.000000
 41
0.000000
  0
VERTEX
  8
0
  6
CONTINUOUS
 10
7.666120
 20
1.635040
  0
VERTEX
  8
0
  6
CONTINUOUS
 10
7.668320
 20
2.379960
  0
VERTEX
  8
0
  6
CONTINUOUS
 10
7.683280
 20
2.316600
  0
VERTEX
  8
0
  6
CONTINUOUS
 10
7.681080
 20
1.572120
  0
VERTEX
  8
0
  6
CONTINUOUS
 10
7.666120
 20
1.635040
  0
SEQEND
  8
0
  0
SOLID
  8
0
 62
    15
 10
6.735080
 20
1.627560
 11
6.737280
 21
2.372480
 12
7.666120
 22
1.635040
 13
7.668320
 23
2.379960
  0
POLYLINE
  8
0
  6
CONTINUOUS
 66
     1
 40
0.000000
 41
0.000000
  0
VERTEX
  8
0
  6
CONTINUOUS
 10
6.735080
 20
1.627560
  0
VERTEX
  8
0
  6
CONTINUOUS
 10
6.737280
 20
2.372480
  0
VERTEX
  8
0
  6
CONTINUOUS
 10
7.668320
 20
2.379960
  0
VERTEX
  8
0
  6
CONTINUOUS
 10
7.666120
 20
1.635040
  0
VERTEX
  8
0
  6
CONTINUOUS
 10
6.735080
 20
1.627560
  0
SEQEND
  8
0
  0
SOLID
  8
0
 62
    15
 10
7.715400
 20
1.572120
 11
7.717600
 21
2.317040
 12
7.745760
 22
1.570360
 13
7.747960
 23
2.315280
  0
POLYLINE
  8
0
  6
CONTINUOUS
 66
     1
 40
0.000000
 41
0.000000
  0
VERTEX
  8
0
  6
CONTINUOUS
 10
7.715400
 20
1.572120
  0
VERTEX
  8
0
  6
CONTINUOUS
 10
7.717600
 20
2.317040
  0
VERTEX
  8
0
  6
CONTINUOUS
 10
7.747960
 20
2.315280
  0
VERTEX
  8
0
  6
CONTINUOUS
 10
7.745760
 20
1.570360
  0
VERTEX
  8
0
  6
CONTINUOUS
 10
7.715400
 20
1.572120
  0
SEQEND
  8
0
  0
SOLID
  8
0
 62
    15
 10
7.745760
 20
1.570360
 11
7.747960
 21
2.315280
 12
7.772600
 22
1.565520
 13
7.774800
 23
2.310440
  0
POLYLINE
  8
0
  6
CONTINUOUS
 66
     1
 40
0.000000
 41
0.000000
  0
VERTEX
  8
0
  6
CONTINUOUS
 10
7.745760
 20
1.570360
  0
VERTEX
  8
0
  6
CONTINUOUS
 10
7.747960
 20
2.315280
  0
VERTEX
  8
0
  6
CONTINUOUS
 10
7.774800
 20
2.310440
  0
VERTEX
  8
0
  6
CONTINUOUS
 10
7.772600
 20
1.565520
  0
VERTEX
  8
0
  6
CONTINUOUS
 10
7.745760
 20
1.570360
  0
SEQEND
  8
0
  0
SOLID
  8
0
 62
    15
 10
7.772600
 20
1.565520
 11
7.774800
 21
2.310440
 12
7.796360
 22
1.556720
 13
7.798560
 23
2.301640
  0
POLYLINE
  8
0
  6
CONTINUOUS
 66
     1
 40
0.000000
 41
0.000000
  0
VERTEX
  8
0
  6
CONTINUOUS
 10
7.772600
 20
1.565520
  0
VERTEX
  8
0
  6
CONTINUOUS
 10
7.774800
 20
2.310440
  0
VERTEX
  8
0
  6
CONTINUOUS
 10
7.798560
 20
2.301640
  0
VERTEX
  8
0
  6
CONTINUOUS
 10
7.796360
 20
1.556720
  0
VERTEX
  8
0
  6
CONTINUOUS
 10
7.772600
 20
1.565520
  0
SEQEND
  8
0
  0
SOLID
  8
0
 62
    15
 10
7.796360
 20
1.556720
 11
7.798560
 21
2.301640
 12
7.817480
 22
1.542200
 13
7.819680
 23
2.287120
  0
POLYLINE
  8
0
  6
CONTINUOUS
 66
     1
 40
0.000000
 41
0.000000
  0
VERTEX
  8
0
  6
CONTINUOUS
 10
7.796360
 20
1.556720
  0
VERTEX
  8
0
  6
CONTINUOUS
 10
7.798560
 20
2.301640
  0
VERTEX
  8
0
  6
CONTINUOUS
 10
7.819680
 20
2.287120
  0
VERTEX
  8
0
  6
CONTINUOUS
 10
7.817480
 20
1.542200
  0
VERTEX
  8
0
  6
CONTINUOUS
 10
7.796360
 20
1.556720
  0
SEQEND
  8
0
  0
SOLID
  8
0
 62
    15
 10
7.817480
 20
1.542200
 11
7.819680
 21
2.287120
 12
7.836400
 22
1.521960
 13
7.838600
 23
2.266880
  0
POLYLINE
  8
0
  6
CONTINUOUS
 66
     1
 40
0.000000
 41
0.000000
  0
VERTEX
  8
0
  6
CONTINUOUS
 10
7.817480
 20
1.542200
  0
VERTEX
  8
0
  6
CONTINUOUS
 10
7.819680
 20
2.287120
  0
VERTEX
  8
0
  6
CONTINUOUS
 10
7.838600
 20
2.266880
  0
VERTEX
  8
0
  6
CONTINUOUS
 10
7.836400
 20
1.521960
  0
VERTEX
  8
0
  6
CONTINUOUS
 10
7.817480
 20
1.542200
  0
SEQEND
  8
0
  0
SOLID
  8
0
 62
    15
 10
7.836400
 20
1.521960
 11
7.838600
 21
2.266880
 12
7.853120
 22
1.493800
 13
7.855320
 23
2.238720
  0
POLYLINE
  8
0
  6
CONTINUOUS
 66
     1
 40
0.000000
 41
0.000000
  0
VERTEX
  8
0
  6
CONTINUOUS
 10
7.836400
 20
1.521960
  0
VERTEX
  8
0
  6
CONTINUOUS
 10
7.838600
 20
2.266880
  0
VERTEX
  8
0
  6
CONTINUOUS
 10
7.855320
 20
2.238720
  0
VERTEX
  8
0
  6
CONTINUOUS
 10
7.853120
 20
1.493800
  0
VERTEX
  8
0
  6
CONTINUOUS
 10
7.836400
 20
1.521960
  0
SEQEND
  8
0
  0
SOLID
  8
0
 62
    15
 10
7.853120
 20
1.493800
 11
7.855320
 21
2.238720
 12
7.868520
 22
1.457720
 13
7.870280
 23
2.202640
  0
POLYLINE
  8
0
  6
CONTINUOUS
 66
     1
 40
0.000000
 41
0.000000
  0
VERTEX
  8
0
  6
CONTINUOUS
 10
7.853120
 20
1.493800
  0
VERTEX
  8
0
  6
CONTINUOUS
 10
7.855320
 20
2.238720
  0
VERTEX
  8
0
  6
CONTINUOUS
 10
7.870280
 20
2.202640
  0
VERTEX
  8
0
  6
CONTINUOUS
 10
7.868520
 20
1.457720
  0
VERTEX
  8
0
  6
CONTINUOUS
 10
7.853120
 20
1.493800
  0
SEQEND
  8
0
  0
SOLID
  8
0
 62
    15
 10
7.935400
 20
1.457720
 11
7.937600
 21
2.202640
 12
7.935400
 22
1.281720
 13
7.937600
 23
2.026640
  0
POLYLINE
  8
0
  6
CONTINUOUS
 66
     1
 40
0.000000
 41
0.000000
  0
VERTEX
  8
0
  6
CONTINUOUS
 10
7.935400
 20
1.457720
  0
VERTEX
  8
0
  6
CONTINUOUS
 10
7.937600
 20
2.202640
  0
VERTEX
  8
0
  6
CONTINUOUS
 10
7.937600
 20
2.026640
  0
VERTEX
  8
0
  6
CONTINUOUS
 10
7.935400
 20
1.281720
  0
VERTEX
  8
0
  6
CONTINUOUS
 10
7.935400
 20
1.457720
  0
SEQEND
  8
0
  0
SOLID
  8
0
 62
    15
 10
7.868520
 20
1.457720
 11
7.870280
 21
2.202640
 12
7.935400
 22
1.457720
 13
7.937600
 23
2.202640
  0
POLYLINE
  8
0
  6
CONTINUOUS
 66
     1
 40
0.000000
 41
0.000000
  0
VERTEX
  8
0
  6
CONTINUOUS
 10
7.868520
 20
1.457720
  0
VERTEX
  8
0
  6
CONTINUOUS
 10
7.870280
 20
2.202640
  0
VERTEX
  8
0
  6
CONTINUOUS
 10
7.937600
 20
2.202640
  0
VERTEX
  8
0
  6
CONTINUOUS
 10
7.935400
 20
1.457720
  0
VERTEX
  8
0
  6
CONTINUOUS
 10
7.868520
 20
1.457720
  0
SEQEND
  8
0
  0
SOLID
  8
0
 62
    15
 10
3.512080
 20
2.108480
 11
3.514280
 21
2.853400
 12
3.876400
 22
2.108480
 13
3.878600
 23
2.853400
  0
POLYLINE
  8
0
  6
CONTINUOUS
 66
     1
 40
0.000000
 41
0.000000
  0
VERTEX
  8
0
  6
CONTINUOUS
 10
3.512080
 20
2.108480
  0
VERTEX
  8
0
  6
CONTINUOUS
 10
3.514280
 20
2.853400
  0
VERTEX
  8
0
  6
CONTINUOUS
 10
3.878600
 20
2.853400
  0
VERTEX
  8
0
  6
CONTINUOUS
 10
3.876400
 20
2.108480
  0
VERTEX
  8
0
  6
CONTINUOUS
 10
3.512080
 20
2.108480
  0
SEQEND
  8
0
  0
SOLID
  8
0
 62
    15
 10
3.876400
 20
2.108480
 11
3.878600
 21
2.853400
 12
3.876400
 22
2.104960
 13
3.878600
 23
2.849880
  0
POLYLINE
  8
0
  6
CONTINUOUS
 66
     1
 40
0.000000
 41
0.000000
  0
VERTEX
  8
0
  6
CONTINUOUS
 10
3.876400
 20
2.108480
  0
VERTEX
  8
0
  6
CONTINUOUS
 10
3.878600
 20
2.853400
  0
VERTEX
  8
0
  6
CONTINUOUS
 10
3.878600
 20
2.849880
  0
VERTEX
  8
0
  6
CONTINUOUS
 10
3.876400
 20
2.104960
  0
VERTEX
  8
0
  6
CONTINUOUS
 10
3.876400
 20
2.108480
  0
SEQEND
  8
0
  0
POLYLINE
  8
0
  6
CONTINUOUS
 66
     1
 40
0.000000
 41
0.000000
  0
VERTEX
  8
0
  6
CONTINUOUS
 10
3.876400
 20
2.104960
  0
VERTEX
  8
0
  6
CONTINUOUS
 10
3.908080
 20
1.985720
  0
VERTEX
  8
0
  6
CONTINUOUS
 10
3.954720
 20
1.985720
  0
VERTEX
  8
0
  6
CONTINUOUS
 10
3.996080
 20
2.034120
  0
VERTEX
  8
0
  6
CONTINUOUS
 10
4.037440
 20
2.067120
  0
VERTEX
  8
0
  6
CONTINUOUS
 10
4.077480
 20
2.088240
  0
VERTEX
  8
0
  6
CONTINUOUS
 10
4.115320
 20
2.098800
  0
VERTEX
  8
0
  6
CONTINUOUS
 10
4.150080
 20
2.102320
  0
VERTEX
  8
0
  6
CONTINUOUS
 10
4.180880
 20
2.101000
  0
VERTEX
  8
0
  6
CONTINUOUS
 10
4.206840
 20
2.097480
  0
VERTEX
  8
0
  6
CONTINUOUS
 10
4.264920
 20
2.086920
  0
VERTEX
  8
0
  6
CONTINUOUS
 10
4.306280
 20
2.075920
  0
VERTEX
  8
0
  6
CONTINUOUS
 10
4.347640
 20
2.059640
  0
VERTEX
  8
0
  6
CONTINUOUS
 10
4.383280
 20
2.035880
  0
VERTEX
  8
0
  6
CONTINUOUS
 10
4.403080
 20
2.014760
  0
VERTEX
  8
0
  6
CONTINUOUS
 10
4.463800
 20
1.942160
  0
VERTEX
  8
0
  6
CONTINUOUS
 10
4.502080
 20
1.899920
  0
VERTEX
  8
0
  6
CONTINUOUS
 10
4.543440
 20
1.861200
  0
VERTEX
  8
0
  6
CONTINUOUS
 10
4.587000
 20
1.829520
  0
VERTEX
  8
0
  6
CONTINUOUS
 10
4.631000
 20
1.810160
  0
VERTEX
  8
0
  6
CONTINUOUS
 10
4.652560
 20
1.806200
  0
VERTEX
  8
0
  6
CONTINUOUS
 10
4.674120
 20
1.807520
  0
VERTEX
  8
0
  6
CONTINUOUS
 10
4.682040
 20
1.829520
  0
VERTEX
  8
0
  6
CONTINUOUS
 10
4.692160
 20
1.848880
  0
VERTEX
  8
0
  6
CONTINUOUS
 10
4.719440
 20
1.878360
  0
VERTEX
  8
0
  6
CONTINUOUS
 10
4.752440
 20
1.895960
  0
VERTEX
  8
0
  6
CONTINUOUS
 10
4.788520
 20
1.902120
  0
VERTEX
  8
0
  6
CONTINUOUS
 10
4.824600
 20
1.896400
  0
VERTEX
  8
0
  6
CONTINUOUS
 10
4.857160
 20
1.878800
  0
VERTEX
  8
0
  6
CONTINUOUS
 10
4.883120
 20
1.849760
  0
VERTEX
  8
0
  6
CONTINUOUS
 10
4.899400
 20
1.809280
  0
VERTEX
  8
0
  6
CONTINUOUS
 10
4.921840
 20
1.809280
  0
VERTEX
  8
0
  6
CONTINUOUS
 10
4.945160
 20
1.768360
  0
VERTEX
  8
0
  6
CONTINUOUS
 10
6.369440
 20
1.776280
  0
VERTEX
  8
0
  6
CONTINUOUS
 10
6.396280
 20
1.772320
  0
VERTEX
  8
0
  6
CONTINUOUS
 10
6.417400
 20
1.763960
  0
VERTEX
  8
0
  6
CONTINUOUS
 10
6.432800
 20
1.749880
  0
VERTEX
  8
0
  6
CONTINUOUS
 10
6.443800
 20
1.730080
  0
VERTEX
  8
0
  6
CONTINUOUS
 10
6.483400
 20
1.731840
  0
VERTEX
  8
0
  6
CONTINUOUS
 10
6.515080
 20
1.729640
  0
VERTEX
  8
0
  6
CONTINUOUS
 10
6.541920
 20
1.721280
  0
VERTEX
  8
0
  6
CONTINUOUS
 10
6.589000
 20
1.689160
  0
VERTEX
  8
0
  6
CONTINUOUS
 10
6.609240
 20
1.680800
  0
VERTEX
  8
0
  6
CONTINUOUS
 10
6.634320
 20
1.676400
  0
VERTEX
  8
0
  6
CONTINUOUS
 10
6.660720
 20
1.674640
  0
VERTEX
  8
0
  6
CONTINUOUS
 10
6.688000
 20
1.668480
  0
VERTEX
  8
0
  6
CONTINUOUS
 10
6.715280
 20
1.654400
  0
VERTEX
  8
0
  6
CONTINUOUS
 10
6.726280
 20
1.642520
  0
VERTEX
  8
0
  6
CONTINUOUS
 10
6.735080
 20
1.627560
  0
VERTEX
  8
0
  6
CONTINUOUS
 10
7.666120
 20
1.635040
  0
VERTEX
  8
0
  6
CONTINUOUS
 10
7.681080
 20
1.572120
  0
VERTEX
  8
0
  6
CONTINUOUS
 10
7.715400
 20
1.572120
  0
VERTEX
  8
0
  6
CONTINUOUS
 10
7.745760
 20
1.570360
  0
VERTEX
  8
0
  6
CONTINUOUS
 10
7.772600
 20
1.565520
  0
VERTEX
  8
0
  6
CONTINUOUS
 10
7.796360
 20
1.556720
  0
VERTEX
  8
0
  6
CONTINUOUS
 10
7.817480
 20
1.542200
  0
VERTEX
  8
0
  6
CONTINUOUS
 10
7.836400
 20
1.521960
  0
VERTEX
  8
0
  6
CONTINUOUS
 10
7.853120
 20
1.493800
  0
VERTEX
  8
0
  6
CONTINUOUS
 10
7.868520
 20
1.457720
  0
VERTEX
  8
0
  6
CONTINUOUS
 10
7.935400
 20
1.457720
  0
VERTEX
  8
0
  6
CONTINUOUS
 10
7.935400
 20
1.281720
  0
VERTEX
  8
0
  6
CONTINUOUS
 10
3.512080
 20
1.281720
  0
VERTEX
  8
0
  6
CONTINUOUS
 10
3.512080
 20
2.108480
  0
VERTEX
  8
0
  6
CONTINUOUS
 10
3.876400
 20
2.108480
  0
VERTEX
  8
0
  6
CONTINUOUS
 10
3.876400
 20
2.104960
  0
SEQEND
  8
0
  0
TEXT
  8
0
 10
5.428720
 20
1.030480
 40
0.138019
  1
BA  720
 41
1.000000
  7
SN0
 71
     0
 72
     5
 11
6.018791
 21
1.030480
  0
TEXT
  8
0
 10
5.134360
 20
0.838640
 40
0.138019
  1
13/16" x 4-7/16"
 41
1.000000
  7
SN0
 71
     0
 72
     5
 11
6.311797
 21
0.838640
  0
ENDSEC
  0
EOF
