  0
SECTION
  2
HEADER
  9
$ACADVER
  1
AC1006
  9
$EXTMIN
 10
0.869000
 20
0.557480
  9
$EXTMAX
 10
8.024280
 20
2.976600
  9
$LTSCALE
 40
0.044000
  9
$PDMODE
 70
    35
  9
$PDSIZE
 40
0.035200
  0
ENDSEC
  0
SECTION
  2
TABLES
  0
TABLE
  2
LTYPE
 70
     9
  0
LTYPE
  2
CONTINUOUS
 70
    64
  3
Solid line
 72
    65
 73
     0
 40
0.000000
  0
LTYPE
  2
DASHED
 70
    64
  3
__ __ __ __ __ __ __ __ __ __ __ __ __ __ __
 72
    65
 73
     2
 40
0.000330
 49
0.000220
 49
-0.000110
  0
LTYPE
  2
HIDDEN
 70
    64
  3
 _ _ _ _ _ _ _ _ _ _ _ _ _ _ _ _ _ _ _ _ _ _
 72
    65
 73
     2
 40
0.000165
 49
0.000110
 49
-0.000055
  0
LTYPE
  2
CENTER
 70
    64
  3
____ _ ____ _ ____ _ ____ _ ____ _ ____ _ ____
 72
    65
 73
     4
 40
0.000880
 49
0.000550
 49
-0.000110
 49
0.000110
 49
-0.000110
  0
LTYPE
  2
PHANTOM
 70
    64
  3
_____ _ _ _____ _ _ _____ _ _ _____ _ _ ____
 72
    65
 73
     6
 40
0.001100
 49
0.000550
 49
-0.000110
 49
0.000110
 49
-0.000110
 49
0.000110
 49
-0.000110
  0
LTYPE
  2
DOT
 70
    64
  3
...............................................
 72
    65
 73
     2
 40
0.000110
 49
0.000000
 49
-0.000110
  0
LTYPE
  2
DASHDOT
 70
    64
  3
__ . __ . __ . __ . __ . __ . __ . __ . __ . __
 72
    65
 73
     4
 40
0.000440
 49
0.000220
 49
-0.000110
 49
0.000000
 49
-0.000110
  0
LTYPE
  2
BORDER
 70
    64
  3
__ __ . __ __ . __ __ . __ __ . __ __ . __ __
 72
    65
 73
     6
 40
0.000770
 49
0.000220
 49
-0.000110
 49
0.000220
 49
-0.000110
 49
0.000000
 49
-0.000110
  0
LTYPE
  2
DIVIDE
 70
    64
  3
__ . . __ . . __ . . __ . . __ . . __ . . __
 72
    65
 73
     6
 40
0.000550
 49
0.000220
 49
-0.000110
 49
0.000000
 49
-0.000110
 49
0.000000
 49
-0.000110
  0
LTYPE
  2
DOTDOT
 70
    64
  3
 . .  . .  . .  . .  . .  . . 
 72
    65
 73
     5
 40
0.000242
 49
-0.000110
 49
0.000000
 49
-0.000110
 49
0.000000
 49
-0.000110
  0
ENDTAB
  0
TABLE
  2
STYLE
 70
     2
  0
STYLE
 70
     0
  2
SN0
 40
0.000000
 41
0.000440
 50
0.000000
 71
     0
 42
0.000000
  3
ROMAND
  0
STYLE
 70
    68
  2
SV0
 40
0.000000
 41
0.000440
 50
0.000000
 71
     0
 42
0.000000
  3
ROMAND
  0
ENDTAB
  0
TABLE
  2
LAYER
 70
     3
  0
LAYER
  2
FOREGROUND
 70
    64
 62
     7
  6
CONTINUOUS
  0
LAYER
  2
BACKGROUND
 70
    65
 62
    -7
  6
CONTINUOUS
  0
LAYER
  2
0
 70
    64
 62
     7
  6
CONTINUOUS
  0
ENDTAB
  0
ENDSEC
  0
SECTION
  2
ENTITIES
  0
POLYLINE
  8
FOREGROUND
  6
CONTINUOUS
 66
     1
 40
0.000000
 41
0.000000
  0
VERTEX
  8
FOREGROUND
  6
CONTINUOUS
 10
0.000000
 20
3.534080
  0
VERTEX
  8
FOREGROUND
  6
CONTINUOUS
 10
8.499920
 20
3.534080
  0
VERTEX
  8
FOREGROUND
  6
CONTINUOUS
 10
8.499920
 20
-7.465920
  0
VERTEX
  8
FOREGROUND
  6
CONTINUOUS
 10
0.000000
 20
-7.465920
  0
VERTEX
  8
FOREGROUND
  6
CONTINUOUS
 10
0.000000
 20
3.534080
  0
SEQEND
  8
0
  0
POLYLINE
  8
FOREGROUND
  6
CONTINUOUS
 66
     1
 40
0.000000
 41
0.000000
  0
VERTEX
  8
FOREGROUND
  6
CONTINUOUS
 10
0.000000
 20
3.534080
  0
VERTEX
  8
FOREGROUND
  6
CONTINUOUS
 10
8.499920
 20
3.534080
  0
VERTEX
  8
FOREGROUND
  6
CONTINUOUS
 10
8.499920
 20
-7.465920
  0
VERTEX
  8
FOREGROUND
  6
CONTINUOUS
 10
0.000000
 20
-7.465920
  0
VERTEX
  8
FOREGROUND
  6
CONTINUOUS
 10
0.000000
 20
3.534080
  0
SEQEND
  8
0
  0
POLYLINE
  8
0
  6
CONTINUOUS
 66
     1
 40
0.014080
 41
0.014080
  0
VERTEX
  8
0
  6
CONTINUOUS
 10
7.442160
 20
1.056000
  0
VERTEX
  8
0
  6
CONTINUOUS
 10
7.248120
 20
1.056000
  0
VERTEX
  8
0
  6
CONTINUOUS
 10
7.248120
 20
1.320440
  0
VERTEX
  8
0
  6
CONTINUOUS
 10
6.498360
 20
1.320440
  0
VERTEX
  8
0
  6
CONTINUOUS
 10
6.498360
 20
1.322640
  0
VERTEX
  8
0
  6
CONTINUOUS
 10
5.752560
 20
1.322640
  0
VERTEX
  8
0
  6
CONTINUOUS
 10
5.752560
 20
1.056000
  0
VERTEX
  8
0
  6
CONTINUOUS
 10
5.548400
 20
1.056000
  0
VERTEX
  8
0
  6
CONTINUOUS
 10
5.540040
 20
1.060400
  0
VERTEX
  8
0
  6
CONTINUOUS
 10
5.482840
 20
1.063040
  0
VERTEX
  8
0
  6
CONTINUOUS
 10
5.427400
 20
1.071400
  0
VERTEX
  8
0
  6
CONTINUOUS
 10
5.373720
 20
1.085040
  0
VERTEX
  8
0
  6
CONTINUOUS
 10
5.322240
 20
1.103520
  0
VERTEX
  8
0
  6
CONTINUOUS
 10
5.273400
 20
1.126840
  0
VERTEX
  8
0
  6
CONTINUOUS
 10
5.227200
 20
1.154560
  0
VERTEX
  8
0
  6
CONTINUOUS
 10
5.205200
 20
1.169520
  0
VERTEX
  8
0
  6
CONTINUOUS
 10
5.163400
 20
1.203400
  0
VERTEX
  8
0
  6
CONTINUOUS
 10
5.125560
 20
1.240800
  0
VERTEX
  8
0
  6
CONTINUOUS
 10
5.091240
 20
1.281720
  0
VERTEX
  8
0
  6
CONTINUOUS
 10
5.060880
 20
1.326160
  0
VERTEX
  8
0
  6
CONTINUOUS
 10
5.047240
 20
1.349040
  0
VERTEX
  8
0
  6
CONTINUOUS
 10
5.023480
 20
1.397880
  0
VERTEX
  8
0
  6
CONTINUOUS
 10
5.005000
 20
1.448920
  0
VERTEX
  8
0
  6
CONTINUOUS
 10
4.997080
 20
1.474880
  0
VERTEX
  8
0
  6
CONTINUOUS
 10
4.986080
 20
1.529440
  0
VERTEX
  8
0
  6
CONTINUOUS
 10
4.980360
 20
1.585760
  0
VERTEX
  8
0
  6
CONTINUOUS
 10
4.979480
 20
1.614360
  0
VERTEX
  8
0
  6
CONTINUOUS
 10
4.982560
 20
1.671560
  0
VERTEX
  8
0
  6
CONTINUOUS
 10
4.990920
 20
1.727000
  0
VERTEX
  8
0
  6
CONTINUOUS
 10
5.004560
 20
1.780680
  0
VERTEX
  8
0
  6
CONTINUOUS
 10
5.012920
 20
1.806640
  0
VERTEX
  8
0
  6
CONTINUOUS
 10
5.034040
 20
1.857240
  0
VERTEX
  8
0
  6
CONTINUOUS
 10
5.060000
 20
1.905200
  0
VERTEX
  8
0
  6
CONTINUOUS
 10
5.089920
 20
1.950080
  0
VERTEX
  8
0
  6
CONTINUOUS
 10
5.123800
 20
1.991440
  0
VERTEX
  8
0
  6
CONTINUOUS
 10
5.161200
 20
2.029720
  0
VERTEX
  8
0
  6
CONTINUOUS
 10
5.202560
 20
2.064480
  0
VERTEX
  8
0
  6
CONTINUOUS
 10
5.247000
 20
2.094840
  0
VERTEX
  8
0
  6
CONTINUOUS
 10
5.294080
 20
2.120800
  0
VERTEX
  8
0
  6
CONTINUOUS
 10
5.344240
 20
2.142360
  0
VERTEX
  8
0
  6
CONTINUOUS
 10
5.396160
 20
2.158640
  0
VERTEX
  8
0
  6
CONTINUOUS
 10
5.423440
 20
2.165240
  0
VERTEX
  8
0
  6
CONTINUOUS
 10
5.478440
 20
2.173600
  0
VERTEX
  8
0
  6
CONTINUOUS
 10
5.537840
 20
2.177120
  0
VERTEX
  8
0
  6
CONTINUOUS
 10
5.537840
 20
2.289320
  0
VERTEX
  8
0
  6
CONTINUOUS
 10
5.613960
 20
2.302520
  0
VERTEX
  8
0
  6
CONTINUOUS
 10
5.686120
 20
2.320120
  0
VERTEX
  8
0
  6
CONTINUOUS
 10
5.755640
 20
2.340800
  0
VERTEX
  8
0
  6
CONTINUOUS
 10
5.854200
 20
2.376880
  0
VERTEX
  8
0
  6
CONTINUOUS
 10
5.947480
 20
2.417360
  0
VERTEX
  8
0
  6
CONTINUOUS
 10
6.204440
 20
2.537480
  0
VERTEX
  8
0
  6
CONTINUOUS
 10
6.258560
 20
2.559920
  0
VERTEX
  8
0
  6
CONTINUOUS
 10
6.339080
 20
2.587640
  0
VERTEX
  8
0
  6
CONTINUOUS
 10
6.392320
 20
2.600840
  0
VERTEX
  8
0
  6
CONTINUOUS
 10
6.446440
 20
2.609200
  0
VERTEX
  8
0
  6
CONTINUOUS
 10
6.500560
 20
2.612280
  0
VERTEX
  8
0
  6
CONTINUOUS
 10
6.534000
 20
2.611400
  0
VERTEX
  8
0
  6
CONTINUOUS
 10
6.587680
 20
2.605680
  0
VERTEX
  8
0
  6
CONTINUOUS
 10
6.640920
 20
2.594680
  0
VERTEX
  8
0
  6
CONTINUOUS
 10
6.693720
 20
2.579720
  0
VERTEX
  8
0
  6
CONTINUOUS
 10
6.773360
 20
2.549800
  0
VERTEX
  8
0
  6
CONTINUOUS
 10
6.881160
 20
2.500520
  0
VERTEX
  8
0
  6
CONTINUOUS
 10
7.082240
 20
2.405040
  0
VERTEX
  8
0
  6
CONTINUOUS
 10
7.175960
 20
2.366320
  0
VERTEX
  8
0
  6
CONTINUOUS
 10
7.275840
 20
2.332000
  0
VERTEX
  8
0
  6
CONTINUOUS
 10
7.346680
 20
2.313080
  0
VERTEX
  8
0
  6
CONTINUOUS
 10
7.420600
 20
2.297680
  0
VERTEX
  8
0
  6
CONTINUOUS
 10
7.458880
 20
2.291520
  0
VERTEX
  8
0
  6
CONTINUOUS
 10
7.458880
 20
2.176680
  0
VERTEX
  8
0
  6
CONTINUOUS
 10
7.516080
 20
2.173600
  0
VERTEX
  8
0
  6
CONTINUOUS
 10
7.571520
 20
2.165240
  0
VERTEX
  8
0
  6
CONTINUOUS
 10
7.624760
 20
2.151600
  0
VERTEX
  8
0
  6
CONTINUOUS
 10
7.676240
 20
2.132680
  0
VERTEX
  8
0
  6
CONTINUOUS
 10
7.725080
 20
2.108920
  0
VERTEX
  8
0
  6
CONTINUOUS
 10
7.770840
 20
2.080760
  0
VERTEX
  8
0
  6
CONTINUOUS
 10
7.813960
 20
2.048640
  0
VERTEX
  8
0
  6
CONTINUOUS
 10
7.853560
 20
2.012120
  0
VERTEX
  8
0
  6
CONTINUOUS
 10
7.889640
 20
1.972520
  0
VERTEX
  8
0
  6
CONTINUOUS
 10
7.921760
 20
1.929400
  0
VERTEX
  8
0
  6
CONTINUOUS
 10
7.949920
 20
1.883200
  0
VERTEX
  8
0
  6
CONTINUOUS
 10
7.973240
 20
1.834360
  0
VERTEX
  8
0
  6
CONTINUOUS
 10
7.992160
 20
1.782880
  0
VERTEX
  8
0
  6
CONTINUOUS
 10
8.005800
 20
1.729200
  0
VERTEX
  8
0
  6
CONTINUOUS
 10
8.014160
 20
1.673760
  0
VERTEX
  8
0
  6
CONTINUOUS
 10
8.017240
 20
1.616560
  0
VERTEX
  8
0
  6
CONTINUOUS
 10
8.014160
 20
1.559360
  0
VERTEX
  8
0
  6
CONTINUOUS
 10
8.005800
 20
1.503920
  0
VERTEX
  8
0
  6
CONTINUOUS
 10
7.999640
 20
1.476640
  0
VERTEX
  8
0
  6
CONTINUOUS
 10
7.982920
 20
1.424280
  0
VERTEX
  8
0
  6
CONTINUOUS
 10
7.973240
 20
1.398760
  0
VERTEX
  8
0
  6
CONTINUOUS
 10
7.949480
 20
1.349920
  0
VERTEX
  8
0
  6
CONTINUOUS
 10
7.921320
 20
1.303720
  0
VERTEX
  8
0
  6
CONTINUOUS
 10
7.888760
 20
1.260600
  0
VERTEX
  8
0
  6
CONTINUOUS
 10
7.852680
 20
1.220560
  0
VERTEX
  8
0
  6
CONTINUOUS
 10
7.812640
 20
1.184480
  0
VERTEX
  8
0
  6
CONTINUOUS
 10
7.769520
 20
1.151920
  0
VERTEX
  8
0
  6
CONTINUOUS
 10
7.723320
 20
1.123760
  0
VERTEX
  8
0
  6
CONTINUOUS
 10
7.674480
 20
1.100000
  0
VERTEX
  8
0
  6
CONTINUOUS
 10
7.623000
 20
1.081520
  0
VERTEX
  8
0
  6
CONTINUOUS
 10
7.596600
 20
1.073600
  0
VERTEX
  8
0
  6
CONTINUOUS
 10
7.541600
 20
1.062600
  0
VERTEX
  8
0
  6
CONTINUOUS
 10
7.485280
 20
1.056880
  0
VERTEX
  8
0
  6
CONTINUOUS
 10
7.442160
 20
1.056000
  0
SEQEND
  8
0
  0
SOLID
  8
0
 62
    15
 10
2.771120
 20
2.479400
 11
3.399880
 21
2.864400
 12
2.826560
 22
2.452120
 13
3.455320
 23
2.837560
  0
POLYLINE
  8
0
  6
CONTINUOUS
 66
     1
 40
0.000000
 41
0.000000
  0
VERTEX
  8
0
  6
CONTINUOUS
 10
2.771120
 20
2.479400
  0
VERTEX
  8
0
  6
CONTINUOUS
 10
3.399880
 20
2.864400
  0
VERTEX
  8
0
  6
CONTINUOUS
 10
3.455320
 20
2.837560
  0
VERTEX
  8
0
  6
CONTINUOUS
 10
2.826560
 20
2.452120
  0
VERTEX
  8
0
  6
CONTINUOUS
 10
2.771120
 20
2.479400
  0
SEQEND
  8
0
  0
SOLID
  8
0
 62
    15
 10
1.114520
 20
2.058760
 11
1.742840
 21
2.443760
 12
1.208680
 22
2.111120
 13
1.837440
 23
2.496120
  0
POLYLINE
  8
0
  6
CONTINUOUS
 66
     1
 40
0.000000
 41
0.000000
  0
VERTEX
  8
0
  6
CONTINUOUS
 10
1.114520
 20
2.058760
  0
VERTEX
  8
0
  6
CONTINUOUS
 10
1.742840
 20
2.443760
  0
VERTEX
  8
0
  6
CONTINUOUS
 10
1.837440
 20
2.496120
  0
VERTEX
  8
0
  6
CONTINUOUS
 10
1.208680
 20
2.111120
  0
VERTEX
  8
0
  6
CONTINUOUS
 10
1.114520
 20
2.058760
  0
SEQEND
  8
0
  0
SOLID
  8
0
 62
    15
 10
1.208680
 20
2.111120
 11
1.837440
 21
2.496120
 12
1.313400
 22
2.144120
 13
1.941720
 23
2.529120
  0
POLYLINE
  8
0
  6
CONTINUOUS
 66
     1
 40
0.000000
 41
0.000000
  0
VERTEX
  8
0
  6
CONTINUOUS
 10
1.208680
 20
2.111120
  0
VERTEX
  8
0
  6
CONTINUOUS
 10
1.837440
 20
2.496120
  0
VERTEX
  8
0
  6
CONTINUOUS
 10
1.941720
 20
2.529120
  0
VERTEX
  8
0
  6
CONTINUOUS
 10
1.313400
 20
2.144120
  0
VERTEX
  8
0
  6
CONTINUOUS
 10
1.208680
 20
2.111120
  0
SEQEND
  8
0
  0
SOLID
  8
0
 62
    15
 10
1.313400
 20
2.144120
 11
1.941720
 21
2.529120
 12
1.426040
 22
2.155560
 13
2.054360
 23
2.540560
  0
POLYLINE
  8
0
  6
CONTINUOUS
 66
     1
 40
0.000000
 41
0.000000
  0
VERTEX
  8
0
  6
CONTINUOUS
 10
1.313400
 20
2.144120
  0
VERTEX
  8
0
  6
CONTINUOUS
 10
1.941720
 20
2.529120
  0
VERTEX
  8
0
  6
CONTINUOUS
 10
2.054360
 20
2.540560
  0
VERTEX
  8
0
  6
CONTINUOUS
 10
1.426040
 20
2.155560
  0
VERTEX
  8
0
  6
CONTINUOUS
 10
1.313400
 20
2.144120
  0
SEQEND
  8
0
  0
SOLID
  8
0
 62
    15
 10
1.426040
 20
2.155560
 11
2.054360
 21
2.540560
 12
1.427800
 22
2.155560
 13
2.056560
 23
2.540560
  0
POLYLINE
  8
0
  6
CONTINUOUS
 66
     1
 40
0.000000
 41
0.000000
  0
VERTEX
  8
0
  6
CONTINUOUS
 10
1.426040
 20
2.155560
  0
VERTEX
  8
0
  6
CONTINUOUS
 10
2.054360
 20
2.540560
  0
VERTEX
  8
0
  6
CONTINUOUS
 10
2.056560
 20
2.540560
  0
VERTEX
  8
0
  6
CONTINUOUS
 10
1.427800
 20
2.155560
  0
VERTEX
  8
0
  6
CONTINUOUS
 10
1.426040
 20
2.155560
  0
SEQEND
  8
0
  0
SOLID
  8
0
 62
    15
 10
1.427800
 20
2.267760
 11
2.056560
 21
2.653200
 12
1.576520
 22
2.298560
 13
2.204840
 23
2.683560
  0
POLYLINE
  8
0
  6
CONTINUOUS
 66
     1
 40
0.000000
 41
0.000000
  0
VERTEX
  8
0
  6
CONTINUOUS
 10
1.427800
 20
2.267760
  0
VERTEX
  8
0
  6
CONTINUOUS
 10
2.056560
 20
2.653200
  0
VERTEX
  8
0
  6
CONTINUOUS
 10
2.204840
 20
2.683560
  0
VERTEX
  8
0
  6
CONTINUOUS
 10
1.576520
 20
2.298560
  0
VERTEX
  8
0
  6
CONTINUOUS
 10
1.427800
 20
2.267760
  0
SEQEND
  8
0
  0
SOLID
  8
0
 62
    15
 10
1.576520
 20
2.298560
 11
2.204840
 21
2.683560
 12
1.712040
 22
2.343000
 13
2.340800
 23
2.728000
  0
POLYLINE
  8
0
  6
CONTINUOUS
 66
     1
 40
0.000000
 41
0.000000
  0
VERTEX
  8
0
  6
CONTINUOUS
 10
1.576520
 20
2.298560
  0
VERTEX
  8
0
  6
CONTINUOUS
 10
2.204840
 20
2.683560
  0
VERTEX
  8
0
  6
CONTINUOUS
 10
2.340800
 20
2.728000
  0
VERTEX
  8
0
  6
CONTINUOUS
 10
1.712040
 20
2.343000
  0
VERTEX
  8
0
  6
CONTINUOUS
 10
1.576520
 20
2.298560
  0
SEQEND
  8
0
  0
SOLID
  8
0
 62
    15
 10
1.712040
 20
2.343000
 11
2.340800
 21
2.728000
 12
1.837880
 22
2.395800
 13
2.466200
 23
2.780800
  0
POLYLINE
  8
0
  6
CONTINUOUS
 66
     1
 40
0.000000
 41
0.000000
  0
VERTEX
  8
0
  6
CONTINUOUS
 10
1.712040
 20
2.343000
  0
VERTEX
  8
0
  6
CONTINUOUS
 10
2.340800
 20
2.728000
  0
VERTEX
  8
0
  6
CONTINUOUS
 10
2.466200
 20
2.780800
  0
VERTEX
  8
0
  6
CONTINUOUS
 10
1.837880
 20
2.395800
  0
VERTEX
  8
0
  6
CONTINUOUS
 10
1.712040
 20
2.343000
  0
SEQEND
  8
0
  0
SOLID
  8
0
 62
    15
 10
1.837880
 20
2.395800
 11
2.466200
 21
2.780800
 12
1.955360
 22
2.451240
 13
2.583680
 23
2.836240
  0
POLYLINE
  8
0
  6
CONTINUOUS
 66
     1
 40
0.000000
 41
0.000000
  0
VERTEX
  8
0
  6
CONTINUOUS
 10
1.837880
 20
2.395800
  0
VERTEX
  8
0
  6
CONTINUOUS
 10
2.466200
 20
2.780800
  0
VERTEX
  8
0
  6
CONTINUOUS
 10
2.583680
 20
2.836240
  0
VERTEX
  8
0
  6
CONTINUOUS
 10
1.955360
 20
2.451240
  0
VERTEX
  8
0
  6
CONTINUOUS
 10
1.837880
 20
2.395800
  0
SEQEND
  8
0
  0
SOLID
  8
0
 62
    15
 10
1.955360
 20
2.451240
 11
2.583680
 21
2.836240
 12
2.011680
 22
2.478520
 13
2.640440
 23
2.863520
  0
POLYLINE
  8
0
  6
CONTINUOUS
 66
     1
 40
0.000000
 41
0.000000
  0
VERTEX
  8
0
  6
CONTINUOUS
 10
1.955360
 20
2.451240
  0
VERTEX
  8
0
  6
CONTINUOUS
 10
2.583680
 20
2.836240
  0
VERTEX
  8
0
  6
CONTINUOUS
 10
2.640440
 20
2.863520
  0
VERTEX
  8
0
  6
CONTINUOUS
 10
2.011680
 20
2.478520
  0
VERTEX
  8
0
  6
CONTINUOUS
 10
1.955360
 20
2.451240
  0
SEQEND
  8
0
  0
SOLID
  8
0
 62
    15
 10
2.011680
 20
2.478520
 11
2.640440
 21
2.863520
 12
2.067120
 22
2.504040
 13
2.695440
 23
2.889040
  0
POLYLINE
  8
0
  6
CONTINUOUS
 66
     1
 40
0.000000
 41
0.000000
  0
VERTEX
  8
0
  6
CONTINUOUS
 10
2.011680
 20
2.478520
  0
VERTEX
  8
0
  6
CONTINUOUS
 10
2.640440
 20
2.863520
  0
VERTEX
  8
0
  6
CONTINUOUS
 10
2.695440
 20
2.889040
  0
VERTEX
  8
0
  6
CONTINUOUS
 10
2.067120
 20
2.504040
  0
VERTEX
  8
0
  6
CONTINUOUS
 10
2.011680
 20
2.478520
  0
SEQEND
  8
0
  0
SOLID
  8
0
 62
    15
 10
2.067120
 20
2.504040
 11
2.695440
 21
2.889040
 12
2.175360
 22
2.548480
 13
2.803680
 23
2.933480
  0
POLYLINE
  8
0
  6
CONTINUOUS
 66
     1
 40
0.000000
 41
0.000000
  0
VERTEX
  8
0
  6
CONTINUOUS
 10
2.067120
 20
2.504040
  0
VERTEX
  8
0
  6
CONTINUOUS
 10
2.695440
 20
2.889040
  0
VERTEX
  8
0
  6
CONTINUOUS
 10
2.803680
 20
2.933480
  0
VERTEX
  8
0
  6
CONTINUOUS
 10
2.175360
 20
2.548480
  0
VERTEX
  8
0
  6
CONTINUOUS
 10
2.067120
 20
2.504040
  0
SEQEND
  8
0
  0
SOLID
  8
0
 62
    15
 10
2.175360
 20
2.548480
 11
2.803680
 21
2.933480
 12
2.282280
 22
2.579280
 13
2.911040
 23
2.964280
  0
POLYLINE
  8
0
  6
CONTINUOUS
 66
     1
 40
0.000000
 41
0.000000
  0
VERTEX
  8
0
  6
CONTINUOUS
 10
2.175360
 20
2.548480
  0
VERTEX
  8
0
  6
CONTINUOUS
 10
2.803680
 20
2.933480
  0
VERTEX
  8
0
  6
CONTINUOUS
 10
2.911040
 20
2.964280
  0
VERTEX
  8
0
  6
CONTINUOUS
 10
2.282280
 20
2.579280
  0
VERTEX
  8
0
  6
CONTINUOUS
 10
2.175360
 20
2.548480
  0
SEQEND
  8
0
  0
SOLID
  8
0
 62
    15
 10
2.282280
 20
2.579280
 11
2.911040
 21
2.964280
 12
2.390520
 22
2.590720
 13
3.018840
 23
2.975720
  0
POLYLINE
  8
0
  6
CONTINUOUS
 66
     1
 40
0.000000
 41
0.000000
  0
VERTEX
  8
0
  6
CONTINUOUS
 10
2.282280
 20
2.579280
  0
VERTEX
  8
0
  6
CONTINUOUS
 10
2.911040
 20
2.964280
  0
VERTEX
  8
0
  6
CONTINUOUS
 10
3.018840
 20
2.975720
  0
VERTEX
  8
0
  6
CONTINUOUS
 10
2.390520
 20
2.590720
  0
VERTEX
  8
0
  6
CONTINUOUS
 10
2.282280
 20
2.579280
  0
SEQEND
  8
0
  0
SOLID
  8
0
 62
    15
 10
2.390520
 20
2.590720
 11
3.018840
 21
2.975720
 12
2.396680
 22
2.590720
 13
3.025440
 23
2.975720
  0
POLYLINE
  8
0
  6
CONTINUOUS
 66
     1
 40
0.000000
 41
0.000000
  0
VERTEX
  8
0
  6
CONTINUOUS
 10
2.390520
 20
2.590720
  0
VERTEX
  8
0
  6
CONTINUOUS
 10
3.018840
 20
2.975720
  0
VERTEX
  8
0
  6
CONTINUOUS
 10
3.025440
 20
2.975720
  0
VERTEX
  8
0
  6
CONTINUOUS
 10
2.396680
 20
2.590720
  0
VERTEX
  8
0
  6
CONTINUOUS
 10
2.390520
 20
2.590720
  0
SEQEND
  8
0
  0
SOLID
  8
0
 62
    15
 10
2.396680
 20
2.590720
 11
3.025440
 21
2.975720
 12
2.504480
 22
2.579280
 13
3.132800
 23
2.964720
  0
POLYLINE
  8
0
  6
CONTINUOUS
 66
     1
 40
0.000000
 41
0.000000
  0
VERTEX
  8
0
  6
CONTINUOUS
 10
2.396680
 20
2.590720
  0
VERTEX
  8
0
  6
CONTINUOUS
 10
3.025440
 20
2.975720
  0
VERTEX
  8
0
  6
CONTINUOUS
 10
3.132800
 20
2.964720
  0
VERTEX
  8
0
  6
CONTINUOUS
 10
2.504480
 20
2.579280
  0
VERTEX
  8
0
  6
CONTINUOUS
 10
2.396680
 20
2.590720
  0
SEQEND
  8
0
  0
SOLID
  8
0
 62
    15
 10
2.504480
 20
2.579280
 11
3.132800
 21
2.964720
 12
2.610080
 22
2.548920
 13
3.238840
 23
2.933920
  0
POLYLINE
  8
0
  6
CONTINUOUS
 66
     1
 40
0.000000
 41
0.000000
  0
VERTEX
  8
0
  6
CONTINUOUS
 10
2.504480
 20
2.579280
  0
VERTEX
  8
0
  6
CONTINUOUS
 10
3.132800
 20
2.964720
  0
VERTEX
  8
0
  6
CONTINUOUS
 10
3.238840
 20
2.933920
  0
VERTEX
  8
0
  6
CONTINUOUS
 10
2.610080
 20
2.548920
  0
VERTEX
  8
0
  6
CONTINUOUS
 10
2.504480
 20
2.579280
  0
SEQEND
  8
0
  0
SOLID
  8
0
 62
    15
 10
2.610080
 20
2.548920
 11
3.238840
 21
2.933920
 12
2.717000
 22
2.504920
 13
3.345320
 23
2.889920
  0
POLYLINE
  8
0
  6
CONTINUOUS
 66
     1
 40
0.000000
 41
0.000000
  0
VERTEX
  8
0
  6
CONTINUOUS
 10
2.610080
 20
2.548920
  0
VERTEX
  8
0
  6
CONTINUOUS
 10
3.238840
 20
2.933920
  0
VERTEX
  8
0
  6
CONTINUOUS
 10
3.345320
 20
2.889920
  0
VERTEX
  8
0
  6
CONTINUOUS
 10
2.717000
 20
2.504920
  0
VERTEX
  8
0
  6
CONTINUOUS
 10
2.610080
 20
2.548920
  0
SEQEND
  8
0
  0
SOLID
  8
0
 62
    15
 10
2.717000
 20
2.504920
 11
3.345320
 21
2.889920
 12
2.771120
 22
2.479400
 13
3.399880
 23
2.864400
  0
POLYLINE
  8
0
  6
CONTINUOUS
 66
     1
 40
0.000000
 41
0.000000
  0
VERTEX
  8
0
  6
CONTINUOUS
 10
2.717000
 20
2.504920
  0
VERTEX
  8
0
  6
CONTINUOUS
 10
3.345320
 20
2.889920
  0
VERTEX
  8
0
  6
CONTINUOUS
 10
3.399880
 20
2.864400
  0
VERTEX
  8
0
  6
CONTINUOUS
 10
2.771120
 20
2.479400
  0
VERTEX
  8
0
  6
CONTINUOUS
 10
2.717000
 20
2.504920
  0
SEQEND
  8
0
  0
SOLID
  8
0
 62
    15
 10
1.642520
 20
1.301080
 11
2.271280
 21
1.686520
 12
1.642520
 22
1.034440
 13
2.271280
 23
1.419880
  0
POLYLINE
  8
0
  6
CONTINUOUS
 66
     1
 40
0.000000
 41
0.000000
  0
VERTEX
  8
0
  6
CONTINUOUS
 10
1.642520
 20
1.301080
  0
VERTEX
  8
0
  6
CONTINUOUS
 10
2.271280
 20
1.686520
  0
VERTEX
  8
0
  6
CONTINUOUS
 10
2.271280
 20
1.419880
  0
VERTEX
  8
0
  6
CONTINUOUS
 10
1.642520
 20
1.034440
  0
VERTEX
  8
0
  6
CONTINUOUS
 10
1.642520
 20
1.301080
  0
SEQEND
  8
0
  0
SOLID
  8
0
 62
    15
 10
2.826560
 20
2.452120
 11
3.455320
 21
2.837560
 12
2.942280
 22
2.397120
 13
3.571040
 23
2.782120
  0
POLYLINE
  8
0
  6
CONTINUOUS
 66
     1
 40
0.000000
 41
0.000000
  0
VERTEX
  8
0
  6
CONTINUOUS
 10
2.826560
 20
2.452120
  0
VERTEX
  8
0
  6
CONTINUOUS
 10
3.455320
 20
2.837560
  0
VERTEX
  8
0
  6
CONTINUOUS
 10
3.571040
 20
2.782120
  0
VERTEX
  8
0
  6
CONTINUOUS
 10
2.942280
 20
2.397120
  0
VERTEX
  8
0
  6
CONTINUOUS
 10
2.826560
 20
2.452120
  0
SEQEND
  8
0
  0
SOLID
  8
0
 62
    15
 10
2.942280
 20
2.397120
 11
3.571040
 21
2.782120
 12
3.066360
 22
2.344760
 13
3.694680
 23
2.729760
  0
POLYLINE
  8
0
  6
CONTINUOUS
 66
     1
 40
0.000000
 41
0.000000
  0
VERTEX
  8
0
  6
CONTINUOUS
 10
2.942280
 20
2.397120
  0
VERTEX
  8
0
  6
CONTINUOUS
 10
3.571040
 20
2.782120
  0
VERTEX
  8
0
  6
CONTINUOUS
 10
3.694680
 20
2.729760
  0
VERTEX
  8
0
  6
CONTINUOUS
 10
3.066360
 20
2.344760
  0
VERTEX
  8
0
  6
CONTINUOUS
 10
2.942280
 20
2.397120
  0
SEQEND
  8
0
  0
SOLID
  8
0
 62
    15
 10
3.066360
 20
2.344760
 11
3.694680
 21
2.729760
 12
3.201000
 22
2.300760
 13
3.829320
 23
2.685760
  0
POLYLINE
  8
0
  6
CONTINUOUS
 66
     1
 40
0.000000
 41
0.000000
  0
VERTEX
  8
0
  6
CONTINUOUS
 10
3.066360
 20
2.344760
  0
VERTEX
  8
0
  6
CONTINUOUS
 10
3.694680
 20
2.729760
  0
VERTEX
  8
0
  6
CONTINUOUS
 10
3.829320
 20
2.685760
  0
VERTEX
  8
0
  6
CONTINUOUS
 10
3.201000
 20
2.300760
  0
VERTEX
  8
0
  6
CONTINUOUS
 10
3.066360
 20
2.344760
  0
SEQEND
  8
0
  0
SOLID
  8
0
 62
    15
 10
3.201000
 20
2.300760
 11
3.829320
 21
2.685760
 12
3.348840
 22
2.269960
 13
3.977160
 23
2.654960
  0
POLYLINE
  8
0
  6
CONTINUOUS
 66
     1
 40
0.000000
 41
0.000000
  0
VERTEX
  8
0
  6
CONTINUOUS
 10
3.201000
 20
2.300760
  0
VERTEX
  8
0
  6
CONTINUOUS
 10
3.829320
 20
2.685760
  0
VERTEX
  8
0
  6
CONTINUOUS
 10
3.977160
 20
2.654960
  0
VERTEX
  8
0
  6
CONTINUOUS
 10
3.348840
 20
2.269960
  0
VERTEX
  8
0
  6
CONTINUOUS
 10
3.201000
 20
2.300760
  0
SEQEND
  8
0
  0
SOLID
  8
0
 62
    15
 10
3.348840
 20
2.269960
 11
3.977160
 21
2.654960
 12
3.348840
 22
2.155560
 13
3.977160
 23
2.540560
  0
POLYLINE
  8
0
  6
CONTINUOUS
 66
     1
 40
0.000000
 41
0.000000
  0
VERTEX
  8
0
  6
CONTINUOUS
 10
3.348840
 20
2.269960
  0
VERTEX
  8
0
  6
CONTINUOUS
 10
3.977160
 20
2.654960
  0
VERTEX
  8
0
  6
CONTINUOUS
 10
3.977160
 20
2.540560
  0
VERTEX
  8
0
  6
CONTINUOUS
 10
3.348840
 20
2.155560
  0
VERTEX
  8
0
  6
CONTINUOUS
 10
3.348840
 20
2.269960
  0
SEQEND
  8
0
  0
SOLID
  8
0
 62
    15
 10
3.348840
 20
2.155560
 11
3.977160
 21
2.540560
 12
3.461040
 22
2.144120
 13
4.089800
 23
2.529120
  0
POLYLINE
  8
0
  6
CONTINUOUS
 66
     1
 40
0.000000
 41
0.000000
  0
VERTEX
  8
0
  6
CONTINUOUS
 10
3.348840
 20
2.155560
  0
VERTEX
  8
0
  6
CONTINUOUS
 10
3.977160
 20
2.540560
  0
VERTEX
  8
0
  6
CONTINUOUS
 10
4.089800
 20
2.529120
  0
VERTEX
  8
0
  6
CONTINUOUS
 10
3.461040
 20
2.144120
  0
VERTEX
  8
0
  6
CONTINUOUS
 10
3.348840
 20
2.155560
  0
SEQEND
  8
0
  0
SOLID
  8
0
 62
    15
 10
3.461040
 20
2.144120
 11
4.089800
 21
2.529120
 12
3.566200
 22
2.111120
 13
4.194520
 23
2.496120
  0
POLYLINE
  8
0
  6
CONTINUOUS
 66
     1
 40
0.000000
 41
0.000000
  0
VERTEX
  8
0
  6
CONTINUOUS
 10
3.461040
 20
2.144120
  0
VERTEX
  8
0
  6
CONTINUOUS
 10
4.089800
 20
2.529120
  0
VERTEX
  8
0
  6
CONTINUOUS
 10
4.194520
 20
2.496120
  0
VERTEX
  8
0
  6
CONTINUOUS
 10
3.566200
 20
2.111120
  0
VERTEX
  8
0
  6
CONTINUOUS
 10
3.461040
 20
2.144120
  0
SEQEND
  8
0
  0
SOLID
  8
0
 62
    15
 10
3.566200
 20
2.111120
 11
4.194520
 21
2.496120
 12
3.660800
 22
2.059640
 13
4.289560
 23
2.444640
  0
POLYLINE
  8
0
  6
CONTINUOUS
 66
     1
 40
0.000000
 41
0.000000
  0
VERTEX
  8
0
  6
CONTINUOUS
 10
3.566200
 20
2.111120
  0
VERTEX
  8
0
  6
CONTINUOUS
 10
4.194520
 20
2.496120
  0
VERTEX
  8
0
  6
CONTINUOUS
 10
4.289560
 20
2.444640
  0
VERTEX
  8
0
  6
CONTINUOUS
 10
3.660800
 20
2.059640
  0
VERTEX
  8
0
  6
CONTINUOUS
 10
3.566200
 20
2.111120
  0
SEQEND
  8
0
  0
SOLID
  8
0
 62
    15
 10
3.660800
 20
2.059640
 11
4.289560
 21
2.444640
 12
3.743520
 22
1.991000
 13
4.371840
 23
2.376000
  0
POLYLINE
  8
0
  6
CONTINUOUS
 66
     1
 40
0.000000
 41
0.000000
  0
VERTEX
  8
0
  6
CONTINUOUS
 10
3.660800
 20
2.059640
  0
VERTEX
  8
0
  6
CONTINUOUS
 10
4.289560
 20
2.444640
  0
VERTEX
  8
0
  6
CONTINUOUS
 10
4.371840
 20
2.376000
  0
VERTEX
  8
0
  6
CONTINUOUS
 10
3.743520
 20
1.991000
  0
VERTEX
  8
0
  6
CONTINUOUS
 10
3.660800
 20
2.059640
  0
SEQEND
  8
0
  0
SOLID
  8
0
 62
    15
 10
3.743520
 20
1.991000
 11
4.371840
 21
2.376000
 12
3.811720
 22
1.907840
 13
4.440040
 23
2.292840
  0
POLYLINE
  8
0
  6
CONTINUOUS
 66
     1
 40
0.000000
 41
0.000000
  0
VERTEX
  8
0
  6
CONTINUOUS
 10
3.743520
 20
1.991000
  0
VERTEX
  8
0
  6
CONTINUOUS
 10
4.371840
 20
2.376000
  0
VERTEX
  8
0
  6
CONTINUOUS
 10
4.440040
 20
2.292840
  0
VERTEX
  8
0
  6
CONTINUOUS
 10
3.811720
 20
1.907840
  0
VERTEX
  8
0
  6
CONTINUOUS
 10
3.743520
 20
1.991000
  0
SEQEND
  8
0
  0
SOLID
  8
0
 62
    15
 10
3.811720
 20
1.907840
 11
4.440040
 21
2.292840
 12
3.863200
 22
1.812800
 13
4.491520
 23
2.197800
  0
POLYLINE
  8
0
  6
CONTINUOUS
 66
     1
 40
0.000000
 41
0.000000
  0
VERTEX
  8
0
  6
CONTINUOUS
 10
3.811720
 20
1.907840
  0
VERTEX
  8
0
  6
CONTINUOUS
 10
4.440040
 20
2.292840
  0
VERTEX
  8
0
  6
CONTINUOUS
 10
4.491520
 20
2.197800
  0
VERTEX
  8
0
  6
CONTINUOUS
 10
3.863200
 20
1.812800
  0
VERTEX
  8
0
  6
CONTINUOUS
 10
3.811720
 20
1.907840
  0
SEQEND
  8
0
  0
SOLID
  8
0
 62
    15
 10
3.863200
 20
1.812800
 11
4.491520
 21
2.197800
 12
3.895760
 22
1.707640
 13
4.524080
 23
2.092640
  0
POLYLINE
  8
0
  6
CONTINUOUS
 66
     1
 40
0.000000
 41
0.000000
  0
VERTEX
  8
0
  6
CONTINUOUS
 10
3.863200
 20
1.812800
  0
VERTEX
  8
0
  6
CONTINUOUS
 10
4.491520
 20
2.197800
  0
VERTEX
  8
0
  6
CONTINUOUS
 10
4.524080
 20
2.092640
  0
VERTEX
  8
0
  6
CONTINUOUS
 10
3.895760
 20
1.707640
  0
VERTEX
  8
0
  6
CONTINUOUS
 10
3.863200
 20
1.812800
  0
SEQEND
  8
0
  0
SOLID
  8
0
 62
    15
 10
3.895760
 20
1.707640
 11
4.524080
 21
2.092640
 12
3.907200
 22
1.595000
 13
4.535520
 23
1.980000
  0
POLYLINE
  8
0
  6
CONTINUOUS
 66
     1
 40
0.000000
 41
0.000000
  0
VERTEX
  8
0
  6
CONTINUOUS
 10
3.895760
 20
1.707640
  0
VERTEX
  8
0
  6
CONTINUOUS
 10
4.524080
 20
2.092640
  0
VERTEX
  8
0
  6
CONTINUOUS
 10
4.535520
 20
1.980000
  0
VERTEX
  8
0
  6
CONTINUOUS
 10
3.907200
 20
1.595000
  0
VERTEX
  8
0
  6
CONTINUOUS
 10
3.895760
 20
1.707640
  0
SEQEND
  8
0
  0
SOLID
  8
0
 62
    15
 10
3.907200
 20
1.595000
 11
4.535520
 21
1.980000
 12
3.895760
 22
1.482360
 13
4.524080
 23
1.867360
  0
POLYLINE
  8
0
  6
CONTINUOUS
 66
     1
 40
0.000000
 41
0.000000
  0
VERTEX
  8
0
  6
CONTINUOUS
 10
3.907200
 20
1.595000
  0
VERTEX
  8
0
  6
CONTINUOUS
 10
4.535520
 20
1.980000
  0
VERTEX
  8
0
  6
CONTINUOUS
 10
4.524080
 20
1.867360
  0
VERTEX
  8
0
  6
CONTINUOUS
 10
3.895760
 20
1.482360
  0
VERTEX
  8
0
  6
CONTINUOUS
 10
3.907200
 20
1.595000
  0
SEQEND
  8
0
  0
SOLID
  8
0
 62
    15
 10
3.895760
 20
1.482360
 11
4.524080
 21
1.867360
 12
3.862760
 22
1.377640
 13
4.491520
 23
1.762640
  0
POLYLINE
  8
0
  6
CONTINUOUS
 66
     1
 40
0.000000
 41
0.000000
  0
VERTEX
  8
0
  6
CONTINUOUS
 10
3.895760
 20
1.482360
  0
VERTEX
  8
0
  6
CONTINUOUS
 10
4.524080
 20
1.867360
  0
VERTEX
  8
0
  6
CONTINUOUS
 10
4.491520
 20
1.762640
  0
VERTEX
  8
0
  6
CONTINUOUS
 10
3.862760
 20
1.377640
  0
VERTEX
  8
0
  6
CONTINUOUS
 10
3.895760
 20
1.482360
  0
SEQEND
  8
0
  0
SOLID
  8
0
 62
    15
 10
3.862760
 20
1.377640
 11
4.491520
 21
1.762640
 12
3.811280
 22
1.282160
 13
4.439600
 23
1.667160
  0
POLYLINE
  8
0
  6
CONTINUOUS
 66
     1
 40
0.000000
 41
0.000000
  0
VERTEX
  8
0
  6
CONTINUOUS
 10
3.862760
 20
1.377640
  0
VERTEX
  8
0
  6
CONTINUOUS
 10
4.491520
 20
1.762640
  0
VERTEX
  8
0
  6
CONTINUOUS
 10
4.439600
 20
1.667160
  0
VERTEX
  8
0
  6
CONTINUOUS
 10
3.811280
 20
1.282160
  0
VERTEX
  8
0
  6
CONTINUOUS
 10
3.862760
 20
1.377640
  0
SEQEND
  8
0
  0
SOLID
  8
0
 62
    15
 10
3.742640
 20
1.199000
 11
4.370960
 21
1.584440
 12
3.659480
 22
1.130800
 13
4.287800
 23
1.515800
  0
POLYLINE
  8
0
  6
CONTINUOUS
 66
     1
 40
0.000000
 41
0.000000
  0
VERTEX
  8
0
  6
CONTINUOUS
 10
3.742640
 20
1.199000
  0
VERTEX
  8
0
  6
CONTINUOUS
 10
4.370960
 20
1.584440
  0
VERTEX
  8
0
  6
CONTINUOUS
 10
4.287800
 20
1.515800
  0
VERTEX
  8
0
  6
CONTINUOUS
 10
3.659480
 20
1.130800
  0
VERTEX
  8
0
  6
CONTINUOUS
 10
3.742640
 20
1.199000
  0
SEQEND
  8
0
  0
SOLID
  8
0
 62
    15
 10
3.811280
 20
1.282160
 11
4.439600
 21
1.667160
 12
3.742640
 22
1.199000
 13
4.370960
 23
1.584440
  0
POLYLINE
  8
0
  6
CONTINUOUS
 66
     1
 40
0.000000
 41
0.000000
  0
VERTEX
  8
0
  6
CONTINUOUS
 10
3.811280
 20
1.282160
  0
VERTEX
  8
0
  6
CONTINUOUS
 10
4.439600
 20
1.667160
  0
VERTEX
  8
0
  6
CONTINUOUS
 10
4.370960
 20
1.584440
  0
VERTEX
  8
0
  6
CONTINUOUS
 10
3.742640
 20
1.199000
  0
VERTEX
  8
0
  6
CONTINUOUS
 10
3.811280
 20
1.282160
  0
SEQEND
  8
0
  0
POLYLINE
  8
0
  6
CONTINUOUS
 66
     1
 40
0.000000
 41
0.000000
  0
VERTEX
  8
0
  6
CONTINUOUS
 10
3.332120
 20
1.034440
  0
VERTEX
  8
0
  6
CONTINUOUS
 10
3.138520
 20
1.034440
  0
VERTEX
  8
0
  6
CONTINUOUS
 10
3.138520
 20
1.299320
  0
VERTEX
  8
0
  6
CONTINUOUS
 10
2.388320
 20
1.299320
  0
VERTEX
  8
0
  6
CONTINUOUS
 10
2.388320
 20
1.301080
  0
VERTEX
  8
0
  6
CONTINUOUS
 10
1.642520
 20
1.301080
  0
VERTEX
  8
0
  6
CONTINUOUS
 10
1.642520
 20
1.034440
  0
VERTEX
  8
0
  6
CONTINUOUS
 10
1.438360
 20
1.034440
  0
VERTEX
  8
0
  6
CONTINUOUS
 10
1.430000
 20
1.038840
  0
VERTEX
  8
0
  6
CONTINUOUS
 10
1.317360
 20
1.049840
  0
VERTEX
  8
0
  6
CONTINUOUS
 10
1.212200
 20
1.081960
  0
VERTEX
  8
0
  6
CONTINUOUS
 10
1.117160
 20
1.133000
  0
VERTEX
  8
0
  6
CONTINUOUS
 10
1.034000
 20
1.200320
  0
VERTEX
  8
0
  6
CONTINUOUS
 10
0.965800
 20
1.282160
  0
VERTEX
  8
0
  6
CONTINUOUS
 10
0.913880
 20
1.376320
  0
VERTEX
  8
0
  6
CONTINUOUS
 10
0.880880
 20
1.480600
  0
VERTEX
  8
0
  6
CONTINUOUS
 10
0.869440
 20
1.592800
  0
VERTEX
  8
0
  6
CONTINUOUS
 10
0.880880
 20
1.705440
  0
VERTEX
  8
0
  6
CONTINUOUS
 10
0.913000
 20
1.811040
  0
VERTEX
  8
0
  6
CONTINUOUS
 10
0.964480
 20
1.906520
  0
VERTEX
  8
0
  6
CONTINUOUS
 10
1.032240
 20
1.989680
  0
VERTEX
  8
0
  6
CONTINUOUS
 10
1.114520
 20
2.058760
  0
VERTEX
  8
0
  6
CONTINUOUS
 10
1.208680
 20
2.111120
  0
VERTEX
  8
0
  6
CONTINUOUS
 10
1.313400
 20
2.144120
  0
VERTEX
  8
0
  6
CONTINUOUS
 10
1.427800
 20
2.155560
  0
VERTEX
  8
0
  6
CONTINUOUS
 10
1.427800
 20
2.267760
  0
VERTEX
  8
0
  6
CONTINUOUS
 10
1.576520
 20
2.298560
  0
VERTEX
  8
0
  6
CONTINUOUS
 10
1.712040
 20
2.343000
  0
VERTEX
  8
0
  6
CONTINUOUS
 10
1.837880
 20
2.395800
  0
VERTEX
  8
0
  6
CONTINUOUS
 10
2.067120
 20
2.504040
  0
VERTEX
  8
0
  6
CONTINUOUS
 10
2.175360
 20
2.548480
  0
VERTEX
  8
0
  6
CONTINUOUS
 10
2.282280
 20
2.579280
  0
VERTEX
  8
0
  6
CONTINUOUS
 10
2.396680
 20
2.590720
  0
VERTEX
  8
0
  6
CONTINUOUS
 10
2.504480
 20
2.579280
  0
VERTEX
  8
0
  6
CONTINUOUS
 10
2.610080
 20
2.548920
  0
VERTEX
  8
0
  6
CONTINUOUS
 10
2.717000
 20
2.504920
  0
VERTEX
  8
0
  6
CONTINUOUS
 10
2.942280
 20
2.397120
  0
VERTEX
  8
0
  6
CONTINUOUS
 10
3.066360
 20
2.344760
  0
VERTEX
  8
0
  6
CONTINUOUS
 10
3.201000
 20
2.300760
  0
VERTEX
  8
0
  6
CONTINUOUS
 10
3.348840
 20
2.269960
  0
VERTEX
  8
0
  6
CONTINUOUS
 10
3.348840
 20
2.155560
  0
VERTEX
  8
0
  6
CONTINUOUS
 10
3.461040
 20
2.144120
  0
VERTEX
  8
0
  6
CONTINUOUS
 10
3.566200
 20
2.111120
  0
VERTEX
  8
0
  6
CONTINUOUS
 10
3.660800
 20
2.059640
  0
VERTEX
  8
0
  6
CONTINUOUS
 10
3.743520
 20
1.991000
  0
VERTEX
  8
0
  6
CONTINUOUS
 10
3.811720
 20
1.907840
  0
VERTEX
  8
0
  6
CONTINUOUS
 10
3.863200
 20
1.812800
  0
VERTEX
  8
0
  6
CONTINUOUS
 10
3.895760
 20
1.707640
  0
VERTEX
  8
0
  6
CONTINUOUS
 10
3.907200
 20
1.595000
  0
VERTEX
  8
0
  6
CONTINUOUS
 10
3.895760
 20
1.482360
  0
VERTEX
  8
0
  6
CONTINUOUS
 10
3.862760
 20
1.377640
  0
VERTEX
  8
0
  6
CONTINUOUS
 10
3.811280
 20
1.282160
  0
VERTEX
  8
0
  6
CONTINUOUS
 10
3.742640
 20
1.199000
  0
VERTEX
  8
0
  6
CONTINUOUS
 10
3.659480
 20
1.130800
  0
VERTEX
  8
0
  6
CONTINUOUS
 10
3.564440
 20
1.078880
  0
VERTEX
  8
0
  6
CONTINUOUS
 10
3.459280
 20
1.045880
  0
VERTEX
  8
0
  6
CONTINUOUS
 10
3.346640
 20
1.034440
  0
VERTEX
  8
0
  6
CONTINUOUS
 10
3.332120
 20
1.034440
  0
SEQEND
  8
0
  0
TEXT
  8
0
 10
2.406800
 20
0.792440
 40
0.138072
  1
BA  719
 41
1.000000
  7
SN0
 71
     0
 72
     5
 11
2.996753
 21
0.792440
  0
TEXT
  8
0
 10
2.084720
 20
0.601040
 40
0.138072
  1
1-9/16" x 3-1/16"
 41
1.000000
  7
SN0
 71
     0
 72
     5
 11
3.317217
 21
0.601040
  0
ENDSEC
  0
EOF
