  0
SECTION
  2
HEADER
  9
$ACADVER
  1
AC1006
  9
$EXTMIN
 10
1.697960
 20
0.516120
  9
$EXTMAX
 10
7.456680
 20
7.087520
  9
$LTSCALE
 40
0.044000
  9
$PDMODE
 70
    35
  9
$PDSIZE
 40
0.035200
  0
ENDSEC
  0
SECTION
  2
TABLES
  0
TABLE
  2
LTYPE
 70
     9
  0
LTYPE
  2
CONTINUOUS
 70
    64
  3
Solid line
 72
    65
 73
     0
 40
0.000000
  0
LTYPE
  2
DASHED
 70
    64
  3
__ __ __ __ __ __ __ __ __ __ __ __ __ __ __
 72
    65
 73
     2
 40
0.000330
 49
0.000220
 49
-0.000110
  0
LTYPE
  2
HIDDEN
 70
    64
  3
 _ _ _ _ _ _ _ _ _ _ _ _ _ _ _ _ _ _ _ _ _ _
 72
    65
 73
     2
 40
0.000165
 49
0.000110
 49
-0.000055
  0
LTYPE
  2
CENTER
 70
    64
  3
____ _ ____ _ ____ _ ____ _ ____ _ ____ _ ____
 72
    65
 73
     4
 40
0.000880
 49
0.000550
 49
-0.000110
 49
0.000110
 49
-0.000110
  0
LTYPE
  2
PHANTOM
 70
    64
  3
_____ _ _ _____ _ _ _____ _ _ _____ _ _ ____
 72
    65
 73
     6
 40
0.001100
 49
0.000550
 49
-0.000110
 49
0.000110
 49
-0.000110
 49
0.000110
 49
-0.000110
  0
LTYPE
  2
DOT
 70
    64
  3
...............................................
 72
    65
 73
     2
 40
0.000110
 49
0.000000
 49
-0.000110
  0
LTYPE
  2
DASHDOT
 70
    64
  3
__ . __ . __ . __ . __ . __ . __ . __ . __ . __
 72
    65
 73
     4
 40
0.000440
 49
0.000220
 49
-0.000110
 49
0.000000
 49
-0.000110
  0
LTYPE
  2
BORDER
 70
    64
  3
__ __ . __ __ . __ __ . __ __ . __ __ . __ __
 72
    65
 73
     6
 40
0.000770
 49
0.000220
 49
-0.000110
 49
0.000220
 49
-0.000110
 49
0.000000
 49
-0.000110
  0
LTYPE
  2
DIVIDE
 70
    64
  3
__ . . __ . . __ . . __ . . __ . . __ . . __
 72
    65
 73
     6
 40
0.000550
 49
0.000220
 49
-0.000110
 49
0.000000
 49
-0.000110
 49
0.000000
 49
-0.000110
  0
LTYPE
  2
DOTDOT
 70
    64
  3
 . .  . .  . .  . .  . .  . . 
 72
    65
 73
     5
 40
0.000242
 49
-0.000110
 49
0.000000
 49
-0.000110
 49
0.000000
 49
-0.000110
  0
ENDTAB
  0
TABLE
  2
STYLE
 70
     2
  0
STYLE
 70
     0
  2
SN0
 40
0.000000
 41
0.000440
 50
0.000000
 71
     0
 42
0.000000
  3
ROMAND
  0
STYLE
 70
    68
  2
SV0
 40
0.000000
 41
0.000440
 50
0.000000
 71
     0
 42
0.000000
  3
ROMAND
  0
ENDTAB
  0
TABLE
  2
LAYER
 70
     3
  0
LAYER
  2
FOREGROUND
 70
    64
 62
     7
  6
CONTINUOUS
  0
LAYER
  2
BACKGROUND
 70
    65
 62
    -7
  6
CONTINUOUS
  0
LAYER
  2
0
 70
    64
 62
     7
  6
CONTINUOUS
  0
ENDTAB
  0
ENDSEC
  0
SECTION
  2
ENTITIES
  0
POLYLINE
  8
FOREGROUND
  6
CONTINUOUS
 66
     1
 40
0.000000
 41
0.000000
  0
VERTEX
  8
FOREGROUND
  6
CONTINUOUS
 10
0.000000
 20
7.603640
  0
VERTEX
  8
FOREGROUND
  6
CONTINUOUS
 10
8.499920
 20
7.603640
  0
VERTEX
  8
FOREGROUND
  6
CONTINUOUS
 10
8.499920
 20
-3.396360
  0
VERTEX
  8
FOREGROUND
  6
CONTINUOUS
 10
0.000000
 20
-3.396360
  0
VERTEX
  8
FOREGROUND
  6
CONTINUOUS
 10
0.000000
 20
7.603640
  0
SEQEND
  8
0
  0
POLYLINE
  8
FOREGROUND
  6
CONTINUOUS
 66
     1
 40
0.000000
 41
0.000000
  0
VERTEX
  8
FOREGROUND
  6
CONTINUOUS
 10
0.000000
 20
7.603640
  0
VERTEX
  8
FOREGROUND
  6
CONTINUOUS
 10
8.499920
 20
7.603640
  0
VERTEX
  8
FOREGROUND
  6
CONTINUOUS
 10
8.499920
 20
-3.396360
  0
VERTEX
  8
FOREGROUND
  6
CONTINUOUS
 10
0.000000
 20
-3.396360
  0
VERTEX
  8
FOREGROUND
  6
CONTINUOUS
 10
0.000000
 20
7.603640
  0
SEQEND
  8
0
  0
POLYLINE
  8
0
  6
CONTINUOUS
 66
     1
 40
0.014080
 41
0.014080
  0
VERTEX
  8
0
  6
CONTINUOUS
 10
2.852080
 20
7.073880
  0
VERTEX
  8
0
  6
CONTINUOUS
 10
2.875400
 20
6.988520
  0
VERTEX
  8
0
  6
CONTINUOUS
 10
2.889920
 20
6.946720
  0
VERTEX
  8
0
  6
CONTINUOUS
 10
2.922920
 20
6.867080
  0
VERTEX
  8
0
  6
CONTINUOUS
 10
2.962080
 20
6.790960
  0
VERTEX
  8
0
  6
CONTINUOUS
 10
3.006520
 20
6.719680
  0
VERTEX
  8
0
  6
CONTINUOUS
 10
3.056680
 20
6.651920
  0
VERTEX
  8
0
  6
CONTINUOUS
 10
3.111680
 20
6.589440
  0
VERTEX
  8
0
  6
CONTINUOUS
 10
3.141160
 20
6.559520
  0
VERTEX
  8
0
  6
CONTINUOUS
 10
3.203200
 20
6.504080
  0
VERTEX
  8
0
  6
CONTINUOUS
 10
3.270080
 20
6.453040
  0
VERTEX
  8
0
  6
CONTINUOUS
 10
3.340480
 20
6.407720
  0
VERTEX
  8
0
  6
CONTINUOUS
 10
3.414840
 20
6.367240
  0
VERTEX
  8
0
  6
CONTINUOUS
 10
3.492280
 20
6.332480
  0
VERTEX
  8
0
  6
CONTINUOUS
 10
3.573240
 20
6.303440
  0
VERTEX
  8
0
  6
CONTINUOUS
 10
3.615040
 20
6.291120
  0
VERTEX
  8
0
  6
CONTINUOUS
 10
3.699960
 20
6.270880
  0
VERTEX
  8
0
  6
CONTINUOUS
 10
3.743080
 20
6.262960
  0
VERTEX
  8
0
  6
CONTINUOUS
 10
3.831520
 20
6.251960
  0
VERTEX
  8
0
  6
CONTINUOUS
 10
3.876840
 20
6.248880
  0
VERTEX
  8
0
  6
CONTINUOUS
 10
3.967920
 20
6.247560
  0
VERTEX
  8
0
  6
CONTINUOUS
 10
4.014120
 20
6.249320
  0
VERTEX
  8
0
  6
CONTINUOUS
 10
4.060760
 20
6.252840
  0
VERTEX
  8
0
  6
CONTINUOUS
 10
4.107400
 20
6.258120
  0
VERTEX
  8
0
  6
CONTINUOUS
 10
4.202000
 20
6.273520
  0
VERTEX
  8
0
  6
CONTINUOUS
 10
4.297040
 20
6.296400
  0
VERTEX
  8
0
  6
CONTINUOUS
 10
4.392520
 20
6.326320
  0
VERTEX
  8
0
  6
CONTINUOUS
 10
4.440480
 20
6.343920
  0
VERTEX
  8
0
  6
CONTINUOUS
 10
4.535960
 20
6.385280
  0
VERTEX
  8
0
  6
CONTINUOUS
 10
4.631440
 20
6.434120
  0
VERTEX
  8
0
  6
CONTINUOUS
 10
4.726040
 20
6.490880
  0
VERTEX
  8
0
  6
CONTINUOUS
 10
4.773120
 20
6.522120
  0
VERTEX
  8
0
  6
CONTINUOUS
 10
4.866400
 20
6.590760
  0
VERTEX
  8
0
  6
CONTINUOUS
 10
4.957920
 20
6.668200
  0
VERTEX
  8
0
  6
CONTINUOUS
 10
5.048120
 20
6.753560
  0
VERTEX
  8
0
  6
CONTINUOUS
 10
5.136560
 20
6.848160
  0
VERTEX
  8
0
  6
CONTINUOUS
 10
5.179680
 20
6.898320
  0
VERTEX
  8
0
  6
CONTINUOUS
 10
5.264600
 20
7.006120
  0
VERTEX
  8
0
  6
CONTINUOUS
 10
5.305960
 20
7.063320
  0
VERTEX
  8
0
  6
CONTINUOUS
 10
5.302000
 20
7.067280
  0
VERTEX
  8
0
  6
CONTINUOUS
 10
6.164400
 20
7.064200
  0
VERTEX
  8
0
  6
CONTINUOUS
 10
7.451400
 20
5.734960
  0
VERTEX
  8
0
  6
CONTINUOUS
 10
7.447440
 20
5.737160
  0
VERTEX
  8
0
  6
CONTINUOUS
 10
6.966520
 20
5.263720
  0
VERTEX
  8
0
  6
CONTINUOUS
 10
2.893880
 20
5.277800
  0
VERTEX
  8
0
  6
CONTINUOUS
 10
2.895200
 20
5.740240
  0
VERTEX
  8
0
  6
CONTINUOUS
 10
1.722160
 20
5.744640
  0
VERTEX
  8
0
  6
CONTINUOUS
 10
1.705880
 20
5.746400
  0
VERTEX
  8
0
  6
CONTINUOUS
 10
1.724800
 20
7.077840
  0
VERTEX
  8
0
  6
CONTINUOUS
 10
1.727000
 20
7.080040
  0
VERTEX
  8
0
  6
CONTINUOUS
 10
2.835360
 20
7.076080
  0
VERTEX
  8
0
  6
CONTINUOUS
 10
2.852080
 20
7.073880
  0
SEQEND
  8
0
  0
SOLID
  8
0
 62
    15
 10
4.286040
 20
2.711280
 11
4.940320
 21
2.350040
 12
4.213000
 22
2.516360
 13
4.867280
 23
2.155120
  0
POLYLINE
  8
0
  6
CONTINUOUS
 66
     1
 40
0.000000
 41
0.000000
  0
VERTEX
  8
0
  6
CONTINUOUS
 10
4.286040
 20
2.711280
  0
VERTEX
  8
0
  6
CONTINUOUS
 10
4.940320
 20
2.350040
  0
VERTEX
  8
0
  6
CONTINUOUS
 10
4.867280
 20
2.155120
  0
VERTEX
  8
0
  6
CONTINUOUS
 10
4.213000
 20
2.516360
  0
VERTEX
  8
0
  6
CONTINUOUS
 10
4.286040
 20
2.711280
  0
SEQEND
  8
0
  0
SOLID
  8
0
 62
    15
 10
5.734080
 20
3.383160
 11
6.388360
 21
3.021920
 12
5.570400
 22
3.431560
 13
6.224680
 23
3.070760
  0
POLYLINE
  8
0
  6
CONTINUOUS
 66
     1
 40
0.000000
 41
0.000000
  0
VERTEX
  8
0
  6
CONTINUOUS
 10
5.734080
 20
3.383160
  0
VERTEX
  8
0
  6
CONTINUOUS
 10
6.388360
 20
3.021920
  0
VERTEX
  8
0
  6
CONTINUOUS
 10
6.224680
 20
3.070760
  0
VERTEX
  8
0
  6
CONTINUOUS
 10
5.570400
 20
3.431560
  0
VERTEX
  8
0
  6
CONTINUOUS
 10
5.734080
 20
3.383160
  0
SEQEND
  8
0
  0
SOLID
  8
0
 62
    15
 10
5.570400
 20
3.431560
 11
6.224680
 21
3.070760
 12
5.404080
 22
3.452680
 13
6.058360
 23
3.091440
  0
POLYLINE
  8
0
  6
CONTINUOUS
 66
     1
 40
0.000000
 41
0.000000
  0
VERTEX
  8
0
  6
CONTINUOUS
 10
5.570400
 20
3.431560
  0
VERTEX
  8
0
  6
CONTINUOUS
 10
6.224680
 20
3.070760
  0
VERTEX
  8
0
  6
CONTINUOUS
 10
6.058360
 20
3.091440
  0
VERTEX
  8
0
  6
CONTINUOUS
 10
5.404080
 20
3.452680
  0
VERTEX
  8
0
  6
CONTINUOUS
 10
5.570400
 20
3.431560
  0
SEQEND
  8
0
  0
SOLID
  8
0
 62
    15
 10
5.404080
 20
3.452680
 11
6.058360
 21
3.091440
 12
5.237320
 22
3.446520
 13
5.891600
 23
3.085720
  0
POLYLINE
  8
0
  6
CONTINUOUS
 66
     1
 40
0.000000
 41
0.000000
  0
VERTEX
  8
0
  6
CONTINUOUS
 10
5.404080
 20
3.452680
  0
VERTEX
  8
0
  6
CONTINUOUS
 10
6.058360
 20
3.091440
  0
VERTEX
  8
0
  6
CONTINUOUS
 10
5.891600
 20
3.085720
  0
VERTEX
  8
0
  6
CONTINUOUS
 10
5.237320
 20
3.446520
  0
VERTEX
  8
0
  6
CONTINUOUS
 10
5.404080
 20
3.452680
  0
SEQEND
  8
0
  0
SOLID
  8
0
 62
    15
 10
5.237320
 20
3.446520
 11
5.891600
 21
3.085720
 12
5.072760
 22
3.414400
 13
5.727040
 23
3.053160
  0
POLYLINE
  8
0
  6
CONTINUOUS
 66
     1
 40
0.000000
 41
0.000000
  0
VERTEX
  8
0
  6
CONTINUOUS
 10
5.237320
 20
3.446520
  0
VERTEX
  8
0
  6
CONTINUOUS
 10
5.891600
 20
3.085720
  0
VERTEX
  8
0
  6
CONTINUOUS
 10
5.727040
 20
3.053160
  0
VERTEX
  8
0
  6
CONTINUOUS
 10
5.072760
 20
3.414400
  0
VERTEX
  8
0
  6
CONTINUOUS
 10
5.237320
 20
3.446520
  0
SEQEND
  8
0
  0
SOLID
  8
0
 62
    15
 10
5.072760
 20
3.414400
 11
5.727040
 21
3.053160
 12
4.913480
 22
3.356320
 13
5.567760
 23
2.995520
  0
POLYLINE
  8
0
  6
CONTINUOUS
 66
     1
 40
0.000000
 41
0.000000
  0
VERTEX
  8
0
  6
CONTINUOUS
 10
5.072760
 20
3.414400
  0
VERTEX
  8
0
  6
CONTINUOUS
 10
5.727040
 20
3.053160
  0
VERTEX
  8
0
  6
CONTINUOUS
 10
5.567760
 20
2.995520
  0
VERTEX
  8
0
  6
CONTINUOUS
 10
4.913480
 20
3.356320
  0
VERTEX
  8
0
  6
CONTINUOUS
 10
5.072760
 20
3.414400
  0
SEQEND
  8
0
  0
SOLID
  8
0
 62
    15
 10
4.913480
 20
3.356320
 11
5.567760
 21
2.995520
 12
4.762120
 22
3.274040
 13
5.416400
 23
2.912800
  0
POLYLINE
  8
0
  6
CONTINUOUS
 66
     1
 40
0.000000
 41
0.000000
  0
VERTEX
  8
0
  6
CONTINUOUS
 10
4.913480
 20
3.356320
  0
VERTEX
  8
0
  6
CONTINUOUS
 10
5.567760
 20
2.995520
  0
VERTEX
  8
0
  6
CONTINUOUS
 10
5.416400
 20
2.912800
  0
VERTEX
  8
0
  6
CONTINUOUS
 10
4.762120
 20
3.274040
  0
VERTEX
  8
0
  6
CONTINUOUS
 10
4.913480
 20
3.356320
  0
SEQEND
  8
0
  0
SOLID
  8
0
 62
    15
 10
4.762120
 20
3.274040
 11
5.416400
 21
2.912800
 12
4.620880
 22
3.167120
 13
5.275160
 23
2.806320
  0
POLYLINE
  8
0
  6
CONTINUOUS
 66
     1
 40
0.000000
 41
0.000000
  0
VERTEX
  8
0
  6
CONTINUOUS
 10
4.762120
 20
3.274040
  0
VERTEX
  8
0
  6
CONTINUOUS
 10
5.416400
 20
2.912800
  0
VERTEX
  8
0
  6
CONTINUOUS
 10
5.275160
 20
2.806320
  0
VERTEX
  8
0
  6
CONTINUOUS
 10
4.620880
 20
3.167120
  0
VERTEX
  8
0
  6
CONTINUOUS
 10
4.762120
 20
3.274040
  0
SEQEND
  8
0
  0
SOLID
  8
0
 62
    15
 10
4.620880
 20
3.167120
 11
5.275160
 21
2.806320
 12
4.492400
 22
3.037320
 13
5.146680
 23
2.676520
  0
POLYLINE
  8
0
  6
CONTINUOUS
 66
     1
 40
0.000000
 41
0.000000
  0
VERTEX
  8
0
  6
CONTINUOUS
 10
4.620880
 20
3.167120
  0
VERTEX
  8
0
  6
CONTINUOUS
 10
5.275160
 20
2.806320
  0
VERTEX
  8
0
  6
CONTINUOUS
 10
5.146680
 20
2.676520
  0
VERTEX
  8
0
  6
CONTINUOUS
 10
4.492400
 20
3.037320
  0
VERTEX
  8
0
  6
CONTINUOUS
 10
4.620880
 20
3.167120
  0
SEQEND
  8
0
  0
SOLID
  8
0
 62
    15
 10
4.492400
 20
3.037320
 11
5.146680
 21
2.676520
 12
4.380200
 22
2.885080
 13
5.034480
 23
2.524280
  0
POLYLINE
  8
0
  6
CONTINUOUS
 66
     1
 40
0.000000
 41
0.000000
  0
VERTEX
  8
0
  6
CONTINUOUS
 10
4.492400
 20
3.037320
  0
VERTEX
  8
0
  6
CONTINUOUS
 10
5.146680
 20
2.676520
  0
VERTEX
  8
0
  6
CONTINUOUS
 10
5.034480
 20
2.524280
  0
VERTEX
  8
0
  6
CONTINUOUS
 10
4.380200
 20
2.885080
  0
VERTEX
  8
0
  6
CONTINUOUS
 10
4.492400
 20
3.037320
  0
SEQEND
  8
0
  0
SOLID
  8
0
 62
    15
 10
4.380200
 20
2.885080
 11
5.034480
 21
2.524280
 12
4.286040
 22
2.711280
 13
4.940320
 23
2.350040
  0
POLYLINE
  8
0
  6
CONTINUOUS
 66
     1
 40
0.000000
 41
0.000000
  0
VERTEX
  8
0
  6
CONTINUOUS
 10
4.380200
 20
2.885080
  0
VERTEX
  8
0
  6
CONTINUOUS
 10
5.034480
 20
2.524280
  0
VERTEX
  8
0
  6
CONTINUOUS
 10
4.940320
 20
2.350040
  0
VERTEX
  8
0
  6
CONTINUOUS
 10
4.286040
 20
2.711280
  0
VERTEX
  8
0
  6
CONTINUOUS
 10
4.380200
 20
2.885080
  0
SEQEND
  8
0
  0
SOLID
  8
0
 62
    15
 10
5.892040
 20
3.305720
 11
6.546320
 21
2.944480
 12
5.734080
 22
3.383160
 13
6.388360
 23
3.021920
  0
POLYLINE
  8
0
  6
CONTINUOUS
 66
     1
 40
0.000000
 41
0.000000
  0
VERTEX
  8
0
  6
CONTINUOUS
 10
5.892040
 20
3.305720
  0
VERTEX
  8
0
  6
CONTINUOUS
 10
6.546320
 20
2.944480
  0
VERTEX
  8
0
  6
CONTINUOUS
 10
6.388360
 20
3.021920
  0
VERTEX
  8
0
  6
CONTINUOUS
 10
5.734080
 20
3.383160
  0
VERTEX
  8
0
  6
CONTINUOUS
 10
5.892040
 20
3.305720
  0
SEQEND
  8
0
  0
SOLID
  8
0
 62
    15
 10
4.213000
 20
2.516360
 11
4.867280
 21
2.155120
 12
4.163720
 22
2.301200
 13
4.818000
 23
1.939960
  0
POLYLINE
  8
0
  6
CONTINUOUS
 66
     1
 40
0.000000
 41
0.000000
  0
VERTEX
  8
0
  6
CONTINUOUS
 10
4.213000
 20
2.516360
  0
VERTEX
  8
0
  6
CONTINUOUS
 10
4.867280
 20
2.155120
  0
VERTEX
  8
0
  6
CONTINUOUS
 10
4.818000
 20
1.939960
  0
VERTEX
  8
0
  6
CONTINUOUS
 10
4.163720
 20
2.301200
  0
VERTEX
  8
0
  6
CONTINUOUS
 10
4.213000
 20
2.516360
  0
SEQEND
  8
0
  0
SOLID
  8
0
 62
    15
 10
4.163720
 20
2.301200
 11
4.818000
 21
1.939960
 12
4.141280
 22
2.066240
 13
4.795560
 23
1.705440
  0
POLYLINE
  8
0
  6
CONTINUOUS
 66
     1
 40
0.000000
 41
0.000000
  0
VERTEX
  8
0
  6
CONTINUOUS
 10
4.163720
 20
2.301200
  0
VERTEX
  8
0
  6
CONTINUOUS
 10
4.818000
 20
1.939960
  0
VERTEX
  8
0
  6
CONTINUOUS
 10
4.795560
 20
1.705440
  0
VERTEX
  8
0
  6
CONTINUOUS
 10
4.141280
 20
2.066240
  0
VERTEX
  8
0
  6
CONTINUOUS
 10
4.163720
 20
2.301200
  0
SEQEND
  8
0
  0
SOLID
  8
0
 62
    15
 10
4.141280
 20
2.066240
 11
4.795560
 21
1.705440
 12
4.147440
 22
1.812800
 13
4.801720
 23
1.452000
  0
POLYLINE
  8
0
  6
CONTINUOUS
 66
     1
 40
0.000000
 41
0.000000
  0
VERTEX
  8
0
  6
CONTINUOUS
 10
4.141280
 20
2.066240
  0
VERTEX
  8
0
  6
CONTINUOUS
 10
4.795560
 20
1.705440
  0
VERTEX
  8
0
  6
CONTINUOUS
 10
4.801720
 20
1.452000
  0
VERTEX
  8
0
  6
CONTINUOUS
 10
4.147440
 20
1.812800
  0
VERTEX
  8
0
  6
CONTINUOUS
 10
4.141280
 20
2.066240
  0
SEQEND
  8
0
  0
SOLID
  8
0
 62
    15
 10
4.147440
 20
1.812800
 11
4.801720
 21
1.452000
 12
4.185720
 22
1.541760
 13
4.840000
 23
1.180520
  0
POLYLINE
  8
0
  6
CONTINUOUS
 66
     1
 40
0.000000
 41
0.000000
  0
VERTEX
  8
0
  6
CONTINUOUS
 10
4.147440
 20
1.812800
  0
VERTEX
  8
0
  6
CONTINUOUS
 10
4.801720
 20
1.452000
  0
VERTEX
  8
0
  6
CONTINUOUS
 10
4.840000
 20
1.180520
  0
VERTEX
  8
0
  6
CONTINUOUS
 10
4.185720
 20
1.541760
  0
VERTEX
  8
0
  6
CONTINUOUS
 10
4.147440
 20
1.812800
  0
SEQEND
  8
0
  0
SOLID
  8
0
 62
    15
 10
4.191440
 20
1.541760
 11
4.845720
 21
1.180960
 12
3.592160
 22
0.921360
 13
4.246440
 23
0.560120
  0
POLYLINE
  8
0
  6
CONTINUOUS
 66
     1
 40
0.000000
 41
0.000000
  0
VERTEX
  8
0
  6
CONTINUOUS
 10
4.191440
 20
1.541760
  0
VERTEX
  8
0
  6
CONTINUOUS
 10
4.845720
 20
1.180960
  0
VERTEX
  8
0
  6
CONTINUOUS
 10
4.246440
 20
0.560120
  0
VERTEX
  8
0
  6
CONTINUOUS
 10
3.592160
 20
0.921360
  0
VERTEX
  8
0
  6
CONTINUOUS
 10
4.191440
 20
1.541760
  0
SEQEND
  8
0
  0
SOLID
  8
0
 62
    15
 10
3.592160
 20
0.921360
 11
4.246440
 21
0.560120
 12
1.741960
 22
0.912560
 13
2.396240
 23
0.551760
  0
POLYLINE
  8
0
  6
CONTINUOUS
 66
     1
 40
0.000000
 41
0.000000
  0
VERTEX
  8
0
  6
CONTINUOUS
 10
3.592160
 20
0.921360
  0
VERTEX
  8
0
  6
CONTINUOUS
 10
4.246440
 20
0.560120
  0
VERTEX
  8
0
  6
CONTINUOUS
 10
2.396240
 20
0.551760
  0
VERTEX
  8
0
  6
CONTINUOUS
 10
1.741960
 20
0.912560
  0
VERTEX
  8
0
  6
CONTINUOUS
 10
3.592160
 20
0.921360
  0
SEQEND
  8
0
  0
SOLID
  8
0
 62
    15
 10
4.566760
 20
4.518800
 11
5.221040
 21
4.157560
 12
4.899400
 22
4.197160
 13
5.553680
 23
3.836360
  0
POLYLINE
  8
0
  6
CONTINUOUS
 66
     1
 40
0.000000
 41
0.000000
  0
VERTEX
  8
0
  6
CONTINUOUS
 10
4.566760
 20
4.518800
  0
VERTEX
  8
0
  6
CONTINUOUS
 10
5.221040
 20
4.157560
  0
VERTEX
  8
0
  6
CONTINUOUS
 10
5.553680
 20
3.836360
  0
VERTEX
  8
0
  6
CONTINUOUS
 10
4.899400
 20
4.197160
  0
VERTEX
  8
0
  6
CONTINUOUS
 10
4.566760
 20
4.518800
  0
SEQEND
  8
0
  0
SOLID
  8
0
 62
    15
 10
5.727480
 20
5.051640
 11
6.381760
 21
4.690400
 12
6.674800
 22
4.116200
 13
7.329080
 23
3.755400
  0
POLYLINE
  8
0
  6
CONTINUOUS
 66
     1
 40
0.000000
 41
0.000000
  0
VERTEX
  8
0
  6
CONTINUOUS
 10
5.727480
 20
5.051640
  0
VERTEX
  8
0
  6
CONTINUOUS
 10
6.381760
 20
4.690400
  0
VERTEX
  8
0
  6
CONTINUOUS
 10
7.329080
 20
3.755400
  0
VERTEX
  8
0
  6
CONTINUOUS
 10
6.674800
 20
4.116200
  0
VERTEX
  8
0
  6
CONTINUOUS
 10
5.727480
 20
5.051640
  0
SEQEND
  8
0
  0
SOLID
  8
0
 62
    15
 10
6.674800
 20
4.116200
 11
7.329080
 21
3.755400
 12
6.674800
 22
4.113560
 13
7.329080
 23
3.752320
  0
POLYLINE
  8
0
  6
CONTINUOUS
 66
     1
 40
0.000000
 41
0.000000
  0
VERTEX
  8
0
  6
CONTINUOUS
 10
6.674800
 20
4.116200
  0
VERTEX
  8
0
  6
CONTINUOUS
 10
7.329080
 20
3.755400
  0
VERTEX
  8
0
  6
CONTINUOUS
 10
7.329080
 20
3.752320
  0
VERTEX
  8
0
  6
CONTINUOUS
 10
6.674800
 20
4.113560
  0
VERTEX
  8
0
  6
CONTINUOUS
 10
6.674800
 20
4.116200
  0
SEQEND
  8
0
  0
SOLID
  8
0
 62
    15
 10
6.674800
 20
4.113560
 11
7.329080
 21
3.752320
 12
5.904800
 22
3.316280
 13
6.559080
 23
2.955040
  0
POLYLINE
  8
0
  6
CONTINUOUS
 66
     1
 40
0.000000
 41
0.000000
  0
VERTEX
  8
0
  6
CONTINUOUS
 10
6.674800
 20
4.113560
  0
VERTEX
  8
0
  6
CONTINUOUS
 10
7.329080
 20
3.752320
  0
VERTEX
  8
0
  6
CONTINUOUS
 10
6.559080
 20
2.955040
  0
VERTEX
  8
0
  6
CONTINUOUS
 10
5.904800
 20
3.316280
  0
VERTEX
  8
0
  6
CONTINUOUS
 10
6.674800
 20
4.113560
  0
SEQEND
  8
0
  0
SOLID
  8
0
 62
    15
 10
5.904800
 20
3.316280
 11
6.559080
 21
2.955040
 12
5.892040
 22
3.305720
 13
6.546320
 23
2.944480
  0
POLYLINE
  8
0
  6
CONTINUOUS
 66
     1
 40
0.000000
 41
0.000000
  0
VERTEX
  8
0
  6
CONTINUOUS
 10
5.904800
 20
3.316280
  0
VERTEX
  8
0
  6
CONTINUOUS
 10
6.559080
 20
2.955040
  0
VERTEX
  8
0
  6
CONTINUOUS
 10
6.546320
 20
2.944480
  0
VERTEX
  8
0
  6
CONTINUOUS
 10
5.892040
 20
3.305720
  0
VERTEX
  8
0
  6
CONTINUOUS
 10
5.904800
 20
3.316280
  0
SEQEND
  8
0
  0
POLYLINE
  8
0
  6
CONTINUOUS
 66
     1
 40
0.000000
 41
0.000000
  0
VERTEX
  8
0
  6
CONTINUOUS
 10
5.892040
 20
3.305720
  0
VERTEX
  8
0
  6
CONTINUOUS
 10
5.734080
 20
3.383160
  0
VERTEX
  8
0
  6
CONTINUOUS
 10
5.570400
 20
3.431560
  0
VERTEX
  8
0
  6
CONTINUOUS
 10
5.404080
 20
3.452680
  0
VERTEX
  8
0
  6
CONTINUOUS
 10
5.237320
 20
3.446520
  0
VERTEX
  8
0
  6
CONTINUOUS
 10
5.072760
 20
3.414400
  0
VERTEX
  8
0
  6
CONTINUOUS
 10
4.913480
 20
3.356320
  0
VERTEX
  8
0
  6
CONTINUOUS
 10
4.762120
 20
3.274040
  0
VERTEX
  8
0
  6
CONTINUOUS
 10
4.620880
 20
3.167120
  0
VERTEX
  8
0
  6
CONTINUOUS
 10
4.492400
 20
3.037320
  0
VERTEX
  8
0
  6
CONTINUOUS
 10
4.380200
 20
2.885080
  0
VERTEX
  8
0
  6
CONTINUOUS
 10
4.286040
 20
2.711280
  0
VERTEX
  8
0
  6
CONTINUOUS
 10
4.213000
 20
2.516360
  0
VERTEX
  8
0
  6
CONTINUOUS
 10
4.163720
 20
2.301200
  0
VERTEX
  8
0
  6
CONTINUOUS
 10
4.141280
 20
2.066240
  0
VERTEX
  8
0
  6
CONTINUOUS
 10
4.147440
 20
1.812800
  0
VERTEX
  8
0
  6
CONTINUOUS
 10
4.185720
 20
1.541760
  0
VERTEX
  8
0
  6
CONTINUOUS
 10
4.191440
 20
1.541760
  0
VERTEX
  8
0
  6
CONTINUOUS
 10
3.592160
 20
0.921360
  0
VERTEX
  8
0
  6
CONTINUOUS
 10
1.741960
 20
0.912560
  0
VERTEX
  8
0
  6
CONTINUOUS
 10
1.746360
 20
0.914320
  0
VERTEX
  8
0
  6
CONTINUOUS
 10
1.737560
 20
1.588840
  0
VERTEX
  8
0
  6
CONTINUOUS
 10
4.566760
 20
4.518800
  0
VERTEX
  8
0
  6
CONTINUOUS
 10
4.899400
 20
4.197160
  0
VERTEX
  8
0
  6
CONTINUOUS
 10
5.714280
 20
5.041080
  0
VERTEX
  8
0
  6
CONTINUOUS
 10
5.727480
 20
5.051640
  0
VERTEX
  8
0
  6
CONTINUOUS
 10
6.674800
 20
4.116200
  0
VERTEX
  8
0
  6
CONTINUOUS
 10
6.674800
 20
4.113560
  0
VERTEX
  8
0
  6
CONTINUOUS
 10
5.904800
 20
3.316280
  0
VERTEX
  8
0
  6
CONTINUOUS
 10
5.892040
 20
3.305720
  0
SEQEND
  8
0
  0
TEXT
  8
0
 10
5.101360
 20
0.750640
 40
0.138251
  1
BA  718
 41
1.000000
  7
SN0
 71
     0
 72
     5
 11
5.692129
 21
0.750640
  0
TEXT
  8
0
 10
4.779280
 20
0.559240
 40
0.138251
  1
2-13/16" x 5-3/4"
 41
1.000000
  7
SN0
 71
     0
 72
     5
 11
6.013389
 21
0.559240
  0
ENDSEC
  0
EOF
