  0
SECTION
  2
HEADER
  9
$ACADVER
  1
AC1006
  9
$EXTMIN
 10
1.724360
 20
2.914560
  9
$EXTMAX
 10
6.775120
 20
8.085000
  9
$LTSCALE
 40
0.044000
  9
$PDMODE
 70
    35
  9
$PDSIZE
 40
0.035200
  0
ENDSEC
  0
SECTION
  2
TABLES
  0
TABLE
  2
LTYPE
 70
     9
  0
LTYPE
  2
CONTINUOUS
 70
    64
  3
Solid line
 72
    65
 73
     0
 40
0.000000
  0
LTYPE
  2
DASHED
 70
    64
  3
__ __ __ __ __ __ __ __ __ __ __ __ __ __ __
 72
    65
 73
     2
 40
0.000330
 49
0.000220
 49
-0.000110
  0
LTYPE
  2
HIDDEN
 70
    64
  3
 _ _ _ _ _ _ _ _ _ _ _ _ _ _ _ _ _ _ _ _ _ _
 72
    65
 73
     2
 40
0.000165
 49
0.000110
 49
-0.000055
  0
LTYPE
  2
CENTER
 70
    64
  3
____ _ ____ _ ____ _ ____ _ ____ _ ____ _ ____
 72
    65
 73
     4
 40
0.000880
 49
0.000550
 49
-0.000110
 49
0.000110
 49
-0.000110
  0
LTYPE
  2
PHANTOM
 70
    64
  3
_____ _ _ _____ _ _ _____ _ _ _____ _ _ ____
 72
    65
 73
     6
 40
0.001100
 49
0.000550
 49
-0.000110
 49
0.000110
 49
-0.000110
 49
0.000110
 49
-0.000110
  0
LTYPE
  2
DOT
 70
    64
  3
...............................................
 72
    65
 73
     2
 40
0.000110
 49
0.000000
 49
-0.000110
  0
LTYPE
  2
DASHDOT
 70
    64
  3
__ . __ . __ . __ . __ . __ . __ . __ . __ . __
 72
    65
 73
     4
 40
0.000440
 49
0.000220
 49
-0.000110
 49
0.000000
 49
-0.000110
  0
LTYPE
  2
BORDER
 70
    64
  3
__ __ . __ __ . __ __ . __ __ . __ __ . __ __
 72
    65
 73
     6
 40
0.000770
 49
0.000220
 49
-0.000110
 49
0.000220
 49
-0.000110
 49
0.000000
 49
-0.000110
  0
LTYPE
  2
DIVIDE
 70
    64
  3
__ . . __ . . __ . . __ . . __ . . __ . . __
 72
    65
 73
     6
 40
0.000550
 49
0.000220
 49
-0.000110
 49
0.000000
 49
-0.000110
 49
0.000000
 49
-0.000110
  0
LTYPE
  2
DOTDOT
 70
    64
  3
 . .  . .  . .  . .  . .  . . 
 72
    65
 73
     5
 40
0.000242
 49
-0.000110
 49
0.000000
 49
-0.000110
 49
0.000000
 49
-0.000110
  0
ENDTAB
  0
TABLE
  2
STYLE
 70
     2
  0
STYLE
 70
     0
  2
SN0
 40
0.000000
 41
0.000440
 50
0.000000
 71
     0
 42
0.000000
  3
ROMAND
  0
STYLE
 70
    68
  2
SV0
 40
0.000000
 41
0.000440
 50
0.000000
 71
     0
 42
0.000000
  3
ROMAND
  0
ENDTAB
  0
TABLE
  2
LAYER
 70
     3
  0
LAYER
  2
FOREGROUND
 70
    64
 62
     7
  6
CONTINUOUS
  0
LAYER
  2
BACKGROUND
 70
    65
 62
    -7
  6
CONTINUOUS
  0
LAYER
  2
0
 70
    64
 62
     7
  6
CONTINUOUS
  0
ENDTAB
  0
ENDSEC
  0
SECTION
  2
ENTITIES
  0
POLYLINE
  8
FOREGROUND
  6
CONTINUOUS
 66
     1
 40
0.000000
 41
0.000000
  0
VERTEX
  8
FOREGROUND
  6
CONTINUOUS
 10
0.000000
 20
10.999560
  0
VERTEX
  8
FOREGROUND
  6
CONTINUOUS
 10
8.499920
 20
10.999560
  0
VERTEX
  8
FOREGROUND
  6
CONTINUOUS
 10
8.499920
 20
-0.000440
  0
VERTEX
  8
FOREGROUND
  6
CONTINUOUS
 10
0.000000
 20
-0.000440
  0
VERTEX
  8
FOREGROUND
  6
CONTINUOUS
 10
0.000000
 20
10.999560
  0
SEQEND
  8
0
  0
POLYLINE
  8
FOREGROUND
  6
CONTINUOUS
 66
     1
 40
0.000000
 41
0.000000
  0
VERTEX
  8
FOREGROUND
  6
CONTINUOUS
 10
0.000000
 20
10.999560
  0
VERTEX
  8
FOREGROUND
  6
CONTINUOUS
 10
8.499920
 20
10.999560
  0
VERTEX
  8
FOREGROUND
  6
CONTINUOUS
 10
8.499920
 20
-0.000440
  0
VERTEX
  8
FOREGROUND
  6
CONTINUOUS
 10
0.000000
 20
-0.000440
  0
VERTEX
  8
FOREGROUND
  6
CONTINUOUS
 10
0.000000
 20
10.999560
  0
SEQEND
  8
0
  0
SOLID
  8
0
 62
    15
 10
2.766280
 20
5.052080
 11
3.419240
 21
4.668840
 12
2.729320
 22
4.832960
 13
3.382720
 23
4.449720
  0
POLYLINE
  8
0
  6
CONTINUOUS
 66
     1
 40
0.000000
 41
0.000000
  0
VERTEX
  8
0
  6
CONTINUOUS
 10
2.766280
 20
5.052080
  0
VERTEX
  8
0
  6
CONTINUOUS
 10
3.419240
 20
4.668840
  0
VERTEX
  8
0
  6
CONTINUOUS
 10
3.382720
 20
4.449720
  0
VERTEX
  8
0
  6
CONTINUOUS
 10
2.729320
 20
4.832960
  0
VERTEX
  8
0
  6
CONTINUOUS
 10
2.766280
 20
5.052080
  0
SEQEND
  8
0
  0
SOLID
  8
0
 62
    15
 10
3.562240
 20
6.029320
 11
4.215640
 21
5.646520
 12
3.427160
 22
5.995440
 13
4.080560
 23
5.612200
  0
POLYLINE
  8
0
  6
CONTINUOUS
 66
     1
 40
0.000000
 41
0.000000
  0
VERTEX
  8
0
  6
CONTINUOUS
 10
3.562240
 20
6.029320
  0
VERTEX
  8
0
  6
CONTINUOUS
 10
4.215640
 20
5.646520
  0
VERTEX
  8
0
  6
CONTINUOUS
 10
4.080560
 20
5.612200
  0
VERTEX
  8
0
  6
CONTINUOUS
 10
3.427160
 20
5.995440
  0
VERTEX
  8
0
  6
CONTINUOUS
 10
3.562240
 20
6.029320
  0
SEQEND
  8
0
  0
SOLID
  8
0
 62
    15
 10
3.427160
 20
5.995440
 11
4.080560
 21
5.612200
 12
3.304840
 22
5.945280
 13
3.957800
 23
5.562480
  0
POLYLINE
  8
0
  6
CONTINUOUS
 66
     1
 40
0.000000
 41
0.000000
  0
VERTEX
  8
0
  6
CONTINUOUS
 10
3.427160
 20
5.995440
  0
VERTEX
  8
0
  6
CONTINUOUS
 10
4.080560
 20
5.612200
  0
VERTEX
  8
0
  6
CONTINUOUS
 10
3.957800
 20
5.562480
  0
VERTEX
  8
0
  6
CONTINUOUS
 10
3.304840
 20
5.945280
  0
VERTEX
  8
0
  6
CONTINUOUS
 10
3.427160
 20
5.995440
  0
SEQEND
  8
0
  0
SOLID
  8
0
 62
    15
 10
3.304840
 20
5.945280
 11
3.957800
 21
5.562480
 12
3.194400
 22
5.878400
 13
3.847800
 23
5.495160
  0
POLYLINE
  8
0
  6
CONTINUOUS
 66
     1
 40
0.000000
 41
0.000000
  0
VERTEX
  8
0
  6
CONTINUOUS
 10
3.304840
 20
5.945280
  0
VERTEX
  8
0
  6
CONTINUOUS
 10
3.957800
 20
5.562480
  0
VERTEX
  8
0
  6
CONTINUOUS
 10
3.847800
 20
5.495160
  0
VERTEX
  8
0
  6
CONTINUOUS
 10
3.194400
 20
5.878400
  0
VERTEX
  8
0
  6
CONTINUOUS
 10
3.304840
 20
5.945280
  0
SEQEND
  8
0
  0
SOLID
  8
0
 62
    15
 10
3.194400
 20
5.878400
 11
3.847800
 21
5.495160
 12
3.096280
 22
5.793040
 13
3.749240
 23
5.409800
  0
POLYLINE
  8
0
  6
CONTINUOUS
 66
     1
 40
0.000000
 41
0.000000
  0
VERTEX
  8
0
  6
CONTINUOUS
 10
3.194400
 20
5.878400
  0
VERTEX
  8
0
  6
CONTINUOUS
 10
3.847800
 20
5.495160
  0
VERTEX
  8
0
  6
CONTINUOUS
 10
3.749240
 20
5.409800
  0
VERTEX
  8
0
  6
CONTINUOUS
 10
3.096280
 20
5.793040
  0
VERTEX
  8
0
  6
CONTINUOUS
 10
3.194400
 20
5.878400
  0
SEQEND
  8
0
  0
SOLID
  8
0
 62
    15
 10
3.096280
 20
5.793040
 11
3.749240
 21
5.409800
 12
3.009160
 22
5.688320
 13
3.662560
 23
5.305080
  0
POLYLINE
  8
0
  6
CONTINUOUS
 66
     1
 40
0.000000
 41
0.000000
  0
VERTEX
  8
0
  6
CONTINUOUS
 10
3.096280
 20
5.793040
  0
VERTEX
  8
0
  6
CONTINUOUS
 10
3.749240
 20
5.409800
  0
VERTEX
  8
0
  6
CONTINUOUS
 10
3.662560
 20
5.305080
  0
VERTEX
  8
0
  6
CONTINUOUS
 10
3.009160
 20
5.688320
  0
VERTEX
  8
0
  6
CONTINUOUS
 10
3.096280
 20
5.793040
  0
SEQEND
  8
0
  0
SOLID
  8
0
 62
    15
 10
3.009160
 20
5.688320
 11
3.662560
 21
5.305080
 12
2.933040
 22
5.562920
 13
3.586440
 23
5.180120
  0
POLYLINE
  8
0
  6
CONTINUOUS
 66
     1
 40
0.000000
 41
0.000000
  0
VERTEX
  8
0
  6
CONTINUOUS
 10
3.009160
 20
5.688320
  0
VERTEX
  8
0
  6
CONTINUOUS
 10
3.662560
 20
5.305080
  0
VERTEX
  8
0
  6
CONTINUOUS
 10
3.586440
 20
5.180120
  0
VERTEX
  8
0
  6
CONTINUOUS
 10
2.933040
 20
5.562920
  0
VERTEX
  8
0
  6
CONTINUOUS
 10
3.009160
 20
5.688320
  0
SEQEND
  8
0
  0
SOLID
  8
0
 62
    15
 10
2.933040
 20
5.562920
 11
3.586440
 21
5.180120
 12
2.867480
 22
5.415960
 13
3.520880
 23
5.032720
  0
POLYLINE
  8
0
  6
CONTINUOUS
 66
     1
 40
0.000000
 41
0.000000
  0
VERTEX
  8
0
  6
CONTINUOUS
 10
2.933040
 20
5.562920
  0
VERTEX
  8
0
  6
CONTINUOUS
 10
3.586440
 20
5.180120
  0
VERTEX
  8
0
  6
CONTINUOUS
 10
3.520880
 20
5.032720
  0
VERTEX
  8
0
  6
CONTINUOUS
 10
2.867480
 20
5.415960
  0
VERTEX
  8
0
  6
CONTINUOUS
 10
2.933040
 20
5.562920
  0
SEQEND
  8
0
  0
SOLID
  8
0
 62
    15
 10
2.867480
 20
5.415960
 11
3.520880
 21
5.032720
 12
2.812040
 22
5.246120
 13
3.465000
 23
4.862880
  0
POLYLINE
  8
0
  6
CONTINUOUS
 66
     1
 40
0.000000
 41
0.000000
  0
VERTEX
  8
0
  6
CONTINUOUS
 10
2.867480
 20
5.415960
  0
VERTEX
  8
0
  6
CONTINUOUS
 10
3.520880
 20
5.032720
  0
VERTEX
  8
0
  6
CONTINUOUS
 10
3.465000
 20
4.862880
  0
VERTEX
  8
0
  6
CONTINUOUS
 10
2.812040
 20
5.246120
  0
VERTEX
  8
0
  6
CONTINUOUS
 10
2.867480
 20
5.415960
  0
SEQEND
  8
0
  0
SOLID
  8
0
 62
    15
 10
2.812040
 20
5.246120
 11
3.465000
 21
4.862880
 12
2.766280
 22
5.052080
 13
3.419240
 23
4.668840
  0
POLYLINE
  8
0
  6
CONTINUOUS
 66
     1
 40
0.000000
 41
0.000000
  0
VERTEX
  8
0
  6
CONTINUOUS
 10
2.812040
 20
5.246120
  0
VERTEX
  8
0
  6
CONTINUOUS
 10
3.465000
 20
4.862880
  0
VERTEX
  8
0
  6
CONTINUOUS
 10
3.419240
 20
4.668840
  0
VERTEX
  8
0
  6
CONTINUOUS
 10
2.766280
 20
5.052080
  0
VERTEX
  8
0
  6
CONTINUOUS
 10
2.812040
 20
5.246120
  0
SEQEND
  8
0
  0
SOLID
  8
0
 62
    15
 10
3.710520
 20
6.048680
 11
4.363920
 21
5.665880
 12
3.562240
 22
6.029320
 13
4.215640
 23
5.646520
  0
POLYLINE
  8
0
  6
CONTINUOUS
 66
     1
 40
0.000000
 41
0.000000
  0
VERTEX
  8
0
  6
CONTINUOUS
 10
3.710520
 20
6.048680
  0
VERTEX
  8
0
  6
CONTINUOUS
 10
4.363920
 20
5.665880
  0
VERTEX
  8
0
  6
CONTINUOUS
 10
4.215640
 20
5.646520
  0
VERTEX
  8
0
  6
CONTINUOUS
 10
3.562240
 20
6.029320
  0
VERTEX
  8
0
  6
CONTINUOUS
 10
3.710520
 20
6.048680
  0
SEQEND
  8
0
  0
SOLID
  8
0
 62
    15
 10
2.729320
 20
4.832960
 11
3.382720
 21
4.449720
 12
2.701600
 22
4.587000
 13
3.355000
 23
4.204200
  0
POLYLINE
  8
0
  6
CONTINUOUS
 66
     1
 40
0.000000
 41
0.000000
  0
VERTEX
  8
0
  6
CONTINUOUS
 10
2.729320
 20
4.832960
  0
VERTEX
  8
0
  6
CONTINUOUS
 10
3.382720
 20
4.449720
  0
VERTEX
  8
0
  6
CONTINUOUS
 10
3.355000
 20
4.204200
  0
VERTEX
  8
0
  6
CONTINUOUS
 10
2.701600
 20
4.587000
  0
VERTEX
  8
0
  6
CONTINUOUS
 10
2.729320
 20
4.832960
  0
SEQEND
  8
0
  0
SOLID
  8
0
 62
    15
 10
2.701600
 20
4.587000
 11
3.355000
 21
4.204200
 12
2.682240
 22
4.314200
 13
3.335200
 23
3.930960
  0
POLYLINE
  8
0
  6
CONTINUOUS
 66
     1
 40
0.000000
 41
0.000000
  0
VERTEX
  8
0
  6
CONTINUOUS
 10
2.701600
 20
4.587000
  0
VERTEX
  8
0
  6
CONTINUOUS
 10
3.355000
 20
4.204200
  0
VERTEX
  8
0
  6
CONTINUOUS
 10
3.335200
 20
3.930960
  0
VERTEX
  8
0
  6
CONTINUOUS
 10
2.682240
 20
4.314200
  0
VERTEX
  8
0
  6
CONTINUOUS
 10
2.701600
 20
4.587000
  0
SEQEND
  8
0
  0
SOLID
  8
0
 62
    15
 10
2.682240
 20
4.314200
 11
3.335200
 21
3.930960
 12
2.670360
 22
4.011920
 13
3.323760
 23
3.629120
  0
POLYLINE
  8
0
  6
CONTINUOUS
 66
     1
 40
0.000000
 41
0.000000
  0
VERTEX
  8
0
  6
CONTINUOUS
 10
2.682240
 20
4.314200
  0
VERTEX
  8
0
  6
CONTINUOUS
 10
3.335200
 20
3.930960
  0
VERTEX
  8
0
  6
CONTINUOUS
 10
3.323760
 20
3.629120
  0
VERTEX
  8
0
  6
CONTINUOUS
 10
2.670360
 20
4.011920
  0
VERTEX
  8
0
  6
CONTINUOUS
 10
2.682240
 20
4.314200
  0
SEQEND
  8
0
  0
SOLID
  8
0
 62
    15
 10
2.670360
 20
4.011920
 11
3.323760
 21
3.629120
 12
2.666400
 22
3.680600
 13
3.319360
 23
3.297360
  0
POLYLINE
  8
0
  6
CONTINUOUS
 66
     1
 40
0.000000
 41
0.000000
  0
VERTEX
  8
0
  6
CONTINUOUS
 10
2.670360
 20
4.011920
  0
VERTEX
  8
0
  6
CONTINUOUS
 10
3.323760
 20
3.629120
  0
VERTEX
  8
0
  6
CONTINUOUS
 10
3.319360
 20
3.297360
  0
VERTEX
  8
0
  6
CONTINUOUS
 10
2.666400
 20
3.680600
  0
VERTEX
  8
0
  6
CONTINUOUS
 10
2.670360
 20
4.011920
  0
SEQEND
  8
0
  0
SOLID
  8
0
 62
    15
 10
2.666400
 20
3.680600
 11
3.319360
 21
3.297360
 12
2.669040
 22
3.317600
 13
3.322440
 23
2.934800
  0
POLYLINE
  8
0
  6
CONTINUOUS
 66
     1
 40
0.000000
 41
0.000000
  0
VERTEX
  8
0
  6
CONTINUOUS
 10
2.666400
 20
3.680600
  0
VERTEX
  8
0
  6
CONTINUOUS
 10
3.319360
 20
3.297360
  0
VERTEX
  8
0
  6
CONTINUOUS
 10
3.322440
 20
2.934800
  0
VERTEX
  8
0
  6
CONTINUOUS
 10
2.669040
 20
3.317600
  0
VERTEX
  8
0
  6
CONTINUOUS
 10
2.666400
 20
3.680600
  0
SEQEND
  8
0
  0
SOLID
  8
0
 62
    15
 10
2.669040
 20
3.317600
 11
3.322440
 21
2.934800
 12
2.669040
 22
3.317600
 13
3.322000
 23
2.934360
  0
POLYLINE
  8
0
  6
CONTINUOUS
 66
     1
 40
0.000000
 41
0.000000
  0
VERTEX
  8
0
  6
CONTINUOUS
 10
2.669040
 20
3.317600
  0
VERTEX
  8
0
  6
CONTINUOUS
 10
3.322440
 20
2.934800
  0
VERTEX
  8
0
  6
CONTINUOUS
 10
3.322000
 20
2.934360
  0
VERTEX
  8
0
  6
CONTINUOUS
 10
2.669040
 20
3.317600
  0
SEQEND
  8
0
  0
SOLID
  8
0
 62
    15
 10
2.669040
 20
3.317600
 11
3.322000
 21
2.934360
 12
1.725240
 22
3.317600
 13
2.378640
 23
2.934360
  0
POLYLINE
  8
0
  6
CONTINUOUS
 66
     1
 40
0.000000
 41
0.000000
  0
VERTEX
  8
0
  6
CONTINUOUS
 10
2.669040
 20
3.317600
  0
VERTEX
  8
0
  6
CONTINUOUS
 10
3.322000
 20
2.934360
  0
VERTEX
  8
0
  6
CONTINUOUS
 10
2.378640
 20
2.934360
  0
VERTEX
  8
0
  6
CONTINUOUS
 10
1.725240
 20
3.317600
  0
VERTEX
  8
0
  6
CONTINUOUS
 10
2.669040
 20
3.317600
  0
SEQEND
  8
0
  0
SOLID
  8
0
 62
    15
 10
3.727240
 20
8.084120
 11
4.380640
 21
7.701320
 12
3.727240
 22
6.048680
 13
4.380640
 23
5.665880
  0
POLYLINE
  8
0
  6
CONTINUOUS
 66
     1
 40
0.000000
 41
0.000000
  0
VERTEX
  8
0
  6
CONTINUOUS
 10
3.727240
 20
8.084120
  0
VERTEX
  8
0
  6
CONTINUOUS
 10
4.380640
 20
7.701320
  0
VERTEX
  8
0
  6
CONTINUOUS
 10
4.380640
 20
5.665880
  0
VERTEX
  8
0
  6
CONTINUOUS
 10
3.727240
 20
6.048680
  0
VERTEX
  8
0
  6
CONTINUOUS
 10
3.727240
 20
8.084120
  0
SEQEND
  8
0
  0
SOLID
  8
0
 62
    15
 10
3.727240
 20
6.048680
 11
4.380640
 21
5.665880
 12
3.710520
 22
6.048680
 13
4.363920
 23
5.665880
  0
POLYLINE
  8
0
  6
CONTINUOUS
 66
     1
 40
0.000000
 41
0.000000
  0
VERTEX
  8
0
  6
CONTINUOUS
 10
3.727240
 20
6.048680
  0
VERTEX
  8
0
  6
CONTINUOUS
 10
4.380640
 20
5.665880
  0
VERTEX
  8
0
  6
CONTINUOUS
 10
4.363920
 20
5.665880
  0
VERTEX
  8
0
  6
CONTINUOUS
 10
3.710520
 20
6.048680
  0
VERTEX
  8
0
  6
CONTINUOUS
 10
3.727240
 20
6.048680
  0
SEQEND
  8
0
  0
POLYLINE
  8
0
  6
CONTINUOUS
 66
     1
 40
0.000000
 41
0.000000
  0
VERTEX
  8
0
  6
CONTINUOUS
 10
3.710520
 20
6.048680
  0
VERTEX
  8
0
  6
CONTINUOUS
 10
3.562240
 20
6.029320
  0
VERTEX
  8
0
  6
CONTINUOUS
 10
3.427160
 20
5.995440
  0
VERTEX
  8
0
  6
CONTINUOUS
 10
3.304840
 20
5.945280
  0
VERTEX
  8
0
  6
CONTINUOUS
 10
3.194400
 20
5.878400
  0
VERTEX
  8
0
  6
CONTINUOUS
 10
3.096280
 20
5.793040
  0
VERTEX
  8
0
  6
CONTINUOUS
 10
3.009160
 20
5.688320
  0
VERTEX
  8
0
  6
CONTINUOUS
 10
2.933040
 20
5.562920
  0
VERTEX
  8
0
  6
CONTINUOUS
 10
2.867480
 20
5.415960
  0
VERTEX
  8
0
  6
CONTINUOUS
 10
2.812040
 20
5.246120
  0
VERTEX
  8
0
  6
CONTINUOUS
 10
2.766280
 20
5.052080
  0
VERTEX
  8
0
  6
CONTINUOUS
 10
2.729320
 20
4.832960
  0
VERTEX
  8
0
  6
CONTINUOUS
 10
2.701600
 20
4.587000
  0
VERTEX
  8
0
  6
CONTINUOUS
 10
2.682240
 20
4.314200
  0
VERTEX
  8
0
  6
CONTINUOUS
 10
2.670360
 20
4.011920
  0
VERTEX
  8
0
  6
CONTINUOUS
 10
2.666400
 20
3.680600
  0
VERTEX
  8
0
  6
CONTINUOUS
 10
2.669040
 20
3.317600
  0
VERTEX
  8
0
  6
CONTINUOUS
 10
1.725240
 20
3.317600
  0
VERTEX
  8
0
  6
CONTINUOUS
 10
1.725240
 20
8.084120
  0
VERTEX
  8
0
  6
CONTINUOUS
 10
3.727240
 20
8.084120
  0
VERTEX
  8
0
  6
CONTINUOUS
 10
3.727240
 20
6.048680
  0
VERTEX
  8
0
  6
CONTINUOUS
 10
3.710520
 20
6.048680
  0
SEQEND
  8
0
  0
TEXT
  8
0
 10
3.645840
 20
3.149080
 40
0.138163
  1
BA  717
 41
1.000000
  7
SN0
 71
     0
 72
     5
 11
4.236821
 21
3.149080
  0
TEXT
  8
0
 10
3.559160
 20
2.957680
 40
0.138163
  1
2" x 4-3/4"
 41
1.000000
  7
SN0
 71
     0
 72
     5
 11
4.322575
 21
2.957680
  0
POLYLINE
  8
0
  6
CONTINUOUS
 66
     1
 40
0.000000
 41
0.000000
  0
VERTEX
  8
0
  6
CONTINUOUS
 10
6.758400
 20
5.918440
  0
VERTEX
  8
0
  6
CONTINUOUS
 10
6.682720
 20
5.910520
  0
VERTEX
  8
0
  6
CONTINUOUS
 10
6.610120
 20
5.899080
  0
VERTEX
  8
0
  6
CONTINUOUS
 10
6.541040
 20
5.884120
  0
VERTEX
  8
0
  6
CONTINUOUS
 10
6.475040
 20
5.864760
  0
VERTEX
  8
0
  6
CONTINUOUS
 10
6.442920
 20
5.854200
  0
VERTEX
  8
0
  6
CONTINUOUS
 10
6.381760
 20
5.829120
  0
VERTEX
  8
0
  6
CONTINUOUS
 10
6.323680
 20
5.799640
  0
VERTEX
  8
0
  6
CONTINUOUS
 10
6.268680
 20
5.766200
  0
VERTEX
  8
0
  6
CONTINUOUS
 10
6.216320
 20
5.728360
  0
VERTEX
  8
0
  6
CONTINUOUS
 10
6.167480
 20
5.685680
  0
VERTEX
  8
0
  6
CONTINUOUS
 10
6.120840
 20
5.638160
  0
VERTEX
  8
0
  6
CONTINUOUS
 10
6.077280
 20
5.585800
  0
VERTEX
  8
0
  6
CONTINUOUS
 10
6.036800
 20
5.528160
  0
VERTEX
  8
0
  6
CONTINUOUS
 10
5.998520
 20
5.465680
  0
VERTEX
  8
0
  6
CONTINUOUS
 10
5.963320
 20
5.397920
  0
VERTEX
  8
0
  6
CONTINUOUS
 10
5.930320
 20
5.324000
  0
VERTEX
  8
0
  6
CONTINUOUS
 10
5.900400
 20
5.245240
  0
VERTEX
  8
0
  6
CONTINUOUS
 10
5.872680
 20
5.159880
  0
VERTEX
  8
0
  6
CONTINUOUS
 10
5.847160
 20
5.069240
  0
VERTEX
  8
0
  6
CONTINUOUS
 10
5.824280
 20
4.972440
  0
VERTEX
  8
0
  6
CONTINUOUS
 10
5.803600
 20
4.869040
  0
VERTEX
  8
0
  6
CONTINUOUS
 10
5.777200
 20
4.702280
  0
VERTEX
  8
0
  6
CONTINUOUS
 10
5.762240
 20
4.582600
  0
VERTEX
  8
0
  6
CONTINUOUS
 10
5.743760
 20
4.391200
  0
VERTEX
  8
0
  6
CONTINUOUS
 10
5.729680
 20
4.183520
  0
VERTEX
  8
0
  6
CONTINUOUS
 10
5.720440
 20
3.960000
  0
VERTEX
  8
0
  6
CONTINUOUS
 10
5.715160
 20
3.719760
  0
VERTEX
  8
0
  6
CONTINUOUS
 10
5.713840
 20
3.549920
  0
VERTEX
  8
0
  6
CONTINUOUS
 10
5.716480
 20
3.186920
  0
VERTEX
  8
0
  6
CONTINUOUS
 10
4.772680
 20
3.186920
  0
VERTEX
  8
0
  6
CONTINUOUS
 10
4.772680
 20
7.955640
  0
VERTEX
  8
0
  6
CONTINUOUS
 10
4.772680
 20
7.953880
  0
VERTEX
  8
0
  6
CONTINUOUS
 10
6.774680
 20
7.953880
  0
VERTEX
  8
0
  6
CONTINUOUS
 10
6.774680
 20
5.918440
  0
VERTEX
  8
0
  6
CONTINUOUS
 10
6.758400
 20
5.918440
  0
SEQEND
  8
0
  0
TEXT
  8
0
 10
4.998840
 20
7.707920
 40
0.138163
  1
BA  717
 41
1.000000
  7
SN0
 71
     0
 72
     5
 11
5.589821
 21
7.707920
  0
TEXT
  8
0
 10
4.912160
 20
7.516080
 40
0.138163
  1
2" x 4-3/4"
 41
1.000000
  7
SN0
 71
     0
 72
     5
 11
5.675575
 21
7.516080
  0
ENDSEC
  0
EOF
