  0
SECTION
  2
HEADER
  9
$ACADVER
  1
AC1006
  9
$EXTMIN
 10
0.668360
 20
0.585640
  9
$EXTMAX
 10
7.220400
 20
5.393520
  9
$LTSCALE
 40
0.044000
  9
$PDMODE
 70
    35
  9
$PDSIZE
 40
0.035200
  0
ENDSEC
  0
SECTION
  2
TABLES
  0
TABLE
  2
LTYPE
 70
     9
  0
LTYPE
  2
CONTINUOUS
 70
    64
  3
Solid line
 72
    65
 73
     0
 40
0.000000
  0
LTYPE
  2
DASHED
 70
    64
  3
__ __ __ __ __ __ __ __ __ __ __ __ __ __ __
 72
    65
 73
     2
 40
0.000330
 49
0.000220
 49
-0.000110
  0
LTYPE
  2
HIDDEN
 70
    64
  3
 _ _ _ _ _ _ _ _ _ _ _ _ _ _ _ _ _ _ _ _ _ _
 72
    65
 73
     2
 40
0.000165
 49
0.000110
 49
-0.000055
  0
LTYPE
  2
CENTER
 70
    64
  3
____ _ ____ _ ____ _ ____ _ ____ _ ____ _ ____
 72
    65
 73
     4
 40
0.000880
 49
0.000550
 49
-0.000110
 49
0.000110
 49
-0.000110
  0
LTYPE
  2
PHANTOM
 70
    64
  3
_____ _ _ _____ _ _ _____ _ _ _____ _ _ ____
 72
    65
 73
     6
 40
0.001100
 49
0.000550
 49
-0.000110
 49
0.000110
 49
-0.000110
 49
0.000110
 49
-0.000110
  0
LTYPE
  2
DOT
 70
    64
  3
...............................................
 72
    65
 73
     2
 40
0.000110
 49
0.000000
 49
-0.000110
  0
LTYPE
  2
DASHDOT
 70
    64
  3
__ . __ . __ . __ . __ . __ . __ . __ . __ . __
 72
    65
 73
     4
 40
0.000440
 49
0.000220
 49
-0.000110
 49
0.000000
 49
-0.000110
  0
LTYPE
  2
BORDER
 70
    64
  3
__ __ . __ __ . __ __ . __ __ . __ __ . __ __
 72
    65
 73
     6
 40
0.000770
 49
0.000220
 49
-0.000110
 49
0.000220
 49
-0.000110
 49
0.000000
 49
-0.000110
  0
LTYPE
  2
DIVIDE
 70
    64
  3
__ . . __ . . __ . . __ . . __ . . __ . . __
 72
    65
 73
     6
 40
0.000550
 49
0.000220
 49
-0.000110
 49
0.000000
 49
-0.000110
 49
0.000000
 49
-0.000110
  0
LTYPE
  2
DOTDOT
 70
    64
  3
 . .  . .  . .  . .  . .  . . 
 72
    65
 73
     5
 40
0.000242
 49
-0.000110
 49
0.000000
 49
-0.000110
 49
0.000000
 49
-0.000110
  0
ENDTAB
  0
TABLE
  2
STYLE
 70
     2
  0
STYLE
 70
     0
  2
SN0
 40
0.000000
 41
0.000440
 50
0.000000
 71
     0
 42
0.000000
  3
ROMAND
  0
STYLE
 70
    68
  2
SV0
 40
0.000000
 41
0.000440
 50
0.000000
 71
     0
 42
0.000000
  3
ROMAND
  0
ENDTAB
  0
TABLE
  2
LAYER
 70
     3
  0
LAYER
  2
FOREGROUND
 70
    64
 62
     7
  6
CONTINUOUS
  0
LAYER
  2
BACKGROUND
 70
    65
 62
    -7
  6
CONTINUOUS
  0
LAYER
  2
0
 70
    64
 62
     7
  6
CONTINUOUS
  0
ENDTAB
  0
ENDSEC
  0
SECTION
  2
ENTITIES
  0
POLYLINE
  8
FOREGROUND
  6
CONTINUOUS
 66
     1
 40
0.000000
 41
0.000000
  0
VERTEX
  8
FOREGROUND
  6
CONTINUOUS
 10
0.000000
 20
5.979160
  0
VERTEX
  8
FOREGROUND
  6
CONTINUOUS
 10
8.499920
 20
5.979160
  0
VERTEX
  8
FOREGROUND
  6
CONTINUOUS
 10
8.499920
 20
-5.020840
  0
VERTEX
  8
FOREGROUND
  6
CONTINUOUS
 10
0.000000
 20
-5.020840
  0
VERTEX
  8
FOREGROUND
  6
CONTINUOUS
 10
0.000000
 20
5.979160
  0
SEQEND
  8
0
  0
POLYLINE
  8
FOREGROUND
  6
CONTINUOUS
 66
     1
 40
0.000000
 41
0.000000
  0
VERTEX
  8
FOREGROUND
  6
CONTINUOUS
 10
0.000000
 20
5.979160
  0
VERTEX
  8
FOREGROUND
  6
CONTINUOUS
 10
8.499920
 20
5.979160
  0
VERTEX
  8
FOREGROUND
  6
CONTINUOUS
 10
8.499920
 20
-5.020840
  0
VERTEX
  8
FOREGROUND
  6
CONTINUOUS
 10
0.000000
 20
-5.020840
  0
VERTEX
  8
FOREGROUND
  6
CONTINUOUS
 10
0.000000
 20
5.979160
  0
SEQEND
  8
0
  0
POLYLINE
  8
0
  6
CONTINUOUS
 66
     1
 40
0.014080
 41
0.014080
  0
VERTEX
  8
0
  6
CONTINUOUS
 10
7.213360
 20
4.312000
  0
VERTEX
  8
0
  6
CONTINUOUS
 10
7.128000
 20
4.313320
  0
VERTEX
  8
0
  6
CONTINUOUS
 10
7.049240
 20
4.309360
  0
VERTEX
  8
0
  6
CONTINUOUS
 10
7.011840
 20
4.305840
  0
VERTEX
  8
0
  6
CONTINUOUS
 10
6.941880
 20
4.294840
  0
VERTEX
  8
0
  6
CONTINUOUS
 10
6.877200
 20
4.279440
  0
VERTEX
  8
0
  6
CONTINUOUS
 10
6.846840
 20
4.270200
  0
VERTEX
  8
0
  6
CONTINUOUS
 10
6.790520
 20
4.248200
  0
VERTEX
  8
0
  6
CONTINUOUS
 10
6.739040
 20
4.222680
  0
VERTEX
  8
0
  6
CONTINUOUS
 10
6.692840
 20
4.193200
  0
VERTEX
  8
0
  6
CONTINUOUS
 10
6.651040
 20
4.160640
  0
VERTEX
  8
0
  6
CONTINUOUS
 10
6.614080
 20
4.124560
  0
VERTEX
  8
0
  6
CONTINUOUS
 10
6.581080
 20
4.085840
  0
VERTEX
  8
0
  6
CONTINUOUS
 10
6.552480
 20
4.044040
  0
VERTEX
  8
0
  6
CONTINUOUS
 10
6.527400
 20
4.000040
  0
VERTEX
  8
0
  6
CONTINUOUS
 10
6.506720
 20
3.953400
  0
VERTEX
  8
0
  6
CONTINUOUS
 10
6.489120
 20
3.905000
  0
VERTEX
  8
0
  6
CONTINUOUS
 10
6.468880
 20
3.828880
  0
VERTEX
  8
0
  6
CONTINUOUS
 10
6.459200
 20
3.776520
  0
VERTEX
  8
0
  6
CONTINUOUS
 10
6.449960
 20
3.695560
  0
VERTEX
  8
0
  6
CONTINUOUS
 10
6.447320
 20
3.640560
  0
VERTEX
  8
0
  6
CONTINUOUS
 10
6.446880
 20
3.584680
  0
VERTEX
  8
0
  6
CONTINUOUS
 10
6.448200
 20
3.528800
  0
VERTEX
  8
0
  6
CONTINUOUS
 10
6.451720
 20
3.472480
  0
VERTEX
  8
0
  6
CONTINUOUS
 10
6.463600
 20
3.360280
  0
VERTEX
  8
0
  6
CONTINUOUS
 10
6.480760
 20
3.250280
  0
VERTEX
  8
0
  6
CONTINUOUS
 10
6.501440
 20
3.144240
  0
VERTEX
  8
0
  6
CONTINUOUS
 10
6.536200
 20
2.997280
  0
VERTEX
  8
0
  6
CONTINUOUS
 10
6.580640
 20
2.847680
  0
VERTEX
  8
0
  6
CONTINUOUS
 10
6.647520
 20
2.631640
  0
VERTEX
  8
0
  6
CONTINUOUS
 10
6.686240
 20
2.492600
  0
VERTEX
  8
0
  6
CONTINUOUS
 10
6.709560
 20
2.398000
  0
VERTEX
  8
0
  6
CONTINUOUS
 10
6.728920
 20
2.302960
  0
VERTEX
  8
0
  6
CONTINUOUS
 10
6.743000
 20
2.208360
  0
VERTEX
  8
0
  6
CONTINUOUS
 10
6.748280
 20
2.161280
  0
VERTEX
  8
0
  6
CONTINUOUS
 10
6.753120
 20
2.069320
  0
VERTEX
  8
0
  6
CONTINUOUS
 10
6.752680
 20
2.024440
  0
VERTEX
  8
0
  6
CONTINUOUS
 10
6.747840
 20
1.958440
  0
VERTEX
  8
0
  6
CONTINUOUS
 10
6.737720
 20
1.895080
  0
VERTEX
  8
0
  6
CONTINUOUS
 10
6.728040
 20
1.854160
  0
VERTEX
  8
0
  6
CONTINUOUS
 10
6.715280
 20
1.814560
  0
VERTEX
  8
0
  6
CONTINUOUS
 10
6.700320
 20
1.776720
  0
VERTEX
  8
0
  6
CONTINUOUS
 10
6.681840
 20
1.740200
  0
VERTEX
  8
0
  6
CONTINUOUS
 10
6.648400
 20
1.688720
  0
VERTEX
  8
0
  6
CONTINUOUS
 10
6.607040
 20
1.641200
  0
VERTEX
  8
0
  6
CONTINUOUS
 10
6.555120
 20
1.594120
  0
VERTEX
  8
0
  6
CONTINUOUS
 10
6.527840
 20
1.572120
  0
VERTEX
  8
0
  6
CONTINUOUS
 10
6.470640
 20
1.532520
  0
VERTEX
  8
0
  6
CONTINUOUS
 10
6.409920
 20
1.497760
  0
VERTEX
  8
0
  6
CONTINUOUS
 10
6.346120
 20
1.468280
  0
VERTEX
  8
0
  6
CONTINUOUS
 10
6.279240
 20
1.444080
  0
VERTEX
  8
0
  6
CONTINUOUS
 10
6.244480
 20
1.433520
  0
VERTEX
  8
0
  6
CONTINUOUS
 10
6.173640
 20
1.417240
  0
VERTEX
  8
0
  6
CONTINUOUS
 10
6.099720
 20
1.406240
  0
VERTEX
  8
0
  6
CONTINUOUS
 10
6.061880
 20
1.402720
  0
VERTEX
  8
0
  6
CONTINUOUS
 10
5.984440
 20
1.400080
  0
VERTEX
  8
0
  6
CONTINUOUS
 10
5.904800
 20
1.403160
  0
VERTEX
  8
0
  6
CONTINUOUS
 10
5.822960
 20
1.411960
  0
VERTEX
  8
0
  6
CONTINUOUS
 10
5.739360
 20
1.426480
  0
VERTEX
  8
0
  6
CONTINUOUS
 10
5.654000
 20
1.447160
  0
VERTEX
  8
0
  6
CONTINUOUS
 10
5.567320
 20
1.473560
  0
VERTEX
  8
0
  6
CONTINUOUS
 10
5.478880
 20
1.506120
  0
VERTEX
  8
0
  6
CONTINUOUS
 10
5.388240
 20
1.545280
  0
VERTEX
  8
0
  6
CONTINUOUS
 10
5.297160
 20
1.593240
  0
VERTEX
  8
0
  6
CONTINUOUS
 10
5.126880
 20
1.687400
  0
VERTEX
  8
0
  6
CONTINUOUS
 10
5.045040
 20
1.727440
  0
VERTEX
  8
0
  6
CONTINUOUS
 10
4.985640
 20
1.752960
  0
VERTEX
  8
0
  6
CONTINUOUS
 10
4.921840
 20
1.776720
  0
VERTEX
  8
0
  6
CONTINUOUS
 10
4.853200
 20
1.798720
  0
VERTEX
  8
0
  6
CONTINUOUS
 10
4.778840
 20
1.818080
  0
VERTEX
  8
0
  6
CONTINUOUS
 10
4.698320
 20
1.833920
  0
VERTEX
  8
0
  6
CONTINUOUS
 10
4.655640
 20
1.840960
  0
VERTEX
  8
0
  6
CONTINUOUS
 10
4.564560
 20
1.851960
  0
VERTEX
  8
0
  6
CONTINUOUS
 10
4.440040
 20
1.859440
  0
VERTEX
  8
0
  6
CONTINUOUS
 10
4.413640
 20
1.859880
  0
VERTEX
  8
0
  6
CONTINUOUS
 10
4.413640
 20
5.307720
  0
VERTEX
  8
0
  6
CONTINUOUS
 10
7.213360
 20
5.307720
  0
VERTEX
  8
0
  6
CONTINUOUS
 10
7.213360
 20
4.312000
  0
SEQEND
  8
0
  0
SOLID
  8
0
 62
    15
 10
2.955480
 20
1.862080
 11
3.603160
 21
1.489840
 12
2.915880
 22
1.790360
 13
3.563120
 23
1.418560
  0
POLYLINE
  8
0
  6
CONTINUOUS
 66
     1
 40
0.000000
 41
0.000000
  0
VERTEX
  8
0
  6
CONTINUOUS
 10
2.955480
 20
1.862080
  0
VERTEX
  8
0
  6
CONTINUOUS
 10
3.603160
 20
1.489840
  0
VERTEX
  8
0
  6
CONTINUOUS
 10
3.563120
 20
1.418560
  0
VERTEX
  8
0
  6
CONTINUOUS
 10
2.915880
 20
1.790360
  0
VERTEX
  8
0
  6
CONTINUOUS
 10
2.955480
 20
1.862080
  0
SEQEND
  8
0
  0
SOLID
  8
0
 62
    15
 10
3.304400
 20
4.394720
 11
3.952080
 21
4.022920
 12
3.164040
 22
4.373160
 13
3.811720
 23
4.000920
  0
POLYLINE
  8
0
  6
CONTINUOUS
 66
     1
 40
0.000000
 41
0.000000
  0
VERTEX
  8
0
  6
CONTINUOUS
 10
3.304400
 20
4.394720
  0
VERTEX
  8
0
  6
CONTINUOUS
 10
3.952080
 20
4.022920
  0
VERTEX
  8
0
  6
CONTINUOUS
 10
3.811720
 20
4.000920
  0
VERTEX
  8
0
  6
CONTINUOUS
 10
3.164040
 20
4.373160
  0
VERTEX
  8
0
  6
CONTINUOUS
 10
3.304400
 20
4.394720
  0
SEQEND
  8
0
  0
SOLID
  8
0
 62
    15
 10
3.164040
 20
4.373160
 11
3.811720
 21
4.000920
 12
3.045680
 22
4.333560
 13
3.693360
 23
3.961320
  0
POLYLINE
  8
0
  6
CONTINUOUS
 66
     1
 40
0.000000
 41
0.000000
  0
VERTEX
  8
0
  6
CONTINUOUS
 10
3.164040
 20
4.373160
  0
VERTEX
  8
0
  6
CONTINUOUS
 10
3.811720
 20
4.000920
  0
VERTEX
  8
0
  6
CONTINUOUS
 10
3.693360
 20
3.961320
  0
VERTEX
  8
0
  6
CONTINUOUS
 10
3.045680
 20
4.333560
  0
VERTEX
  8
0
  6
CONTINUOUS
 10
3.164040
 20
4.373160
  0
SEQEND
  8
0
  0
SOLID
  8
0
 62
    15
 10
3.045680
 20
4.333560
 11
3.693360
 21
3.961320
 12
2.948000
 22
4.278560
 13
3.595680
 23
3.906320
  0
POLYLINE
  8
0
  6
CONTINUOUS
 66
     1
 40
0.000000
 41
0.000000
  0
VERTEX
  8
0
  6
CONTINUOUS
 10
3.045680
 20
4.333560
  0
VERTEX
  8
0
  6
CONTINUOUS
 10
3.693360
 20
3.961320
  0
VERTEX
  8
0
  6
CONTINUOUS
 10
3.595680
 20
3.906320
  0
VERTEX
  8
0
  6
CONTINUOUS
 10
2.948000
 20
4.278560
  0
VERTEX
  8
0
  6
CONTINUOUS
 10
3.045680
 20
4.333560
  0
SEQEND
  8
0
  0
SOLID
  8
0
 62
    15
 10
2.948000
 20
4.278560
 11
3.595680
 21
3.906320
 12
2.869240
 22
4.209920
 13
3.516480
 23
3.837680
  0
POLYLINE
  8
0
  6
CONTINUOUS
 66
     1
 40
0.000000
 41
0.000000
  0
VERTEX
  8
0
  6
CONTINUOUS
 10
2.948000
 20
4.278560
  0
VERTEX
  8
0
  6
CONTINUOUS
 10
3.595680
 20
3.906320
  0
VERTEX
  8
0
  6
CONTINUOUS
 10
3.516480
 20
3.837680
  0
VERTEX
  8
0
  6
CONTINUOUS
 10
2.869240
 20
4.209920
  0
VERTEX
  8
0
  6
CONTINUOUS
 10
2.948000
 20
4.278560
  0
SEQEND
  8
0
  0
SOLID
  8
0
 62
    15
 10
2.869240
 20
4.209920
 11
3.516480
 21
3.837680
 12
2.807640
 22
4.129400
 13
3.454880
 23
3.757160
  0
POLYLINE
  8
0
  6
CONTINUOUS
 66
     1
 40
0.000000
 41
0.000000
  0
VERTEX
  8
0
  6
CONTINUOUS
 10
2.869240
 20
4.209920
  0
VERTEX
  8
0
  6
CONTINUOUS
 10
3.516480
 20
3.837680
  0
VERTEX
  8
0
  6
CONTINUOUS
 10
3.454880
 20
3.757160
  0
VERTEX
  8
0
  6
CONTINUOUS
 10
2.807640
 20
4.129400
  0
VERTEX
  8
0
  6
CONTINUOUS
 10
2.869240
 20
4.209920
  0
SEQEND
  8
0
  0
SOLID
  8
0
 62
    15
 10
2.807640
 20
4.129400
 11
3.454880
 21
3.757160
 12
2.761880
 22
4.038760
 13
3.409120
 23
3.666520
  0
POLYLINE
  8
0
  6
CONTINUOUS
 66
     1
 40
0.000000
 41
0.000000
  0
VERTEX
  8
0
  6
CONTINUOUS
 10
2.807640
 20
4.129400
  0
VERTEX
  8
0
  6
CONTINUOUS
 10
3.454880
 20
3.757160
  0
VERTEX
  8
0
  6
CONTINUOUS
 10
3.409120
 20
3.666520
  0
VERTEX
  8
0
  6
CONTINUOUS
 10
2.761880
 20
4.038760
  0
VERTEX
  8
0
  6
CONTINUOUS
 10
2.807640
 20
4.129400
  0
SEQEND
  8
0
  0
SOLID
  8
0
 62
    15
 10
2.761880
 20
4.038760
 11
3.409120
 21
3.666520
 12
2.730200
 22
3.939760
 13
3.377440
 23
3.567960
  0
POLYLINE
  8
0
  6
CONTINUOUS
 66
     1
 40
0.000000
 41
0.000000
  0
VERTEX
  8
0
  6
CONTINUOUS
 10
2.761880
 20
4.038760
  0
VERTEX
  8
0
  6
CONTINUOUS
 10
3.409120
 20
3.666520
  0
VERTEX
  8
0
  6
CONTINUOUS
 10
3.377440
 20
3.567960
  0
VERTEX
  8
0
  6
CONTINUOUS
 10
2.730200
 20
3.939760
  0
VERTEX
  8
0
  6
CONTINUOUS
 10
2.761880
 20
4.038760
  0
SEQEND
  8
0
  0
SOLID
  8
0
 62
    15
 10
2.730200
 20
3.939760
 11
3.377440
 21
3.567960
 12
2.702480
 22
3.725480
 13
3.350160
 23
3.353680
  0
POLYLINE
  8
0
  6
CONTINUOUS
 66
     1
 40
0.000000
 41
0.000000
  0
VERTEX
  8
0
  6
CONTINUOUS
 10
2.730200
 20
3.939760
  0
VERTEX
  8
0
  6
CONTINUOUS
 10
3.377440
 20
3.567960
  0
VERTEX
  8
0
  6
CONTINUOUS
 10
3.350160
 20
3.353680
  0
VERTEX
  8
0
  6
CONTINUOUS
 10
2.702480
 20
3.725480
  0
VERTEX
  8
0
  6
CONTINUOUS
 10
2.730200
 20
3.939760
  0
SEQEND
  8
0
  0
SOLID
  8
0
 62
    15
 10
2.702480
 20
3.725480
 11
3.350160
 21
3.353680
 12
2.712160
 22
3.501520
 13
3.359840
 23
3.129280
  0
POLYLINE
  8
0
  6
CONTINUOUS
 66
     1
 40
0.000000
 41
0.000000
  0
VERTEX
  8
0
  6
CONTINUOUS
 10
2.702480
 20
3.725480
  0
VERTEX
  8
0
  6
CONTINUOUS
 10
3.350160
 20
3.353680
  0
VERTEX
  8
0
  6
CONTINUOUS
 10
3.359840
 20
3.129280
  0
VERTEX
  8
0
  6
CONTINUOUS
 10
2.712160
 20
3.501520
  0
VERTEX
  8
0
  6
CONTINUOUS
 10
2.702480
 20
3.725480
  0
SEQEND
  8
0
  0
SOLID
  8
0
 62
    15
 10
2.712160
 20
3.501520
 11
3.359840
 21
3.129280
 12
2.746040
 22
3.281960
 13
3.393720
 23
2.910160
  0
POLYLINE
  8
0
  6
CONTINUOUS
 66
     1
 40
0.000000
 41
0.000000
  0
VERTEX
  8
0
  6
CONTINUOUS
 10
2.712160
 20
3.501520
  0
VERTEX
  8
0
  6
CONTINUOUS
 10
3.359840
 20
3.129280
  0
VERTEX
  8
0
  6
CONTINUOUS
 10
3.393720
 20
2.910160
  0
VERTEX
  8
0
  6
CONTINUOUS
 10
2.746040
 20
3.281960
  0
VERTEX
  8
0
  6
CONTINUOUS
 10
2.712160
 20
3.501520
  0
SEQEND
  8
0
  0
SOLID
  8
0
 62
    15
 10
2.746040
 20
3.281960
 11
3.393720
 21
2.910160
 12
2.791800
 22
3.082640
 13
3.439040
 23
2.710400
  0
POLYLINE
  8
0
  6
CONTINUOUS
 66
     1
 40
0.000000
 41
0.000000
  0
VERTEX
  8
0
  6
CONTINUOUS
 10
2.746040
 20
3.281960
  0
VERTEX
  8
0
  6
CONTINUOUS
 10
3.393720
 20
2.910160
  0
VERTEX
  8
0
  6
CONTINUOUS
 10
3.439040
 20
2.710400
  0
VERTEX
  8
0
  6
CONTINUOUS
 10
2.791800
 20
3.082640
  0
VERTEX
  8
0
  6
CONTINUOUS
 10
2.746040
 20
3.281960
  0
SEQEND
  8
0
  0
SOLID
  8
0
 62
    15
 10
2.791800
 20
3.082640
 11
3.439040
 21
2.710400
 12
2.835800
 22
2.933040
 13
3.483480
 23
2.560800
  0
POLYLINE
  8
0
  6
CONTINUOUS
 66
     1
 40
0.000000
 41
0.000000
  0
VERTEX
  8
0
  6
CONTINUOUS
 10
2.791800
 20
3.082640
  0
VERTEX
  8
0
  6
CONTINUOUS
 10
3.439040
 20
2.710400
  0
VERTEX
  8
0
  6
CONTINUOUS
 10
3.483480
 20
2.560800
  0
VERTEX
  8
0
  6
CONTINUOUS
 10
2.835800
 20
2.933040
  0
VERTEX
  8
0
  6
CONTINUOUS
 10
2.791800
 20
3.082640
  0
SEQEND
  8
0
  0
SOLID
  8
0
 62
    15
 10
2.835800
 20
2.933040
 11
3.483480
 21
2.560800
 12
2.889040
 22
2.762320
 13
3.536720
 23
2.390080
  0
POLYLINE
  8
0
  6
CONTINUOUS
 66
     1
 40
0.000000
 41
0.000000
  0
VERTEX
  8
0
  6
CONTINUOUS
 10
2.835800
 20
2.933040
  0
VERTEX
  8
0
  6
CONTINUOUS
 10
3.483480
 20
2.560800
  0
VERTEX
  8
0
  6
CONTINUOUS
 10
3.536720
 20
2.390080
  0
VERTEX
  8
0
  6
CONTINUOUS
 10
2.889040
 20
2.762320
  0
VERTEX
  8
0
  6
CONTINUOUS
 10
2.835800
 20
2.933040
  0
SEQEND
  8
0
  0
SOLID
  8
0
 62
    15
 10
2.889040
 20
2.762320
 11
3.536720
 21
2.390080
 12
2.984080
 22
2.388320
 13
3.631320
 23
2.016080
  0
POLYLINE
  8
0
  6
CONTINUOUS
 66
     1
 40
0.000000
 41
0.000000
  0
VERTEX
  8
0
  6
CONTINUOUS
 10
2.889040
 20
2.762320
  0
VERTEX
  8
0
  6
CONTINUOUS
 10
3.536720
 20
2.390080
  0
VERTEX
  8
0
  6
CONTINUOUS
 10
3.631320
 20
2.016080
  0
VERTEX
  8
0
  6
CONTINUOUS
 10
2.984080
 20
2.388320
  0
VERTEX
  8
0
  6
CONTINUOUS
 10
2.889040
 20
2.762320
  0
SEQEND
  8
0
  0
SOLID
  8
0
 62
    15
 10
2.984080
 20
2.388320
 11
3.631320
 21
2.016080
 12
3.006960
 22
2.200440
 13
3.654200
 23
1.828200
  0
POLYLINE
  8
0
  6
CONTINUOUS
 66
     1
 40
0.000000
 41
0.000000
  0
VERTEX
  8
0
  6
CONTINUOUS
 10
2.984080
 20
2.388320
  0
VERTEX
  8
0
  6
CONTINUOUS
 10
3.631320
 20
2.016080
  0
VERTEX
  8
0
  6
CONTINUOUS
 10
3.654200
 20
1.828200
  0
VERTEX
  8
0
  6
CONTINUOUS
 10
3.006960
 20
2.200440
  0
VERTEX
  8
0
  6
CONTINUOUS
 10
2.984080
 20
2.388320
  0
SEQEND
  8
0
  0
SOLID
  8
0
 62
    15
 10
3.006960
 20
2.200440
 11
3.654200
 21
1.828200
 12
3.000360
 22
2.022680
 13
3.648040
 23
1.650440
  0
POLYLINE
  8
0
  6
CONTINUOUS
 66
     1
 40
0.000000
 41
0.000000
  0
VERTEX
  8
0
  6
CONTINUOUS
 10
3.006960
 20
2.200440
  0
VERTEX
  8
0
  6
CONTINUOUS
 10
3.654200
 20
1.828200
  0
VERTEX
  8
0
  6
CONTINUOUS
 10
3.648040
 20
1.650440
  0
VERTEX
  8
0
  6
CONTINUOUS
 10
3.000360
 20
2.022680
  0
VERTEX
  8
0
  6
CONTINUOUS
 10
3.006960
 20
2.200440
  0
SEQEND
  8
0
  0
SOLID
  8
0
 62
    15
 10
3.000360
 20
2.022680
 11
3.648040
 21
1.650440
 12
2.955480
 22
1.862080
 13
3.603160
 23
1.489840
  0
POLYLINE
  8
0
  6
CONTINUOUS
 66
     1
 40
0.000000
 41
0.000000
  0
VERTEX
  8
0
  6
CONTINUOUS
 10
3.000360
 20
2.022680
  0
VERTEX
  8
0
  6
CONTINUOUS
 10
3.648040
 20
1.650440
  0
VERTEX
  8
0
  6
CONTINUOUS
 10
3.603160
 20
1.489840
  0
VERTEX
  8
0
  6
CONTINUOUS
 10
2.955480
 20
1.862080
  0
VERTEX
  8
0
  6
CONTINUOUS
 10
3.000360
 20
2.022680
  0
SEQEND
  8
0
  0
SOLID
  8
0
 62
    15
 10
3.468960
 20
4.397360
 11
4.116200
 21
4.025120
 12
3.304400
 22
4.394720
 13
3.952080
 23
4.022920
  0
POLYLINE
  8
0
  6
CONTINUOUS
 66
     1
 40
0.000000
 41
0.000000
  0
VERTEX
  8
0
  6
CONTINUOUS
 10
3.468960
 20
4.397360
  0
VERTEX
  8
0
  6
CONTINUOUS
 10
4.116200
 20
4.025120
  0
VERTEX
  8
0
  6
CONTINUOUS
 10
3.952080
 20
4.022920
  0
VERTEX
  8
0
  6
CONTINUOUS
 10
3.304400
 20
4.394720
  0
VERTEX
  8
0
  6
CONTINUOUS
 10
3.468960
 20
4.397360
  0
SEQEND
  8
0
  0
SOLID
  8
0
 62
    15
 10
2.915880
 20
1.790360
 11
3.563120
 21
1.418560
 12
2.862640
 22
1.726560
 13
3.509880
 23
1.354320
  0
POLYLINE
  8
0
  6
CONTINUOUS
 66
     1
 40
0.000000
 41
0.000000
  0
VERTEX
  8
0
  6
CONTINUOUS
 10
2.915880
 20
1.790360
  0
VERTEX
  8
0
  6
CONTINUOUS
 10
3.563120
 20
1.418560
  0
VERTEX
  8
0
  6
CONTINUOUS
 10
3.509880
 20
1.354320
  0
VERTEX
  8
0
  6
CONTINUOUS
 10
2.862640
 20
1.726560
  0
VERTEX
  8
0
  6
CONTINUOUS
 10
2.915880
 20
1.790360
  0
SEQEND
  8
0
  0
SOLID
  8
0
 62
    15
 10
2.862640
 20
1.726560
 11
3.509880
 21
1.354320
 12
2.755280
 22
1.636800
 13
3.402520
 23
1.265000
  0
POLYLINE
  8
0
  6
CONTINUOUS
 66
     1
 40
0.000000
 41
0.000000
  0
VERTEX
  8
0
  6
CONTINUOUS
 10
2.862640
 20
1.726560
  0
VERTEX
  8
0
  6
CONTINUOUS
 10
3.509880
 20
1.354320
  0
VERTEX
  8
0
  6
CONTINUOUS
 10
3.402520
 20
1.265000
  0
VERTEX
  8
0
  6
CONTINUOUS
 10
2.755280
 20
1.636800
  0
VERTEX
  8
0
  6
CONTINUOUS
 10
2.862640
 20
1.726560
  0
SEQEND
  8
0
  0
SOLID
  8
0
 62
    15
 10
2.755280
 20
1.636800
 11
3.402520
 21
1.265000
 12
2.633840
 22
1.567720
 13
3.281080
 23
1.195480
  0
POLYLINE
  8
0
  6
CONTINUOUS
 66
     1
 40
0.000000
 41
0.000000
  0
VERTEX
  8
0
  6
CONTINUOUS
 10
2.755280
 20
1.636800
  0
VERTEX
  8
0
  6
CONTINUOUS
 10
3.402520
 20
1.265000
  0
VERTEX
  8
0
  6
CONTINUOUS
 10
3.281080
 20
1.195480
  0
VERTEX
  8
0
  6
CONTINUOUS
 10
2.633840
 20
1.567720
  0
VERTEX
  8
0
  6
CONTINUOUS
 10
2.755280
 20
1.636800
  0
SEQEND
  8
0
  0
SOLID
  8
0
 62
    15
 10
2.633840
 20
1.567720
 11
3.281080
 21
1.195480
 12
2.500080
 22
1.518880
 13
3.147320
 23
1.146640
  0
POLYLINE
  8
0
  6
CONTINUOUS
 66
     1
 40
0.000000
 41
0.000000
  0
VERTEX
  8
0
  6
CONTINUOUS
 10
2.633840
 20
1.567720
  0
VERTEX
  8
0
  6
CONTINUOUS
 10
3.281080
 20
1.195480
  0
VERTEX
  8
0
  6
CONTINUOUS
 10
3.147320
 20
1.146640
  0
VERTEX
  8
0
  6
CONTINUOUS
 10
2.500080
 20
1.518880
  0
VERTEX
  8
0
  6
CONTINUOUS
 10
2.633840
 20
1.567720
  0
SEQEND
  8
0
  0
SOLID
  8
0
 62
    15
 10
2.500080
 20
1.518880
 11
3.147320
 21
1.146640
 12
2.354880
 22
1.491600
 13
3.002120
 23
1.119360
  0
POLYLINE
  8
0
  6
CONTINUOUS
 66
     1
 40
0.000000
 41
0.000000
  0
VERTEX
  8
0
  6
CONTINUOUS
 10
2.500080
 20
1.518880
  0
VERTEX
  8
0
  6
CONTINUOUS
 10
3.147320
 20
1.146640
  0
VERTEX
  8
0
  6
CONTINUOUS
 10
3.002120
 20
1.119360
  0
VERTEX
  8
0
  6
CONTINUOUS
 10
2.354880
 20
1.491600
  0
VERTEX
  8
0
  6
CONTINUOUS
 10
2.500080
 20
1.518880
  0
SEQEND
  8
0
  0
SOLID
  8
0
 62
    15
 10
2.354880
 20
1.491600
 11
3.002120
 21
1.119360
 12
2.200000
 22
1.486320
 13
2.847240
 23
1.114080
  0
POLYLINE
  8
0
  6
CONTINUOUS
 66
     1
 40
0.000000
 41
0.000000
  0
VERTEX
  8
0
  6
CONTINUOUS
 10
2.354880
 20
1.491600
  0
VERTEX
  8
0
  6
CONTINUOUS
 10
3.002120
 20
1.119360
  0
VERTEX
  8
0
  6
CONTINUOUS
 10
2.847240
 20
1.114080
  0
VERTEX
  8
0
  6
CONTINUOUS
 10
2.200000
 20
1.486320
  0
VERTEX
  8
0
  6
CONTINUOUS
 10
2.354880
 20
1.491600
  0
SEQEND
  8
0
  0
SOLID
  8
0
 62
    15
 10
2.036760
 20
1.503920
 11
2.684000
 21
1.131680
 12
1.866040
 22
1.544840
 13
2.513280
 23
1.172600
  0
POLYLINE
  8
0
  6
CONTINUOUS
 66
     1
 40
0.000000
 41
0.000000
  0
VERTEX
  8
0
  6
CONTINUOUS
 10
2.036760
 20
1.503920
  0
VERTEX
  8
0
  6
CONTINUOUS
 10
2.684000
 20
1.131680
  0
VERTEX
  8
0
  6
CONTINUOUS
 10
2.513280
 20
1.172600
  0
VERTEX
  8
0
  6
CONTINUOUS
 10
1.866040
 20
1.544840
  0
VERTEX
  8
0
  6
CONTINUOUS
 10
2.036760
 20
1.503920
  0
SEQEND
  8
0
  0
SOLID
  8
0
 62
    15
 10
2.200000
 20
1.486320
 11
2.847240
 21
1.114080
 12
2.036760
 22
1.503920
 13
2.684000
 23
1.131680
  0
POLYLINE
  8
0
  6
CONTINUOUS
 66
     1
 40
0.000000
 41
0.000000
  0
VERTEX
  8
0
  6
CONTINUOUS
 10
2.200000
 20
1.486320
  0
VERTEX
  8
0
  6
CONTINUOUS
 10
2.847240
 20
1.114080
  0
VERTEX
  8
0
  6
CONTINUOUS
 10
2.684000
 20
1.131680
  0
VERTEX
  8
0
  6
CONTINUOUS
 10
2.036760
 20
1.503920
  0
VERTEX
  8
0
  6
CONTINUOUS
 10
2.200000
 20
1.486320
  0
SEQEND
  8
0
  0
SOLID
  8
0
 62
    15
 10
1.866040
 20
1.544840
 11
2.513280
 21
1.172600
 12
1.689600
 22
1.609960
 13
2.336840
 23
1.237720
  0
POLYLINE
  8
0
  6
CONTINUOUS
 66
     1
 40
0.000000
 41
0.000000
  0
VERTEX
  8
0
  6
CONTINUOUS
 10
1.866040
 20
1.544840
  0
VERTEX
  8
0
  6
CONTINUOUS
 10
2.513280
 20
1.172600
  0
VERTEX
  8
0
  6
CONTINUOUS
 10
2.336840
 20
1.237720
  0
VERTEX
  8
0
  6
CONTINUOUS
 10
1.689600
 20
1.609960
  0
VERTEX
  8
0
  6
CONTINUOUS
 10
1.866040
 20
1.544840
  0
SEQEND
  8
0
  0
SOLID
  8
0
 62
    15
 10
1.689600
 20
1.609960
 11
2.336840
 21
1.237720
 12
1.505680
 22
1.704560
 13
2.152920
 23
1.332760
  0
POLYLINE
  8
0
  6
CONTINUOUS
 66
     1
 40
0.000000
 41
0.000000
  0
VERTEX
  8
0
  6
CONTINUOUS
 10
1.689600
 20
1.609960
  0
VERTEX
  8
0
  6
CONTINUOUS
 10
2.336840
 20
1.237720
  0
VERTEX
  8
0
  6
CONTINUOUS
 10
2.152920
 20
1.332760
  0
VERTEX
  8
0
  6
CONTINUOUS
 10
1.505680
 20
1.704560
  0
VERTEX
  8
0
  6
CONTINUOUS
 10
1.689600
 20
1.609960
  0
SEQEND
  8
0
  0
SOLID
  8
0
 62
    15
 10
1.505680
 20
1.704560
 11
2.152920
 21
1.332760
 12
1.300200
 22
1.812800
 13
1.947440
 23
1.440560
  0
POLYLINE
  8
0
  6
CONTINUOUS
 66
     1
 40
0.000000
 41
0.000000
  0
VERTEX
  8
0
  6
CONTINUOUS
 10
1.505680
 20
1.704560
  0
VERTEX
  8
0
  6
CONTINUOUS
 10
2.152920
 20
1.332760
  0
VERTEX
  8
0
  6
CONTINUOUS
 10
1.947440
 20
1.440560
  0
VERTEX
  8
0
  6
CONTINUOUS
 10
1.300200
 20
1.812800
  0
VERTEX
  8
0
  6
CONTINUOUS
 10
1.505680
 20
1.704560
  0
SEQEND
  8
0
  0
SOLID
  8
0
 62
    15
 10
1.300200
 20
1.812800
 11
1.947440
 21
1.440560
 12
1.177000
 22
1.862080
 13
1.824680
 23
1.489840
  0
POLYLINE
  8
0
  6
CONTINUOUS
 66
     1
 40
0.000000
 41
0.000000
  0
VERTEX
  8
0
  6
CONTINUOUS
 10
1.300200
 20
1.812800
  0
VERTEX
  8
0
  6
CONTINUOUS
 10
1.947440
 20
1.440560
  0
VERTEX
  8
0
  6
CONTINUOUS
 10
1.824680
 20
1.489840
  0
VERTEX
  8
0
  6
CONTINUOUS
 10
1.177000
 20
1.862080
  0
VERTEX
  8
0
  6
CONTINUOUS
 10
1.300200
 20
1.812800
  0
SEQEND
  8
0
  0
SOLID
  8
0
 62
    15
 10
1.034000
 20
1.903000
 11
1.681680
 21
1.530760
 12
0.866360
 22
1.932040
 13
1.513600
 23
1.559800
  0
POLYLINE
  8
0
  6
CONTINUOUS
 66
     1
 40
0.000000
 41
0.000000
  0
VERTEX
  8
0
  6
CONTINUOUS
 10
1.034000
 20
1.903000
  0
VERTEX
  8
0
  6
CONTINUOUS
 10
1.681680
 20
1.530760
  0
VERTEX
  8
0
  6
CONTINUOUS
 10
1.513600
 20
1.559800
  0
VERTEX
  8
0
  6
CONTINUOUS
 10
0.866360
 20
1.932040
  0
VERTEX
  8
0
  6
CONTINUOUS
 10
1.034000
 20
1.903000
  0
SEQEND
  8
0
  0
SOLID
  8
0
 62
    15
 10
1.177000
 20
1.862080
 11
1.824680
 21
1.489840
 12
1.034000
 22
1.903000
 13
1.681680
 23
1.530760
  0
POLYLINE
  8
0
  6
CONTINUOUS
 66
     1
 40
0.000000
 41
0.000000
  0
VERTEX
  8
0
  6
CONTINUOUS
 10
1.177000
 20
1.862080
  0
VERTEX
  8
0
  6
CONTINUOUS
 10
1.824680
 20
1.489840
  0
VERTEX
  8
0
  6
CONTINUOUS
 10
1.681680
 20
1.530760
  0
VERTEX
  8
0
  6
CONTINUOUS
 10
1.034000
 20
1.903000
  0
VERTEX
  8
0
  6
CONTINUOUS
 10
1.177000
 20
1.862080
  0
SEQEND
  8
0
  0
SOLID
  8
0
 62
    15
 10
0.866360
 20
1.932040
 11
1.513600
 21
1.559800
 12
0.668800
 22
1.945240
 13
1.316040
 23
1.573000
  0
POLYLINE
  8
0
  6
CONTINUOUS
 66
     1
 40
0.000000
 41
0.000000
  0
VERTEX
  8
0
  6
CONTINUOUS
 10
0.866360
 20
1.932040
  0
VERTEX
  8
0
  6
CONTINUOUS
 10
1.513600
 20
1.559800
  0
VERTEX
  8
0
  6
CONTINUOUS
 10
1.316040
 20
1.573000
  0
VERTEX
  8
0
  6
CONTINUOUS
 10
0.668800
 20
1.945240
  0
VERTEX
  8
0
  6
CONTINUOUS
 10
0.866360
 20
1.932040
  0
SEQEND
  8
0
  0
SOLID
  8
0
 62
    15
 10
3.468960
 20
5.393080
 11
4.116200
 21
5.020840
 12
3.468960
 22
4.409680
 13
4.116200
 23
4.037440
  0
POLYLINE
  8
0
  6
CONTINUOUS
 66
     1
 40
0.000000
 41
0.000000
  0
VERTEX
  8
0
  6
CONTINUOUS
 10
3.468960
 20
5.393080
  0
VERTEX
  8
0
  6
CONTINUOUS
 10
4.116200
 20
5.020840
  0
VERTEX
  8
0
  6
CONTINUOUS
 10
4.116200
 20
4.037440
  0
VERTEX
  8
0
  6
CONTINUOUS
 10
3.468960
 20
4.409680
  0
VERTEX
  8
0
  6
CONTINUOUS
 10
3.468960
 20
5.393080
  0
SEQEND
  8
0
  0
SOLID
  8
0
 62
    15
 10
3.468960
 20
4.409680
 11
4.116200
 21
4.037440
 12
3.468960
 22
4.397360
 13
4.116200
 23
4.025120
  0
POLYLINE
  8
0
  6
CONTINUOUS
 66
     1
 40
0.000000
 41
0.000000
  0
VERTEX
  8
0
  6
CONTINUOUS
 10
3.468960
 20
4.409680
  0
VERTEX
  8
0
  6
CONTINUOUS
 10
4.116200
 20
4.037440
  0
VERTEX
  8
0
  6
CONTINUOUS
 10
4.116200
 20
4.025120
  0
VERTEX
  8
0
  6
CONTINUOUS
 10
3.468960
 20
4.397360
  0
VERTEX
  8
0
  6
CONTINUOUS
 10
3.468960
 20
4.409680
  0
SEQEND
  8
0
  0
POLYLINE
  8
0
  6
CONTINUOUS
 66
     1
 40
0.000000
 41
0.000000
  0
VERTEX
  8
0
  6
CONTINUOUS
 10
3.468960
 20
4.397360
  0
VERTEX
  8
0
  6
CONTINUOUS
 10
3.304400
 20
4.394720
  0
VERTEX
  8
0
  6
CONTINUOUS
 10
3.164040
 20
4.373160
  0
VERTEX
  8
0
  6
CONTINUOUS
 10
3.045680
 20
4.333560
  0
VERTEX
  8
0
  6
CONTINUOUS
 10
2.948000
 20
4.278560
  0
VERTEX
  8
0
  6
CONTINUOUS
 10
2.869240
 20
4.209920
  0
VERTEX
  8
0
  6
CONTINUOUS
 10
2.807640
 20
4.129400
  0
VERTEX
  8
0
  6
CONTINUOUS
 10
2.761880
 20
4.038760
  0
VERTEX
  8
0
  6
CONTINUOUS
 10
2.730200
 20
3.939760
  0
VERTEX
  8
0
  6
CONTINUOUS
 10
2.702480
 20
3.725480
  0
VERTEX
  8
0
  6
CONTINUOUS
 10
2.712160
 20
3.501520
  0
VERTEX
  8
0
  6
CONTINUOUS
 10
2.746040
 20
3.281960
  0
VERTEX
  8
0
  6
CONTINUOUS
 10
2.791800
 20
3.082640
  0
VERTEX
  8
0
  6
CONTINUOUS
 10
2.835800
 20
2.933040
  0
VERTEX
  8
0
  6
CONTINUOUS
 10
2.889040
 20
2.762320
  0
VERTEX
  8
0
  6
CONTINUOUS
 10
2.984080
 20
2.388320
  0
VERTEX
  8
0
  6
CONTINUOUS
 10
3.006960
 20
2.200440
  0
VERTEX
  8
0
  6
CONTINUOUS
 10
3.000360
 20
2.022680
  0
VERTEX
  8
0
  6
CONTINUOUS
 10
2.955480
 20
1.862080
  0
VERTEX
  8
0
  6
CONTINUOUS
 10
2.915880
 20
1.790360
  0
VERTEX
  8
0
  6
CONTINUOUS
 10
2.862640
 20
1.726560
  0
VERTEX
  8
0
  6
CONTINUOUS
 10
2.755280
 20
1.636800
  0
VERTEX
  8
0
  6
CONTINUOUS
 10
2.633840
 20
1.567720
  0
VERTEX
  8
0
  6
CONTINUOUS
 10
2.500080
 20
1.518880
  0
VERTEX
  8
0
  6
CONTINUOUS
 10
2.354880
 20
1.491600
  0
VERTEX
  8
0
  6
CONTINUOUS
 10
2.200000
 20
1.486320
  0
VERTEX
  8
0
  6
CONTINUOUS
 10
2.036760
 20
1.503920
  0
VERTEX
  8
0
  6
CONTINUOUS
 10
1.866040
 20
1.544840
  0
VERTEX
  8
0
  6
CONTINUOUS
 10
1.689600
 20
1.609960
  0
VERTEX
  8
0
  6
CONTINUOUS
 10
1.505680
 20
1.704560
  0
VERTEX
  8
0
  6
CONTINUOUS
 10
1.300200
 20
1.812800
  0
VERTEX
  8
0
  6
CONTINUOUS
 10
1.177000
 20
1.862080
  0
VERTEX
  8
0
  6
CONTINUOUS
 10
1.034000
 20
1.903000
  0
VERTEX
  8
0
  6
CONTINUOUS
 10
0.866360
 20
1.932040
  0
VERTEX
  8
0
  6
CONTINUOUS
 10
0.668800
 20
1.945240
  0
VERTEX
  8
0
  6
CONTINUOUS
 10
0.668800
 20
5.393080
  0
VERTEX
  8
0
  6
CONTINUOUS
 10
3.468960
 20
5.393080
  0
VERTEX
  8
0
  6
CONTINUOUS
 10
3.468960
 20
4.409680
  0
VERTEX
  8
0
  6
CONTINUOUS
 10
3.468960
 20
4.397360
  0
SEQEND
  8
0
  0
TEXT
  8
0
 10
2.096600
 20
0.821040
 40
0.138144
  1
BA  716
 41
1.000000
  7
SN0
 71
     0
 72
     5
 11
2.687266
 21
0.821040
  0
TEXT
  8
0
 10
1.682560
 20
0.629200
 40
0.138144
  1
2-13/16" x 3-15/16"
 41
1.000000
  7
SN0
 71
     0
 72
     5
 11
3.100421
 21
0.629200
  0
ENDSEC
  0
EOF
