  0
SECTION
  2
HEADER
  9
$ACADVER
  1
AC1006
  9
$EXTMIN
 10
2.238280
 20
0.763840
  9
$EXTMAX
 10
6.943200
 20
7.098960
  9
$LTSCALE
 40
0.044000
  9
$PDMODE
 70
    35
  9
$PDSIZE
 40
0.035200
  0
ENDSEC
  0
SECTION
  2
TABLES
  0
TABLE
  2
LTYPE
 70
     9
  0
LTYPE
  2
CONTINUOUS
 70
    64
  3
Solid line
 72
    65
 73
     0
 40
0.000000
  0
LTYPE
  2
DASHED
 70
    64
  3
__ __ __ __ __ __ __ __ __ __ __ __ __ __ __
 72
    65
 73
     2
 40
0.000330
 49
0.000220
 49
-0.000110
  0
LTYPE
  2
HIDDEN
 70
    64
  3
 _ _ _ _ _ _ _ _ _ _ _ _ _ _ _ _ _ _ _ _ _ _
 72
    65
 73
     2
 40
0.000165
 49
0.000110
 49
-0.000055
  0
LTYPE
  2
CENTER
 70
    64
  3
____ _ ____ _ ____ _ ____ _ ____ _ ____ _ ____
 72
    65
 73
     4
 40
0.000880
 49
0.000550
 49
-0.000110
 49
0.000110
 49
-0.000110
  0
LTYPE
  2
PHANTOM
 70
    64
  3
_____ _ _ _____ _ _ _____ _ _ _____ _ _ ____
 72
    65
 73
     6
 40
0.001100
 49
0.000550
 49
-0.000110
 49
0.000110
 49
-0.000110
 49
0.000110
 49
-0.000110
  0
LTYPE
  2
DOT
 70
    64
  3
...............................................
 72
    65
 73
     2
 40
0.000110
 49
0.000000
 49
-0.000110
  0
LTYPE
  2
DASHDOT
 70
    64
  3
__ . __ . __ . __ . __ . __ . __ . __ . __ . __
 72
    65
 73
     4
 40
0.000440
 49
0.000220
 49
-0.000110
 49
0.000000
 49
-0.000110
  0
LTYPE
  2
BORDER
 70
    64
  3
__ __ . __ __ . __ __ . __ __ . __ __ . __ __
 72
    65
 73
     6
 40
0.000770
 49
0.000220
 49
-0.000110
 49
0.000220
 49
-0.000110
 49
0.000000
 49
-0.000110
  0
LTYPE
  2
DIVIDE
 70
    64
  3
__ . . __ . . __ . . __ . . __ . . __ . . __
 72
    65
 73
     6
 40
0.000550
 49
0.000220
 49
-0.000110
 49
0.000000
 49
-0.000110
 49
0.000000
 49
-0.000110
  0
LTYPE
  2
DOTDOT
 70
    64
  3
 . .  . .  . .  . .  . .  . . 
 72
    65
 73
     5
 40
0.000242
 49
-0.000110
 49
0.000000
 49
-0.000110
 49
0.000000
 49
-0.000110
  0
ENDTAB
  0
TABLE
  2
STYLE
 70
     2
  0
STYLE
 70
     0
  2
SN0
 40
0.000000
 41
0.000440
 50
0.000000
 71
     0
 42
0.000000
  3
ROMAND
  0
STYLE
 70
    68
  2
SV0
 40
0.000000
 41
0.000440
 50
0.000000
 71
     0
 42
0.000000
  3
ROMAND
  0
ENDTAB
  0
TABLE
  2
LAYER
 70
     3
  0
LAYER
  2
FOREGROUND
 70
    64
 62
     7
  6
CONTINUOUS
  0
LAYER
  2
BACKGROUND
 70
    65
 62
    -7
  6
CONTINUOUS
  0
LAYER
  2
0
 70
    64
 62
     7
  6
CONTINUOUS
  0
ENDTAB
  0
ENDSEC
  0
SECTION
  2
ENTITIES
  0
POLYLINE
  8
FOREGROUND
  6
CONTINUOUS
 66
     1
 40
0.000000
 41
0.000000
  0
VERTEX
  8
FOREGROUND
  6
CONTINUOUS
 10
0.000000
 20
7.862800
  0
VERTEX
  8
FOREGROUND
  6
CONTINUOUS
 10
8.499920
 20
7.862800
  0
VERTEX
  8
FOREGROUND
  6
CONTINUOUS
 10
8.499920
 20
-3.137200
  0
VERTEX
  8
FOREGROUND
  6
CONTINUOUS
 10
0.000000
 20
-3.137200
  0
VERTEX
  8
FOREGROUND
  6
CONTINUOUS
 10
0.000000
 20
7.862800
  0
SEQEND
  8
0
  0
POLYLINE
  8
FOREGROUND
  6
CONTINUOUS
 66
     1
 40
0.000000
 41
0.000000
  0
VERTEX
  8
FOREGROUND
  6
CONTINUOUS
 10
0.000000
 20
7.862800
  0
VERTEX
  8
FOREGROUND
  6
CONTINUOUS
 10
8.499920
 20
7.862800
  0
VERTEX
  8
FOREGROUND
  6
CONTINUOUS
 10
8.499920
 20
-3.137200
  0
VERTEX
  8
FOREGROUND
  6
CONTINUOUS
 10
0.000000
 20
-3.137200
  0
VERTEX
  8
FOREGROUND
  6
CONTINUOUS
 10
0.000000
 20
7.862800
  0
SEQEND
  8
0
  0
POLYLINE
  8
0
  6
CONTINUOUS
 66
     1
 40
0.014080
 41
0.014080
  0
VERTEX
  8
0
  6
CONTINUOUS
 10
6.493080
 20
6.661160
  0
VERTEX
  8
0
  6
CONTINUOUS
 10
5.552800
 20
7.091920
  0
VERTEX
  8
0
  6
CONTINUOUS
 10
5.547960
 20
7.092360
  0
VERTEX
  8
0
  6
CONTINUOUS
 10
5.527720
 20
7.008760
  0
VERTEX
  8
0
  6
CONTINUOUS
 10
5.503960
 20
6.930880
  0
VERTEX
  8
0
  6
CONTINUOUS
 10
5.476680
 20
6.858720
  0
VERTEX
  8
0
  6
CONTINUOUS
 10
5.445880
 20
6.791400
  0
VERTEX
  8
0
  6
CONTINUOUS
 10
5.412440
 20
6.729360
  0
VERTEX
  8
0
  6
CONTINUOUS
 10
5.375480
 20
6.672600
  0
VERTEX
  8
0
  6
CONTINUOUS
 10
5.322680
 20
6.604840
  0
VERTEX
  8
0
  6
CONTINUOUS
 10
5.294520
 20
6.574040
  0
VERTEX
  8
0
  6
CONTINUOUS
 10
5.265040
 20
6.545440
  0
VERTEX
  8
0
  6
CONTINUOUS
 10
5.234680
 20
6.519040
  0
VERTEX
  8
0
  6
CONTINUOUS
 10
5.203440
 20
6.494400
  0
VERTEX
  8
0
  6
CONTINUOUS
 10
5.171320
 20
6.471960
  0
VERTEX
  8
0
  6
CONTINUOUS
 10
5.138320
 20
6.451280
  0
VERTEX
  8
0
  6
CONTINUOUS
 10
5.104880
 20
6.432800
  0
VERTEX
  8
0
  6
CONTINUOUS
 10
5.070120
 20
6.416080
  0
VERTEX
  8
0
  6
CONTINUOUS
 10
5.034920
 20
6.401120
  0
VERTEX
  8
0
  6
CONTINUOUS
 10
4.999280
 20
6.387920
  0
VERTEX
  8
0
  6
CONTINUOUS
 10
4.925800
 20
6.367240
  0
VERTEX
  8
0
  6
CONTINUOUS
 10
4.850120
 20
6.353600
  0
VERTEX
  8
0
  6
CONTINUOUS
 10
4.773560
 20
6.346120
  0
VERTEX
  8
0
  6
CONTINUOUS
 10
4.695680
 20
6.345240
  0
VERTEX
  8
0
  6
CONTINUOUS
 10
4.616920
 20
6.350520
  0
VERTEX
  8
0
  6
CONTINUOUS
 10
4.537720
 20
6.361520
  0
VERTEX
  8
0
  6
CONTINUOUS
 10
4.458960
 20
6.377800
  0
VERTEX
  8
0
  6
CONTINUOUS
 10
4.381080
 20
6.399360
  0
VERTEX
  8
0
  6
CONTINUOUS
 10
4.304080
 20
6.425760
  0
VERTEX
  8
0
  6
CONTINUOUS
 10
4.227960
 20
6.457000
  0
VERTEX
  8
0
  6
CONTINUOUS
 10
4.154040
 20
6.492640
  0
VERTEX
  8
0
  6
CONTINUOUS
 10
4.082760
 20
6.532240
  0
VERTEX
  8
0
  6
CONTINUOUS
 10
4.013680
 20
6.575360
  0
VERTEX
  8
0
  6
CONTINUOUS
 10
3.947680
 20
6.622440
  0
VERTEX
  8
0
  6
CONTINUOUS
 10
3.885640
 20
6.672160
  0
VERTEX
  8
0
  6
CONTINUOUS
 10
3.827120
 20
6.725400
  0
VERTEX
  8
0
  6
CONTINUOUS
 10
3.773000
 20
6.780840
  0
VERTEX
  8
0
  6
CONTINUOUS
 10
3.723720
 20
6.838920
  0
VERTEX
  8
0
  6
CONTINUOUS
 10
3.679720
 20
6.899200
  0
VERTEX
  8
0
  6
CONTINUOUS
 10
3.641440
 20
6.961240
  0
VERTEX
  8
0
  6
CONTINUOUS
 10
3.624280
 20
6.992480
  0
VERTEX
  8
0
  6
CONTINUOUS
 10
3.595240
 20
7.056720
  0
VERTEX
  8
0
  6
CONTINUOUS
 10
2.245320
 20
6.533120
  0
VERTEX
  8
0
  6
CONTINUOUS
 10
2.441560
 20
5.889400
  0
VERTEX
  8
0
  6
CONTINUOUS
 10
2.941400
 20
6.029760
  0
VERTEX
  8
0
  6
CONTINUOUS
 10
3.100240
 20
5.510560
  0
VERTEX
  8
0
  6
CONTINUOUS
 10
6.930880
 20
5.514520
  0
VERTEX
  8
0
  6
CONTINUOUS
 10
6.936600
 20
5.516720
  0
VERTEX
  8
0
  6
CONTINUOUS
 10
6.493080
 20
6.661160
  0
SEQEND
  8
0
  0
SOLID
  8
0
 62
    15
 10
4.473480
 20
3.059760
 11
5.102680
 21
2.714360
 12
4.407040
 22
2.916760
 13
5.036240
 23
2.571800
  0
POLYLINE
  8
0
  6
CONTINUOUS
 66
     1
 40
0.000000
 41
0.000000
  0
VERTEX
  8
0
  6
CONTINUOUS
 10
4.473480
 20
3.059760
  0
VERTEX
  8
0
  6
CONTINUOUS
 10
5.102680
 20
2.714360
  0
VERTEX
  8
0
  6
CONTINUOUS
 10
5.036240
 20
2.571800
  0
VERTEX
  8
0
  6
CONTINUOUS
 10
4.407040
 20
2.916760
  0
VERTEX
  8
0
  6
CONTINUOUS
 10
4.473480
 20
3.059760
  0
SEQEND
  8
0
  0
SOLID
  8
0
 62
    15
 10
5.482400
 20
5.169560
 11
6.112040
 21
4.824160
 12
5.482400
 22
3.721520
 13
6.112040
 23
3.376560
  0
POLYLINE
  8
0
  6
CONTINUOUS
 66
     1
 40
0.000000
 41
0.000000
  0
VERTEX
  8
0
  6
CONTINUOUS
 10
5.482400
 20
5.169560
  0
VERTEX
  8
0
  6
CONTINUOUS
 10
6.112040
 20
4.824160
  0
VERTEX
  8
0
  6
CONTINUOUS
 10
6.112040
 20
3.376560
  0
VERTEX
  8
0
  6
CONTINUOUS
 10
5.482400
 20
3.721520
  0
VERTEX
  8
0
  6
CONTINUOUS
 10
5.482400
 20
5.169560
  0
SEQEND
  8
0
  0
SOLID
  8
0
 62
    15
 10
5.482400
 20
3.721520
 11
6.112040
 21
3.376560
 12
5.340720
 22
3.707000
 13
5.969920
 23
3.362040
  0
POLYLINE
  8
0
  6
CONTINUOUS
 66
     1
 40
0.000000
 41
0.000000
  0
VERTEX
  8
0
  6
CONTINUOUS
 10
5.482400
 20
3.721520
  0
VERTEX
  8
0
  6
CONTINUOUS
 10
6.112040
 20
3.376560
  0
VERTEX
  8
0
  6
CONTINUOUS
 10
5.969920
 20
3.362040
  0
VERTEX
  8
0
  6
CONTINUOUS
 10
5.340720
 20
3.707000
  0
VERTEX
  8
0
  6
CONTINUOUS
 10
5.482400
 20
3.721520
  0
SEQEND
  8
0
  0
SOLID
  8
0
 62
    15
 10
5.340720
 20
3.707000
 11
5.969920
 21
3.362040
 12
5.196840
 22
3.668720
 13
5.826480
 23
3.323320
  0
POLYLINE
  8
0
  6
CONTINUOUS
 66
     1
 40
0.000000
 41
0.000000
  0
VERTEX
  8
0
  6
CONTINUOUS
 10
5.340720
 20
3.707000
  0
VERTEX
  8
0
  6
CONTINUOUS
 10
5.969920
 20
3.362040
  0
VERTEX
  8
0
  6
CONTINUOUS
 10
5.826480
 20
3.323320
  0
VERTEX
  8
0
  6
CONTINUOUS
 10
5.196840
 20
3.668720
  0
VERTEX
  8
0
  6
CONTINUOUS
 10
5.340720
 20
3.707000
  0
SEQEND
  8
0
  0
SOLID
  8
0
 62
    15
 10
5.196840
 20
3.668720
 11
5.826480
 21
3.323320
 12
5.053840
 22
3.608440
 13
5.683480
 23
3.263040
  0
POLYLINE
  8
0
  6
CONTINUOUS
 66
     1
 40
0.000000
 41
0.000000
  0
VERTEX
  8
0
  6
CONTINUOUS
 10
5.196840
 20
3.668720
  0
VERTEX
  8
0
  6
CONTINUOUS
 10
5.826480
 20
3.323320
  0
VERTEX
  8
0
  6
CONTINUOUS
 10
5.683480
 20
3.263040
  0
VERTEX
  8
0
  6
CONTINUOUS
 10
5.053840
 20
3.608440
  0
VERTEX
  8
0
  6
CONTINUOUS
 10
5.196840
 20
3.668720
  0
SEQEND
  8
0
  0
SOLID
  8
0
 62
    15
 10
5.053840
 20
3.608440
 11
5.683480
 21
3.263040
 12
4.915680
 22
3.528360
 13
5.545320
 23
3.182960
  0
POLYLINE
  8
0
  6
CONTINUOUS
 66
     1
 40
0.000000
 41
0.000000
  0
VERTEX
  8
0
  6
CONTINUOUS
 10
5.053840
 20
3.608440
  0
VERTEX
  8
0
  6
CONTINUOUS
 10
5.683480
 20
3.263040
  0
VERTEX
  8
0
  6
CONTINUOUS
 10
5.545320
 20
3.182960
  0
VERTEX
  8
0
  6
CONTINUOUS
 10
4.915680
 20
3.528360
  0
VERTEX
  8
0
  6
CONTINUOUS
 10
5.053840
 20
3.608440
  0
SEQEND
  8
0
  0
SOLID
  8
0
 62
    15
 10
4.915680
 20
3.528360
 11
5.545320
 21
3.182960
 12
4.785000
 22
3.431120
 13
5.414640
 23
3.086160
  0
POLYLINE
  8
0
  6
CONTINUOUS
 66
     1
 40
0.000000
 41
0.000000
  0
VERTEX
  8
0
  6
CONTINUOUS
 10
4.915680
 20
3.528360
  0
VERTEX
  8
0
  6
CONTINUOUS
 10
5.545320
 20
3.182960
  0
VERTEX
  8
0
  6
CONTINUOUS
 10
5.414640
 20
3.086160
  0
VERTEX
  8
0
  6
CONTINUOUS
 10
4.785000
 20
3.431120
  0
VERTEX
  8
0
  6
CONTINUOUS
 10
4.915680
 20
3.528360
  0
SEQEND
  8
0
  0
SOLID
  8
0
 62
    15
 10
4.785000
 20
3.431120
 11
5.414640
 21
3.086160
 12
4.665760
 22
3.319360
 13
5.294960
 23
2.973960
  0
POLYLINE
  8
0
  6
CONTINUOUS
 66
     1
 40
0.000000
 41
0.000000
  0
VERTEX
  8
0
  6
CONTINUOUS
 10
4.785000
 20
3.431120
  0
VERTEX
  8
0
  6
CONTINUOUS
 10
5.414640
 20
3.086160
  0
VERTEX
  8
0
  6
CONTINUOUS
 10
5.294960
 20
2.973960
  0
VERTEX
  8
0
  6
CONTINUOUS
 10
4.665760
 20
3.319360
  0
VERTEX
  8
0
  6
CONTINUOUS
 10
4.785000
 20
3.431120
  0
SEQEND
  8
0
  0
SOLID
  8
0
 62
    15
 10
4.665760
 20
3.319360
 11
5.294960
 21
2.973960
 12
4.560600
 22
3.194400
 13
5.190240
 23
2.849440
  0
POLYLINE
  8
0
  6
CONTINUOUS
 66
     1
 40
0.000000
 41
0.000000
  0
VERTEX
  8
0
  6
CONTINUOUS
 10
4.665760
 20
3.319360
  0
VERTEX
  8
0
  6
CONTINUOUS
 10
5.294960
 20
2.973960
  0
VERTEX
  8
0
  6
CONTINUOUS
 10
5.190240
 20
2.849440
  0
VERTEX
  8
0
  6
CONTINUOUS
 10
4.560600
 20
3.194400
  0
VERTEX
  8
0
  6
CONTINUOUS
 10
4.665760
 20
3.319360
  0
SEQEND
  8
0
  0
SOLID
  8
0
 62
    15
 10
4.560600
 20
3.194400
 11
5.190240
 21
2.849440
 12
4.473480
 22
3.059760
 13
5.102680
 23
2.714360
  0
POLYLINE
  8
0
  6
CONTINUOUS
 66
     1
 40
0.000000
 41
0.000000
  0
VERTEX
  8
0
  6
CONTINUOUS
 10
4.560600
 20
3.194400
  0
VERTEX
  8
0
  6
CONTINUOUS
 10
5.190240
 20
2.849440
  0
VERTEX
  8
0
  6
CONTINUOUS
 10
5.102680
 20
2.714360
  0
VERTEX
  8
0
  6
CONTINUOUS
 10
4.473480
 20
3.059760
  0
VERTEX
  8
0
  6
CONTINUOUS
 10
4.560600
 20
3.194400
  0
SEQEND
  8
0
  0
SOLID
  8
0
 62
    15
 10
4.055480
 20
1.163360
 11
4.684680
 21
0.817960
 12
2.838880
 22
1.163360
 13
3.468080
 23
0.817960
  0
POLYLINE
  8
0
  6
CONTINUOUS
 66
     1
 40
0.000000
 41
0.000000
  0
VERTEX
  8
0
  6
CONTINUOUS
 10
4.055480
 20
1.163360
  0
VERTEX
  8
0
  6
CONTINUOUS
 10
4.684680
 20
0.817960
  0
VERTEX
  8
0
  6
CONTINUOUS
 10
3.468080
 20
0.817960
  0
VERTEX
  8
0
  6
CONTINUOUS
 10
2.838880
 20
1.163360
  0
VERTEX
  8
0
  6
CONTINUOUS
 10
4.055480
 20
1.163360
  0
SEQEND
  8
0
  0
SOLID
  8
0
 62
    15
 10
4.407040
 20
2.916760
 11
5.036240
 21
2.571800
 12
4.364800
 22
2.768480
 13
4.994440
 23
2.423080
  0
POLYLINE
  8
0
  6
CONTINUOUS
 66
     1
 40
0.000000
 41
0.000000
  0
VERTEX
  8
0
  6
CONTINUOUS
 10
4.407040
 20
2.916760
  0
VERTEX
  8
0
  6
CONTINUOUS
 10
5.036240
 20
2.571800
  0
VERTEX
  8
0
  6
CONTINUOUS
 10
4.994440
 20
2.423080
  0
VERTEX
  8
0
  6
CONTINUOUS
 10
4.364800
 20
2.768480
  0
VERTEX
  8
0
  6
CONTINUOUS
 10
4.407040
 20
2.916760
  0
SEQEND
  8
0
  0
SOLID
  8
0
 62
    15
 10
4.364800
 20
2.768480
 11
4.994440
 21
2.423080
 12
4.350280
 22
2.616680
 13
4.979920
 23
2.271280
  0
POLYLINE
  8
0
  6
CONTINUOUS
 66
     1
 40
0.000000
 41
0.000000
  0
VERTEX
  8
0
  6
CONTINUOUS
 10
4.364800
 20
2.768480
  0
VERTEX
  8
0
  6
CONTINUOUS
 10
4.994440
 20
2.423080
  0
VERTEX
  8
0
  6
CONTINUOUS
 10
4.979920
 20
2.271280
  0
VERTEX
  8
0
  6
CONTINUOUS
 10
4.350280
 20
2.616680
  0
VERTEX
  8
0
  6
CONTINUOUS
 10
4.364800
 20
2.768480
  0
SEQEND
  8
0
  0
SOLID
  8
0
 62
    15
 10
4.350280
 20
2.616680
 11
4.979920
 21
2.271280
 12
4.367000
 22
2.463560
 13
4.996640
 23
2.118600
  0
POLYLINE
  8
0
  6
CONTINUOUS
 66
     1
 40
0.000000
 41
0.000000
  0
VERTEX
  8
0
  6
CONTINUOUS
 10
4.350280
 20
2.616680
  0
VERTEX
  8
0
  6
CONTINUOUS
 10
4.979920
 20
2.271280
  0
VERTEX
  8
0
  6
CONTINUOUS
 10
4.996640
 20
2.118600
  0
VERTEX
  8
0
  6
CONTINUOUS
 10
4.367000
 20
2.463560
  0
VERTEX
  8
0
  6
CONTINUOUS
 10
4.350280
 20
2.616680
  0
SEQEND
  8
0
  0
SOLID
  8
0
 62
    15
 10
4.367000
 20
2.463560
 11
4.996640
 21
2.118600
 12
4.418040
 22
2.312200
 13
5.047240
 23
1.966800
  0
POLYLINE
  8
0
  6
CONTINUOUS
 66
     1
 40
0.000000
 41
0.000000
  0
VERTEX
  8
0
  6
CONTINUOUS
 10
4.367000
 20
2.463560
  0
VERTEX
  8
0
  6
CONTINUOUS
 10
4.996640
 20
2.118600
  0
VERTEX
  8
0
  6
CONTINUOUS
 10
5.047240
 20
1.966800
  0
VERTEX
  8
0
  6
CONTINUOUS
 10
4.418040
 20
2.312200
  0
VERTEX
  8
0
  6
CONTINUOUS
 10
4.367000
 20
2.463560
  0
SEQEND
  8
0
  0
SOLID
  8
0
 62
    15
 10
4.418040
 20
2.312200
 11
5.047240
 21
1.966800
 12
4.506480
 22
2.163920
 13
5.135680
 23
1.818960
  0
POLYLINE
  8
0
  6
CONTINUOUS
 66
     1
 40
0.000000
 41
0.000000
  0
VERTEX
  8
0
  6
CONTINUOUS
 10
4.418040
 20
2.312200
  0
VERTEX
  8
0
  6
CONTINUOUS
 10
5.047240
 20
1.966800
  0
VERTEX
  8
0
  6
CONTINUOUS
 10
5.135680
 20
1.818960
  0
VERTEX
  8
0
  6
CONTINUOUS
 10
4.506480
 20
2.163920
  0
VERTEX
  8
0
  6
CONTINUOUS
 10
4.418040
 20
2.312200
  0
SEQEND
  8
0
  0
SOLID
  8
0
 62
    15
 10
4.506480
 20
2.163920
 11
5.135680
 21
1.818960
 12
4.635840
 22
2.022240
 13
5.265040
 23
1.676840
  0
POLYLINE
  8
0
  6
CONTINUOUS
 66
     1
 40
0.000000
 41
0.000000
  0
VERTEX
  8
0
  6
CONTINUOUS
 10
4.506480
 20
2.163920
  0
VERTEX
  8
0
  6
CONTINUOUS
 10
5.135680
 20
1.818960
  0
VERTEX
  8
0
  6
CONTINUOUS
 10
5.265040
 20
1.676840
  0
VERTEX
  8
0
  6
CONTINUOUS
 10
4.635840
 20
2.022240
  0
VERTEX
  8
0
  6
CONTINUOUS
 10
4.506480
 20
2.163920
  0
SEQEND
  8
0
  0
SOLID
  8
0
 62
    15
 10
4.635840
 20
2.022240
 11
5.265040
 21
1.676840
 12
4.809640
 22
1.888480
 13
5.438840
 23
1.543080
  0
POLYLINE
  8
0
  6
CONTINUOUS
 66
     1
 40
0.000000
 41
0.000000
  0
VERTEX
  8
0
  6
CONTINUOUS
 10
4.635840
 20
2.022240
  0
VERTEX
  8
0
  6
CONTINUOUS
 10
5.265040
 20
1.676840
  0
VERTEX
  8
0
  6
CONTINUOUS
 10
5.438840
 20
1.543080
  0
VERTEX
  8
0
  6
CONTINUOUS
 10
4.809640
 20
1.888480
  0
VERTEX
  8
0
  6
CONTINUOUS
 10
4.635840
 20
2.022240
  0
SEQEND
  8
0
  0
SOLID
  8
0
 62
    15
 10
4.809640
 20
1.888480
 11
5.438840
 21
1.543080
 12
4.807440
 22
1.884080
 13
5.436640
 23
1.538680
  0
POLYLINE
  8
0
  6
CONTINUOUS
 66
     1
 40
0.000000
 41
0.000000
  0
VERTEX
  8
0
  6
CONTINUOUS
 10
4.809640
 20
1.888480
  0
VERTEX
  8
0
  6
CONTINUOUS
 10
5.438840
 20
1.543080
  0
VERTEX
  8
0
  6
CONTINUOUS
 10
5.436640
 20
1.538680
  0
VERTEX
  8
0
  6
CONTINUOUS
 10
4.807440
 20
1.884080
  0
VERTEX
  8
0
  6
CONTINUOUS
 10
4.809640
 20
1.888480
  0
SEQEND
  8
0
  0
SOLID
  8
0
 62
    15
 10
4.807440
 20
1.884080
 11
5.436640
 21
1.538680
 12
4.065600
 22
1.163360
 13
4.695240
 23
0.817960
  0
POLYLINE
  8
0
  6
CONTINUOUS
 66
     1
 40
0.000000
 41
0.000000
  0
VERTEX
  8
0
  6
CONTINUOUS
 10
4.807440
 20
1.884080
  0
VERTEX
  8
0
  6
CONTINUOUS
 10
5.436640
 20
1.538680
  0
VERTEX
  8
0
  6
CONTINUOUS
 10
4.695240
 20
0.817960
  0
VERTEX
  8
0
  6
CONTINUOUS
 10
4.065600
 20
1.163360
  0
VERTEX
  8
0
  6
CONTINUOUS
 10
4.807440
 20
1.884080
  0
SEQEND
  8
0
  0
SOLID
  8
0
 62
    15
 10
4.065600
 20
1.163360
 11
4.695240
 21
0.817960
 12
4.055480
 22
1.163360
 13
4.684680
 23
0.817960
  0
POLYLINE
  8
0
  6
CONTINUOUS
 66
     1
 40
0.000000
 41
0.000000
  0
VERTEX
  8
0
  6
CONTINUOUS
 10
4.065600
 20
1.163360
  0
VERTEX
  8
0
  6
CONTINUOUS
 10
4.695240
 20
0.817960
  0
VERTEX
  8
0
  6
CONTINUOUS
 10
4.684680
 20
0.817960
  0
VERTEX
  8
0
  6
CONTINUOUS
 10
4.055480
 20
1.163360
  0
VERTEX
  8
0
  6
CONTINUOUS
 10
4.065600
 20
1.163360
  0
SEQEND
  8
0
  0
POLYLINE
  8
0
  6
CONTINUOUS
 66
     1
 40
0.000000
 41
0.000000
  0
VERTEX
  8
0
  6
CONTINUOUS
 10
4.055480
 20
1.163360
  0
VERTEX
  8
0
  6
CONTINUOUS
 10
2.838880
 20
1.163360
  0
VERTEX
  8
0
  6
CONTINUOUS
 10
2.838880
 20
1.169520
  0
VERTEX
  8
0
  6
CONTINUOUS
 10
4.220040
 20
4.742320
  0
VERTEX
  8
0
  6
CONTINUOUS
 10
4.761680
 20
4.702720
  0
VERTEX
  8
0
  6
CONTINUOUS
 10
4.811400
 20
5.219280
  0
VERTEX
  8
0
  6
CONTINUOUS
 10
5.482400
 20
5.169560
  0
VERTEX
  8
0
  6
CONTINUOUS
 10
5.482400
 20
3.721520
  0
VERTEX
  8
0
  6
CONTINUOUS
 10
5.340720
 20
3.707000
  0
VERTEX
  8
0
  6
CONTINUOUS
 10
5.196840
 20
3.668720
  0
VERTEX
  8
0
  6
CONTINUOUS
 10
5.053840
 20
3.608440
  0
VERTEX
  8
0
  6
CONTINUOUS
 10
4.915680
 20
3.528360
  0
VERTEX
  8
0
  6
CONTINUOUS
 10
4.785000
 20
3.431120
  0
VERTEX
  8
0
  6
CONTINUOUS
 10
4.665760
 20
3.319360
  0
VERTEX
  8
0
  6
CONTINUOUS
 10
4.560600
 20
3.194400
  0
VERTEX
  8
0
  6
CONTINUOUS
 10
4.473480
 20
3.059760
  0
VERTEX
  8
0
  6
CONTINUOUS
 10
4.407040
 20
2.916760
  0
VERTEX
  8
0
  6
CONTINUOUS
 10
4.364800
 20
2.768480
  0
VERTEX
  8
0
  6
CONTINUOUS
 10
4.350280
 20
2.616680
  0
VERTEX
  8
0
  6
CONTINUOUS
 10
4.367000
 20
2.463560
  0
VERTEX
  8
0
  6
CONTINUOUS
 10
4.418040
 20
2.312200
  0
VERTEX
  8
0
  6
CONTINUOUS
 10
4.506480
 20
2.163920
  0
VERTEX
  8
0
  6
CONTINUOUS
 10
4.635840
 20
2.022240
  0
VERTEX
  8
0
  6
CONTINUOUS
 10
4.809640
 20
1.888480
  0
VERTEX
  8
0
  6
CONTINUOUS
 10
4.807440
 20
1.884080
  0
VERTEX
  8
0
  6
CONTINUOUS
 10
4.065600
 20
1.163360
  0
VERTEX
  8
0
  6
CONTINUOUS
 10
4.055480
 20
1.163360
  0
SEQEND
  8
0
  0
TEXT
  8
0
 10
5.609120
 20
0.999240
 40
0.137926
  1
BA  715
 41
1.000000
  7
SN0
 71
     0
 72
     5
 11
6.198920
 21
0.999240
  0
TEXT
  8
0
 10
5.287040
 20
0.807840
 40
0.137926
  1
1-5/8" x 4-11/16"
 41
1.000000
  7
SN0
 71
     0
 72
     5
 11
6.518904
 21
0.807840
  0
ENDSEC
  0
EOF
