  0
SECTION
  2
HEADER
  9
$ACADVER
  1
AC1006
  9
$EXTMIN
 10
0.714120
 20
0.453200
  9
$EXTMAX
 10
7.681080
 20
10.589480
  9
$LTSCALE
 40
0.044000
  9
$PDMODE
 70
    35
  9
$PDSIZE
 40
0.035200
  0
ENDSEC
  0
SECTION
  2
TABLES
  0
TABLE
  2
LTYPE
 70
     9
  0
LTYPE
  2
CONTINUOUS
 70
    64
  3
Solid line
 72
    65
 73
     0
 40
0.000000
  0
LTYPE
  2
DASHED
 70
    64
  3
__ __ __ __ __ __ __ __ __ __ __ __ __ __ __
 72
    65
 73
     2
 40
0.000330
 49
0.000220
 49
-0.000110
  0
LTYPE
  2
HIDDEN
 70
    64
  3
 _ _ _ _ _ _ _ _ _ _ _ _ _ _ _ _ _ _ _ _ _ _
 72
    65
 73
     2
 40
0.000165
 49
0.000110
 49
-0.000055
  0
LTYPE
  2
CENTER
 70
    64
  3
____ _ ____ _ ____ _ ____ _ ____ _ ____ _ ____
 72
    65
 73
     4
 40
0.000880
 49
0.000550
 49
-0.000110
 49
0.000110
 49
-0.000110
  0
LTYPE
  2
PHANTOM
 70
    64
  3
_____ _ _ _____ _ _ _____ _ _ _____ _ _ ____
 72
    65
 73
     6
 40
0.001100
 49
0.000550
 49
-0.000110
 49
0.000110
 49
-0.000110
 49
0.000110
 49
-0.000110
  0
LTYPE
  2
DOT
 70
    64
  3
...............................................
 72
    65
 73
     2
 40
0.000110
 49
0.000000
 49
-0.000110
  0
LTYPE
  2
DASHDOT
 70
    64
  3
__ . __ . __ . __ . __ . __ . __ . __ . __ . __
 72
    65
 73
     4
 40
0.000440
 49
0.000220
 49
-0.000110
 49
0.000000
 49
-0.000110
  0
LTYPE
  2
BORDER
 70
    64
  3
__ __ . __ __ . __ __ . __ __ . __ __ . __ __
 72
    65
 73
     6
 40
0.000770
 49
0.000220
 49
-0.000110
 49
0.000220
 49
-0.000110
 49
0.000000
 49
-0.000110
  0
LTYPE
  2
DIVIDE
 70
    64
  3
__ . . __ . . __ . . __ . . __ . . __ . . __
 72
    65
 73
     6
 40
0.000550
 49
0.000220
 49
-0.000110
 49
0.000000
 49
-0.000110
 49
0.000000
 49
-0.000110
  0
LTYPE
  2
DOTDOT
 70
    64
  3
 . .  . .  . .  . .  . .  . . 
 72
    65
 73
     5
 40
0.000242
 49
-0.000110
 49
0.000000
 49
-0.000110
 49
0.000000
 49
-0.000110
  0
ENDTAB
  0
TABLE
  2
STYLE
 70
     2
  0
STYLE
 70
     0
  2
SN0
 40
0.000000
 41
0.000440
 50
0.000000
 71
     0
 42
0.000000
  3
ROMAND
  0
STYLE
 70
    68
  2
SV0
 40
0.000000
 41
0.000440
 50
0.000000
 71
     0
 42
0.000000
  3
ROMAND
  0
ENDTAB
  0
TABLE
  2
LAYER
 70
     3
  0
LAYER
  2
FOREGROUND
 70
    64
 62
     7
  6
CONTINUOUS
  0
LAYER
  2
BACKGROUND
 70
    65
 62
    -7
  6
CONTINUOUS
  0
LAYER
  2
0
 70
    64
 62
     7
  6
CONTINUOUS
  0
ENDTAB
  0
ENDSEC
  0
SECTION
  2
ENTITIES
  0
POLYLINE
  8
FOREGROUND
  6
CONTINUOUS
 66
     1
 40
0.000000
 41
0.000000
  0
VERTEX
  8
FOREGROUND
  6
CONTINUOUS
 10
0.000000
 20
11.042680
  0
VERTEX
  8
FOREGROUND
  6
CONTINUOUS
 10
8.499920
 20
11.042680
  0
VERTEX
  8
FOREGROUND
  6
CONTINUOUS
 10
8.499920
 20
0.042680
  0
VERTEX
  8
FOREGROUND
  6
CONTINUOUS
 10
0.000000
 20
0.042680
  0
VERTEX
  8
FOREGROUND
  6
CONTINUOUS
 10
0.000000
 20
11.042680
  0
SEQEND
  8
0
  0
POLYLINE
  8
FOREGROUND
  6
CONTINUOUS
 66
     1
 40
0.000000
 41
0.000000
  0
VERTEX
  8
FOREGROUND
  6
CONTINUOUS
 10
0.000000
 20
11.042680
  0
VERTEX
  8
FOREGROUND
  6
CONTINUOUS
 10
8.499920
 20
11.042680
  0
VERTEX
  8
FOREGROUND
  6
CONTINUOUS
 10
8.499920
 20
0.042680
  0
VERTEX
  8
FOREGROUND
  6
CONTINUOUS
 10
0.000000
 20
0.042680
  0
VERTEX
  8
FOREGROUND
  6
CONTINUOUS
 10
0.000000
 20
11.042680
  0
SEQEND
  8
0
  0
POLYLINE
  8
0
  6
CONTINUOUS
 66
     1
 40
0.014080
 41
0.014080
  0
VERTEX
  8
0
  6
CONTINUOUS
 10
7.223480
 20
8.744560
  0
VERTEX
  8
0
  6
CONTINUOUS
 10
7.223480
 20
9.846760
  0
VERTEX
  8
0
  6
CONTINUOUS
 10
7.207200
 20
9.863480
  0
VERTEX
  8
0
  6
CONTINUOUS
 10
4.069560
 20
10.578040
  0
VERTEX
  8
0
  6
CONTINUOUS
 10
4.063400
 20
10.582000
  0
VERTEX
  8
0
  6
CONTINUOUS
 10
0.921800
 20
9.859080
  0
VERTEX
  8
0
  6
CONTINUOUS
 10
0.905080
 20
9.842360
  0
VERTEX
  8
0
  6
CONTINUOUS
 10
0.905080
 20
8.740600
  0
VERTEX
  8
0
  6
CONTINUOUS
 10
0.921360
 20
8.723880
  0
VERTEX
  8
0
  6
CONTINUOUS
 10
0.975480
 20
8.719480
  0
VERTEX
  8
0
  6
CONTINUOUS
 10
1.026080
 20
8.711120
  0
VERTEX
  8
0
  6
CONTINUOUS
 10
1.073160
 20
8.699240
  0
VERTEX
  8
0
  6
CONTINUOUS
 10
1.117160
 20
8.683840
  0
VERTEX
  8
0
  6
CONTINUOUS
 10
1.158520
 20
8.664480
  0
VERTEX
  8
0
  6
CONTINUOUS
 10
1.196360
 20
8.641600
  0
VERTEX
  8
0
  6
CONTINUOUS
 10
1.232000
 20
8.615200
  0
VERTEX
  8
0
  6
CONTINUOUS
 10
1.264560
 20
8.585280
  0
VERTEX
  8
0
  6
CONTINUOUS
 10
1.294480
 20
8.551400
  0
VERTEX
  8
0
  6
CONTINUOUS
 10
1.321760
 20
8.514000
  0
VERTEX
  8
0
  6
CONTINUOUS
 10
1.358720
 20
8.450640
  0
VERTEX
  8
0
  6
CONTINUOUS
 10
1.380280
 20
8.404000
  0
VERTEX
  8
0
  6
CONTINUOUS
 10
1.408880
 20
8.326560
  0
VERTEX
  8
0
  6
CONTINUOUS
 10
1.433080
 20
8.241200
  0
VERTEX
  8
0
  6
CONTINUOUS
 10
1.452880
 20
8.147040
  0
VERTEX
  8
0
  6
CONTINUOUS
 10
1.464320
 20
8.079720
  0
VERTEX
  8
0
  6
CONTINUOUS
 10
1.478400
 20
7.971480
  0
VERTEX
  8
0
  6
CONTINUOUS
 10
1.489840
 20
7.854880
  0
VERTEX
  8
0
  6
CONTINUOUS
 10
1.500400
 20
7.686360
  0
VERTEX
  8
0
  6
CONTINUOUS
 10
1.505680
 20
7.549960
  0
VERTEX
  8
0
  6
CONTINUOUS
 10
1.510520
 20
7.354600
  0
VERTEX
  8
0
  6
CONTINUOUS
 10
1.512720
 20
7.088840
  0
VERTEX
  8
0
  6
CONTINUOUS
 10
1.513160
 20
6.738160
  0
VERTEX
  8
0
  6
CONTINUOUS
 10
1.794320
 20
6.738160
  0
VERTEX
  8
0
  6
CONTINUOUS
 10
1.794320
 20
6.627720
  0
VERTEX
  8
0
  6
CONTINUOUS
 10
1.790360
 20
6.625960
  0
VERTEX
  8
0
  6
CONTINUOUS
 10
1.763080
 20
6.624640
  0
VERTEX
  8
0
  6
CONTINUOUS
 10
1.736240
 20
6.620240
  0
VERTEX
  8
0
  6
CONTINUOUS
 10
1.697520
 20
6.609240
  0
VERTEX
  8
0
  6
CONTINUOUS
 10
1.661440
 20
6.592520
  0
VERTEX
  8
0
  6
CONTINUOUS
 10
1.639000
 20
6.578440
  0
VERTEX
  8
0
  6
CONTINUOUS
 10
1.617880
 20
6.562600
  0
VERTEX
  8
0
  6
CONTINUOUS
 10
1.598520
 20
6.545000
  0
VERTEX
  8
0
  6
CONTINUOUS
 10
1.580920
 20
6.525640
  0
VERTEX
  8
0
  6
CONTINUOUS
 10
1.557600
 20
6.493080
  0
VERTEX
  8
0
  6
CONTINUOUS
 10
1.544840
 20
6.470200
  0
VERTEX
  8
0
  6
CONTINUOUS
 10
1.529880
 20
6.432800
  0
VERTEX
  8
0
  6
CONTINUOUS
 10
1.520640
 20
6.393640
  0
VERTEX
  8
0
  6
CONTINUOUS
 10
1.518000
 20
6.366360
  0
VERTEX
  8
0
  6
CONTINUOUS
 10
1.518000
 20
6.339080
  0
VERTEX
  8
0
  6
CONTINUOUS
 10
1.520640
 20
6.311800
  0
VERTEX
  8
0
  6
CONTINUOUS
 10
1.529880
 20
6.272640
  0
VERTEX
  8
0
  6
CONTINUOUS
 10
1.544840
 20
6.235680
  0
VERTEX
  8
0
  6
CONTINUOUS
 10
1.565080
 20
6.201360
  0
VERTEX
  8
0
  6
CONTINUOUS
 10
1.580920
 20
6.180240
  0
VERTEX
  8
0
  6
CONTINUOUS
 10
1.598520
 20
6.160880
  0
VERTEX
  8
0
  6
CONTINUOUS
 10
1.617880
 20
6.143280
  0
VERTEX
  8
0
  6
CONTINUOUS
 10
1.650000
 20
6.119960
  0
VERTEX
  8
0
  6
CONTINUOUS
 10
1.685200
 20
6.101920
  0
VERTEX
  8
0
  6
CONTINUOUS
 10
1.710280
 20
6.092240
  0
VERTEX
  8
0
  6
CONTINUOUS
 10
1.749440
 20
6.083000
  0
VERTEX
  8
0
  6
CONTINUOUS
 10
1.776720
 20
6.080360
  0
VERTEX
  8
0
  6
CONTINUOUS
 10
1.804000
 20
6.080360
  0
VERTEX
  8
0
  6
CONTINUOUS
 10
1.831280
 20
6.083000
  0
VERTEX
  8
0
  6
CONTINUOUS
 10
1.870440
 20
6.092240
  0
VERTEX
  8
0
  6
CONTINUOUS
 10
1.907400
 20
6.107200
  0
VERTEX
  8
0
  6
CONTINUOUS
 10
1.941720
 20
6.127440
  0
VERTEX
  8
0
  6
CONTINUOUS
 10
1.962840
 20
6.143280
  0
VERTEX
  8
0
  6
CONTINUOUS
 10
1.982200
 20
6.160880
  0
VERTEX
  8
0
  6
CONTINUOUS
 10
1.999800
 20
6.180240
  0
VERTEX
  8
0
  6
CONTINUOUS
 10
2.023120
 20
6.212360
  0
VERTEX
  8
0
  6
CONTINUOUS
 10
2.041160
 20
6.247560
  0
VERTEX
  8
0
  6
CONTINUOUS
 10
2.050840
 20
6.272640
  0
VERTEX
  8
0
  6
CONTINUOUS
 10
2.060080
 20
6.311800
  0
VERTEX
  8
0
  6
CONTINUOUS
 10
2.062720
 20
6.339080
  0
VERTEX
  8
0
  6
CONTINUOUS
 10
2.063160
 20
6.352720
  0
VERTEX
  8
0
  6
CONTINUOUS
 10
2.179760
 20
6.352720
  0
VERTEX
  8
0
  6
CONTINUOUS
 10
2.179760
 20
6.069360
  0
VERTEX
  8
0
  6
CONTINUOUS
 10
5.948800
 20
6.069360
  0
VERTEX
  8
0
  6
CONTINUOUS
 10
5.948800
 20
6.357120
  0
VERTEX
  8
0
  6
CONTINUOUS
 10
6.065400
 20
6.357120
  0
VERTEX
  8
0
  6
CONTINUOUS
 10
6.066720
 20
6.329840
  0
VERTEX
  8
0
  6
CONTINUOUS
 10
6.071120
 20
6.303000
  0
VERTEX
  8
0
  6
CONTINUOUS
 10
6.082120
 20
6.264280
  0
VERTEX
  8
0
  6
CONTINUOUS
 10
6.098840
 20
6.228200
  0
VERTEX
  8
0
  6
CONTINUOUS
 10
6.112920
 20
6.205760
  0
VERTEX
  8
0
  6
CONTINUOUS
 10
6.128760
 20
6.184640
  0
VERTEX
  8
0
  6
CONTINUOUS
 10
6.146360
 20
6.165280
  0
VERTEX
  8
0
  6
CONTINUOUS
 10
6.165720
 20
6.147680
  0
VERTEX
  8
0
  6
CONTINUOUS
 10
6.197840
 20
6.124360
  0
VERTEX
  8
0
  6
CONTINUOUS
 10
6.233040
 20
6.106320
  0
VERTEX
  8
0
  6
CONTINUOUS
 10
6.258120
 20
6.096640
  0
VERTEX
  8
0
  6
CONTINUOUS
 10
6.297280
 20
6.087400
  0
VERTEX
  8
0
  6
CONTINUOUS
 10
6.324560
 20
6.084760
  0
VERTEX
  8
0
  6
CONTINUOUS
 10
6.351840
 20
6.084760
  0
VERTEX
  8
0
  6
CONTINUOUS
 10
6.379120
 20
6.087400
  0
VERTEX
  8
0
  6
CONTINUOUS
 10
6.418280
 20
6.096640
  0
VERTEX
  8
0
  6
CONTINUOUS
 10
6.455240
 20
6.111600
  0
VERTEX
  8
0
  6
CONTINUOUS
 10
6.489560
 20
6.131840
  0
VERTEX
  8
0
  6
CONTINUOUS
 10
6.510680
 20
6.147680
  0
VERTEX
  8
0
  6
CONTINUOUS
 10
6.530040
 20
6.165280
  0
VERTEX
  8
0
  6
CONTINUOUS
 10
6.547640
 20
6.184640
  0
VERTEX
  8
0
  6
CONTINUOUS
 10
6.570960
 20
6.216760
  0
VERTEX
  8
0
  6
CONTINUOUS
 10
6.589000
 20
6.251960
  0
VERTEX
  8
0
  6
CONTINUOUS
 10
6.598680
 20
6.277040
  0
VERTEX
  8
0
  6
CONTINUOUS
 10
6.607920
 20
6.316200
  0
VERTEX
  8
0
  6
CONTINUOUS
 10
6.610560
 20
6.343480
  0
VERTEX
  8
0
  6
CONTINUOUS
 10
6.610560
 20
6.370760
  0
VERTEX
  8
0
  6
CONTINUOUS
 10
6.607920
 20
6.398040
  0
VERTEX
  8
0
  6
CONTINUOUS
 10
6.598680
 20
6.437200
  0
VERTEX
  8
0
  6
CONTINUOUS
 10
6.583720
 20
6.474160
  0
VERTEX
  8
0
  6
CONTINUOUS
 10
6.563480
 20
6.508480
  0
VERTEX
  8
0
  6
CONTINUOUS
 10
6.547640
 20
6.529600
  0
VERTEX
  8
0
  6
CONTINUOUS
 10
6.530040
 20
6.548960
  0
VERTEX
  8
0
  6
CONTINUOUS
 10
6.510680
 20
6.566560
  0
VERTEX
  8
0
  6
CONTINUOUS
 10
6.478560
 20
6.589880
  0
VERTEX
  8
0
  6
CONTINUOUS
 10
6.443360
 20
6.607920
  0
VERTEX
  8
0
  6
CONTINUOUS
 10
6.418280
 20
6.617600
  0
VERTEX
  8
0
  6
CONTINUOUS
 10
6.379120
 20
6.626840
  0
VERTEX
  8
0
  6
CONTINUOUS
 10
6.351840
 20
6.629480
  0
VERTEX
  8
0
  6
CONTINUOUS
 10
6.338200
 20
6.629920
  0
VERTEX
  8
0
  6
CONTINUOUS
 10
6.334240
 20
6.632120
  0
VERTEX
  8
0
  6
CONTINUOUS
 10
6.334240
 20
6.742560
  0
VERTEX
  8
0
  6
CONTINUOUS
 10
6.615400
 20
6.742560
  0
VERTEX
  8
0
  6
CONTINUOUS
 10
6.616720
 20
7.255600
  0
VERTEX
  8
0
  6
CONTINUOUS
 10
6.620240
 20
7.458440
  0
VERTEX
  8
0
  6
CONTINUOUS
 10
6.625960
 20
7.645880
  0
VERTEX
  8
0
  6
CONTINUOUS
 10
6.635640
 20
7.818360
  0
VERTEX
  8
0
  6
CONTINUOUS
 10
6.646200
 20
7.938040
  0
VERTEX
  8
0
  6
CONTINUOUS
 10
6.658960
 20
8.048920
  0
VERTEX
  8
0
  6
CONTINUOUS
 10
6.675680
 20
8.151440
  0
VERTEX
  8
0
  6
CONTINUOUS
 10
6.695480
 20
8.245160
  0
VERTEX
  8
0
  6
CONTINUOUS
 10
6.719680
 20
8.330960
  0
VERTEX
  8
0
  6
CONTINUOUS
 10
6.738160
 20
8.383320
  0
VERTEX
  8
0
  6
CONTINUOUS
 10
6.769840
 20
8.454600
  0
VERTEX
  8
0
  6
CONTINUOUS
 10
6.806800
 20
8.517960
  0
VERTEX
  8
0
  6
CONTINUOUS
 10
6.834080
 20
8.555360
  0
VERTEX
  8
0
  6
CONTINUOUS
 10
6.864000
 20
8.589240
  0
VERTEX
  8
0
  6
CONTINUOUS
 10
6.896560
 20
8.619600
  0
VERTEX
  8
0
  6
CONTINUOUS
 10
6.932200
 20
8.646000
  0
VERTEX
  8
0
  6
CONTINUOUS
 10
6.970040
 20
8.668880
  0
VERTEX
  8
0
  6
CONTINUOUS
 10
7.011400
 20
8.687800
  0
VERTEX
  8
0
  6
CONTINUOUS
 10
7.055400
 20
8.703200
  0
VERTEX
  8
0
  6
CONTINUOUS
 10
7.102480
 20
8.715080
  0
VERTEX
  8
0
  6
CONTINUOUS
 10
7.153080
 20
8.723440
  0
VERTEX
  8
0
  6
CONTINUOUS
 10
7.207200
 20
8.727840
  0
VERTEX
  8
0
  6
CONTINUOUS
 10
7.223480
 20
8.744560
  0
SEQEND
  8
0
  0
SOLID
  8
0
 62
    15
 10
6.399360
 20
1.156760
 11
7.046600
 21
1.524600
 12
6.339960
 22
1.070080
 13
6.987640
 23
1.437920
  0
POLYLINE
  8
0
  6
CONTINUOUS
 66
     1
 40
0.000000
 41
0.000000
  0
VERTEX
  8
0
  6
CONTINUOUS
 10
6.399360
 20
1.156760
  0
VERTEX
  8
0
  6
CONTINUOUS
 10
7.046600
 20
1.524600
  0
VERTEX
  8
0
  6
CONTINUOUS
 10
6.987640
 20
1.437920
  0
VERTEX
  8
0
  6
CONTINUOUS
 10
6.339960
 20
1.070080
  0
VERTEX
  8
0
  6
CONTINUOUS
 10
6.399360
 20
1.156760
  0
SEQEND
  8
0
  0
SOLID
  8
0
 62
    15
 10
7.033840
 20
3.649360
 11
7.681080
 21
4.017200
 12
7.017120
 22
3.632640
 13
7.664360
 23
4.000480
  0
POLYLINE
  8
0
  6
CONTINUOUS
 66
     1
 40
0.000000
 41
0.000000
  0
VERTEX
  8
0
  6
CONTINUOUS
 10
7.033840
 20
3.649360
  0
VERTEX
  8
0
  6
CONTINUOUS
 10
7.681080
 20
4.017200
  0
VERTEX
  8
0
  6
CONTINUOUS
 10
7.664360
 20
4.000480
  0
VERTEX
  8
0
  6
CONTINUOUS
 10
7.017120
 20
3.632640
  0
VERTEX
  8
0
  6
CONTINUOUS
 10
7.033840
 20
3.649360
  0
SEQEND
  8
0
  0
SOLID
  8
0
 62
    15
 10
6.498360
 20
3.119600
 11
7.146040
 21
3.487440
 12
6.456120
 22
2.842840
 13
7.103360
 23
3.210680
  0
POLYLINE
  8
0
  6
CONTINUOUS
 66
     1
 40
0.000000
 41
0.000000
  0
VERTEX
  8
0
  6
CONTINUOUS
 10
6.498360
 20
3.119600
  0
VERTEX
  8
0
  6
CONTINUOUS
 10
7.146040
 20
3.487440
  0
VERTEX
  8
0
  6
CONTINUOUS
 10
7.103360
 20
3.210680
  0
VERTEX
  8
0
  6
CONTINUOUS
 10
6.456120
 20
2.842840
  0
VERTEX
  8
0
  6
CONTINUOUS
 10
6.498360
 20
3.119600
  0
SEQEND
  8
0
  0
SOLID
  8
0
 62
    15
 10
6.568760
 20
3.336520
 11
7.216000
 21
3.704360
 12
6.498360
 22
3.119600
 13
7.146040
 23
3.487440
  0
POLYLINE
  8
0
  6
CONTINUOUS
 66
     1
 40
0.000000
 41
0.000000
  0
VERTEX
  8
0
  6
CONTINUOUS
 10
6.568760
 20
3.336520
  0
VERTEX
  8
0
  6
CONTINUOUS
 10
7.216000
 20
3.704360
  0
VERTEX
  8
0
  6
CONTINUOUS
 10
7.146040
 20
3.487440
  0
VERTEX
  8
0
  6
CONTINUOUS
 10
6.498360
 20
3.119600
  0
VERTEX
  8
0
  6
CONTINUOUS
 10
6.568760
 20
3.336520
  0
SEQEND
  8
0
  0
SOLID
  8
0
 62
    15
 10
6.456120
 20
2.842840
 11
7.103360
 21
3.210680
 12
6.434120
 22
2.505360
 13
7.081360
 23
2.873200
  0
POLYLINE
  8
0
  6
CONTINUOUS
 66
     1
 40
0.000000
 41
0.000000
  0
VERTEX
  8
0
  6
CONTINUOUS
 10
6.456120
 20
2.842840
  0
VERTEX
  8
0
  6
CONTINUOUS
 10
7.103360
 20
3.210680
  0
VERTEX
  8
0
  6
CONTINUOUS
 10
7.081360
 20
2.873200
  0
VERTEX
  8
0
  6
CONTINUOUS
 10
6.434120
 20
2.505360
  0
VERTEX
  8
0
  6
CONTINUOUS
 10
6.456120
 20
2.842840
  0
SEQEND
  8
0
  0
SOLID
  8
0
 62
    15
 10
6.434120
 20
2.505360
 11
7.081360
 21
2.873200
 12
6.426200
 22
2.107160
 13
7.073880
 23
2.475000
  0
POLYLINE
  8
0
  6
CONTINUOUS
 66
     1
 40
0.000000
 41
0.000000
  0
VERTEX
  8
0
  6
CONTINUOUS
 10
6.434120
 20
2.505360
  0
VERTEX
  8
0
  6
CONTINUOUS
 10
7.081360
 20
2.873200
  0
VERTEX
  8
0
  6
CONTINUOUS
 10
7.073880
 20
2.475000
  0
VERTEX
  8
0
  6
CONTINUOUS
 10
6.426200
 20
2.107160
  0
VERTEX
  8
0
  6
CONTINUOUS
 10
6.434120
 20
2.505360
  0
SEQEND
  8
0
  0
SOLID
  8
0
 62
    15
 10
6.144160
 20
1.647360
 11
6.791400
 21
2.015200
 12
6.144160
 22
1.536920
 13
6.791400
 23
1.904760
  0
POLYLINE
  8
0
  6
CONTINUOUS
 66
     1
 40
0.000000
 41
0.000000
  0
VERTEX
  8
0
  6
CONTINUOUS
 10
6.144160
 20
1.647360
  0
VERTEX
  8
0
  6
CONTINUOUS
 10
6.791400
 20
2.015200
  0
VERTEX
  8
0
  6
CONTINUOUS
 10
6.791400
 20
1.904760
  0
VERTEX
  8
0
  6
CONTINUOUS
 10
6.144160
 20
1.536920
  0
VERTEX
  8
0
  6
CONTINUOUS
 10
6.144160
 20
1.647360
  0
SEQEND
  8
0
  0
SOLID
  8
0
 62
    15
 10
6.144160
 20
1.536920
 11
6.791400
 21
1.904760
 12
6.148120
 22
1.534720
 13
6.795800
 23
1.902560
  0
POLYLINE
  8
0
  6
CONTINUOUS
 66
     1
 40
0.000000
 41
0.000000
  0
VERTEX
  8
0
  6
CONTINUOUS
 10
6.144160
 20
1.536920
  0
VERTEX
  8
0
  6
CONTINUOUS
 10
6.791400
 20
1.904760
  0
VERTEX
  8
0
  6
CONTINUOUS
 10
6.795800
 20
1.902560
  0
VERTEX
  8
0
  6
CONTINUOUS
 10
6.148120
 20
1.534720
  0
VERTEX
  8
0
  6
CONTINUOUS
 10
6.144160
 20
1.536920
  0
SEQEND
  8
0
  0
SOLID
  8
0
 62
    15
 10
5.758720
 20
1.261920
 11
6.405960
 21
1.629760
 12
5.758720
 22
0.974160
 13
6.405960
 23
1.342000
  0
POLYLINE
  8
0
  6
CONTINUOUS
 66
     1
 40
0.000000
 41
0.000000
  0
VERTEX
  8
0
  6
CONTINUOUS
 10
5.758720
 20
1.261920
  0
VERTEX
  8
0
  6
CONTINUOUS
 10
6.405960
 20
1.629760
  0
VERTEX
  8
0
  6
CONTINUOUS
 10
6.405960
 20
1.342000
  0
VERTEX
  8
0
  6
CONTINUOUS
 10
5.758720
 20
0.974160
  0
VERTEX
  8
0
  6
CONTINUOUS
 10
5.758720
 20
1.261920
  0
SEQEND
  8
0
  0
SOLID
  8
0
 62
    15
 10
6.148120
 20
1.534720
 11
6.795800
 21
1.902560
 12
6.253280
 22
1.512720
 13
6.900520
 23
1.881000
  0
POLYLINE
  8
0
  6
CONTINUOUS
 66
     1
 40
0.000000
 41
0.000000
  0
VERTEX
  8
0
  6
CONTINUOUS
 10
6.148120
 20
1.534720
  0
VERTEX
  8
0
  6
CONTINUOUS
 10
6.795800
 20
1.902560
  0
VERTEX
  8
0
  6
CONTINUOUS
 10
6.900520
 20
1.881000
  0
VERTEX
  8
0
  6
CONTINUOUS
 10
6.253280
 20
1.512720
  0
VERTEX
  8
0
  6
CONTINUOUS
 10
6.148120
 20
1.534720
  0
SEQEND
  8
0
  0
SOLID
  8
0
 62
    15
 10
6.253280
 20
1.512720
 11
6.900520
 21
1.881000
 12
6.339960
 22
1.453760
 13
6.987640
 23
1.821600
  0
POLYLINE
  8
0
  6
CONTINUOUS
 66
     1
 40
0.000000
 41
0.000000
  0
VERTEX
  8
0
  6
CONTINUOUS
 10
6.253280
 20
1.512720
  0
VERTEX
  8
0
  6
CONTINUOUS
 10
6.900520
 20
1.881000
  0
VERTEX
  8
0
  6
CONTINUOUS
 10
6.987640
 20
1.821600
  0
VERTEX
  8
0
  6
CONTINUOUS
 10
6.339960
 20
1.453760
  0
VERTEX
  8
0
  6
CONTINUOUS
 10
6.253280
 20
1.512720
  0
SEQEND
  8
0
  0
SOLID
  8
0
 62
    15
 10
6.339960
 20
1.453760
 11
6.987640
 21
1.821600
 12
6.399360
 22
1.367080
 13
7.046600
 23
1.734920
  0
POLYLINE
  8
0
  6
CONTINUOUS
 66
     1
 40
0.000000
 41
0.000000
  0
VERTEX
  8
0
  6
CONTINUOUS
 10
6.339960
 20
1.453760
  0
VERTEX
  8
0
  6
CONTINUOUS
 10
6.987640
 20
1.821600
  0
VERTEX
  8
0
  6
CONTINUOUS
 10
7.046600
 20
1.734920
  0
VERTEX
  8
0
  6
CONTINUOUS
 10
6.399360
 20
1.367080
  0
VERTEX
  8
0
  6
CONTINUOUS
 10
6.339960
 20
1.453760
  0
SEQEND
  8
0
  0
SOLID
  8
0
 62
    15
 10
6.421360
 20
1.261920
 11
7.068600
 21
1.629760
 12
6.399360
 22
1.156760
 13
7.046600
 23
1.524600
  0
POLYLINE
  8
0
  6
CONTINUOUS
 66
     1
 40
0.000000
 41
0.000000
  0
VERTEX
  8
0
  6
CONTINUOUS
 10
6.421360
 20
1.261920
  0
VERTEX
  8
0
  6
CONTINUOUS
 10
7.068600
 20
1.629760
  0
VERTEX
  8
0
  6
CONTINUOUS
 10
7.046600
 20
1.524600
  0
VERTEX
  8
0
  6
CONTINUOUS
 10
6.399360
 20
1.156760
  0
VERTEX
  8
0
  6
CONTINUOUS
 10
6.421360
 20
1.261920
  0
SEQEND
  8
0
  0
SOLID
  8
0
 62
    15
 10
6.399360
 20
1.367080
 11
7.046600
 21
1.734920
 12
6.421360
 22
1.261920
 13
7.068600
 23
1.629760
  0
POLYLINE
  8
0
  6
CONTINUOUS
 66
     1
 40
0.000000
 41
0.000000
  0
VERTEX
  8
0
  6
CONTINUOUS
 10
6.399360
 20
1.367080
  0
VERTEX
  8
0
  6
CONTINUOUS
 10
7.046600
 20
1.734920
  0
VERTEX
  8
0
  6
CONTINUOUS
 10
7.068600
 20
1.629760
  0
VERTEX
  8
0
  6
CONTINUOUS
 10
6.421360
 20
1.261920
  0
VERTEX
  8
0
  6
CONTINUOUS
 10
6.399360
 20
1.367080
  0
SEQEND
  8
0
  0
SOLID
  8
0
 62
    15
 10
6.820880
 20
3.592600
 11
7.468560
 21
3.960440
 12
6.673920
 22
3.494040
 13
7.321160
 23
3.861880
  0
POLYLINE
  8
0
  6
CONTINUOUS
 66
     1
 40
0.000000
 41
0.000000
  0
VERTEX
  8
0
  6
CONTINUOUS
 10
6.820880
 20
3.592600
  0
VERTEX
  8
0
  6
CONTINUOUS
 10
7.468560
 20
3.960440
  0
VERTEX
  8
0
  6
CONTINUOUS
 10
7.321160
 20
3.861880
  0
VERTEX
  8
0
  6
CONTINUOUS
 10
6.673920
 20
3.494040
  0
VERTEX
  8
0
  6
CONTINUOUS
 10
6.820880
 20
3.592600
  0
SEQEND
  8
0
  0
SOLID
  8
0
 62
    15
 10
6.339960
 20
1.070080
 11
6.987640
 21
1.437920
 12
6.253280
 22
1.010680
 13
6.900520
 23
1.378520
  0
POLYLINE
  8
0
  6
CONTINUOUS
 66
     1
 40
0.000000
 41
0.000000
  0
VERTEX
  8
0
  6
CONTINUOUS
 10
6.339960
 20
1.070080
  0
VERTEX
  8
0
  6
CONTINUOUS
 10
6.987640
 20
1.437920
  0
VERTEX
  8
0
  6
CONTINUOUS
 10
6.900520
 20
1.378520
  0
VERTEX
  8
0
  6
CONTINUOUS
 10
6.253280
 20
1.010680
  0
VERTEX
  8
0
  6
CONTINUOUS
 10
6.339960
 20
1.070080
  0
SEQEND
  8
0
  0
SOLID
  8
0
 62
    15
 10
6.426200
 20
2.107160
 11
7.073880
 21
2.475000
 12
6.425320
 22
1.647360
 13
7.072560
 23
2.015200
  0
POLYLINE
  8
0
  6
CONTINUOUS
 66
     1
 40
0.000000
 41
0.000000
  0
VERTEX
  8
0
  6
CONTINUOUS
 10
6.426200
 20
2.107160
  0
VERTEX
  8
0
  6
CONTINUOUS
 10
7.073880
 20
2.475000
  0
VERTEX
  8
0
  6
CONTINUOUS
 10
7.072560
 20
2.015200
  0
VERTEX
  8
0
  6
CONTINUOUS
 10
6.425320
 20
1.647360
  0
VERTEX
  8
0
  6
CONTINUOUS
 10
6.426200
 20
2.107160
  0
SEQEND
  8
0
  0
SOLID
  8
0
 62
    15
 10
1.873080
 20
1.257520
 11
2.520760
 21
1.625360
 12
1.851520
 22
1.152800
 13
2.498760
 23
1.520640
  0
POLYLINE
  8
0
  6
CONTINUOUS
 66
     1
 40
0.000000
 41
0.000000
  0
VERTEX
  8
0
  6
CONTINUOUS
 10
1.873080
 20
1.257520
  0
VERTEX
  8
0
  6
CONTINUOUS
 10
2.520760
 20
1.625360
  0
VERTEX
  8
0
  6
CONTINUOUS
 10
2.498760
 20
1.520640
  0
VERTEX
  8
0
  6
CONTINUOUS
 10
1.851520
 20
1.152800
  0
VERTEX
  8
0
  6
CONTINUOUS
 10
1.873080
 20
1.257520
  0
SEQEND
  8
0
  0
SOLID
  8
0
 62
    15
 10
1.792120
 20
1.065680
 11
2.439360
 21
1.433520
 12
1.705440
 22
1.006720
 13
2.352680
 23
1.374560
  0
POLYLINE
  8
0
  6
CONTINUOUS
 66
     1
 40
0.000000
 41
0.000000
  0
VERTEX
  8
0
  6
CONTINUOUS
 10
1.792120
 20
1.065680
  0
VERTEX
  8
0
  6
CONTINUOUS
 10
2.439360
 20
1.433520
  0
VERTEX
  8
0
  6
CONTINUOUS
 10
2.352680
 20
1.374560
  0
VERTEX
  8
0
  6
CONTINUOUS
 10
1.705440
 20
1.006720
  0
VERTEX
  8
0
  6
CONTINUOUS
 10
1.792120
 20
1.065680
  0
SEQEND
  8
0
  0
SOLID
  8
0
 62
    15
 10
1.851520
 20
1.152800
 11
2.498760
 21
1.520640
 12
1.792120
 22
1.065680
 13
2.439360
 23
1.433520
  0
POLYLINE
  8
0
  6
CONTINUOUS
 66
     1
 40
0.000000
 41
0.000000
  0
VERTEX
  8
0
  6
CONTINUOUS
 10
1.851520
 20
1.152800
  0
VERTEX
  8
0
  6
CONTINUOUS
 10
2.498760
 20
1.520640
  0
VERTEX
  8
0
  6
CONTINUOUS
 10
2.439360
 20
1.433520
  0
VERTEX
  8
0
  6
CONTINUOUS
 10
1.792120
 20
1.065680
  0
VERTEX
  8
0
  6
CONTINUOUS
 10
1.851520
 20
1.152800
  0
SEQEND
  8
0
  0
SOLID
  8
0
 62
    15
 10
1.495120
 20
1.508760
 11
2.142360
 21
1.876600
 12
1.600280
 22
1.530760
 13
2.247520
 23
1.898600
  0
POLYLINE
  8
0
  6
CONTINUOUS
 66
     1
 40
0.000000
 41
0.000000
  0
VERTEX
  8
0
  6
CONTINUOUS
 10
1.495120
 20
1.508760
  0
VERTEX
  8
0
  6
CONTINUOUS
 10
2.142360
 20
1.876600
  0
VERTEX
  8
0
  6
CONTINUOUS
 10
2.247520
 20
1.898600
  0
VERTEX
  8
0
  6
CONTINUOUS
 10
1.600280
 20
1.530760
  0
VERTEX
  8
0
  6
CONTINUOUS
 10
1.495120
 20
1.508760
  0
SEQEND
  8
0
  0
SOLID
  8
0
 62
    15
 10
1.600280
 20
1.530760
 11
2.247520
 21
1.898600
 12
1.604680
 22
1.532520
 13
2.251920
 23
1.900360
  0
POLYLINE
  8
0
  6
CONTINUOUS
 66
     1
 40
0.000000
 41
0.000000
  0
VERTEX
  8
0
  6
CONTINUOUS
 10
1.600280
 20
1.530760
  0
VERTEX
  8
0
  6
CONTINUOUS
 10
2.247520
 20
1.898600
  0
VERTEX
  8
0
  6
CONTINUOUS
 10
2.251920
 20
1.900360
  0
VERTEX
  8
0
  6
CONTINUOUS
 10
1.604680
 20
1.532520
  0
VERTEX
  8
0
  6
CONTINUOUS
 10
1.600280
 20
1.530760
  0
SEQEND
  8
0
  0
SOLID
  8
0
 62
    15
 10
0.731720
 20
4.763880
 11
1.378960
 21
5.131720
 12
3.873320
 22
5.486800
 13
4.520560
 23
5.854640
  0
POLYLINE
  8
0
  6
CONTINUOUS
 66
     1
 40
0.000000
 41
0.000000
  0
VERTEX
  8
0
  6
CONTINUOUS
 10
0.731720
 20
4.763880
  0
VERTEX
  8
0
  6
CONTINUOUS
 10
1.378960
 20
5.131720
  0
VERTEX
  8
0
  6
CONTINUOUS
 10
4.520560
 20
5.854640
  0
VERTEX
  8
0
  6
CONTINUOUS
 10
3.873320
 20
5.486800
  0
VERTEX
  8
0
  6
CONTINUOUS
 10
0.731720
 20
4.763880
  0
SEQEND
  8
0
  0
SOLID
  8
0
 62
    15
 10
3.873320
 20
5.486800
 11
4.520560
 21
5.854640
 12
3.879480
 22
5.482840
 13
4.526720
 23
5.850680
  0
POLYLINE
  8
0
  6
CONTINUOUS
 66
     1
 40
0.000000
 41
0.000000
  0
VERTEX
  8
0
  6
CONTINUOUS
 10
3.873320
 20
5.486800
  0
VERTEX
  8
0
  6
CONTINUOUS
 10
4.520560
 20
5.854640
  0
VERTEX
  8
0
  6
CONTINUOUS
 10
4.526720
 20
5.850680
  0
VERTEX
  8
0
  6
CONTINUOUS
 10
3.879480
 20
5.482840
  0
VERTEX
  8
0
  6
CONTINUOUS
 10
3.873320
 20
5.486800
  0
SEQEND
  8
0
  0
SOLID
  8
0
 62
    15
 10
3.879480
 20
5.482840
 11
4.526720
 21
5.850680
 12
7.017120
 22
4.768280
 13
7.664360
 23
5.136120
  0
POLYLINE
  8
0
  6
CONTINUOUS
 66
     1
 40
0.000000
 41
0.000000
  0
VERTEX
  8
0
  6
CONTINUOUS
 10
3.879480
 20
5.482840
  0
VERTEX
  8
0
  6
CONTINUOUS
 10
4.526720
 20
5.850680
  0
VERTEX
  8
0
  6
CONTINUOUS
 10
7.664360
 20
5.136120
  0
VERTEX
  8
0
  6
CONTINUOUS
 10
7.017120
 20
4.768280
  0
VERTEX
  8
0
  6
CONTINUOUS
 10
3.879480
 20
5.482840
  0
SEQEND
  8
0
  0
SOLID
  8
0
 62
    15
 10
7.017120
 20
4.768280
 11
7.664360
 21
5.136120
 12
7.033840
 22
4.751560
 13
7.681080
 23
5.119400
  0
POLYLINE
  8
0
  6
CONTINUOUS
 66
     1
 40
0.000000
 41
0.000000
  0
VERTEX
  8
0
  6
CONTINUOUS
 10
7.017120
 20
4.768280
  0
VERTEX
  8
0
  6
CONTINUOUS
 10
7.664360
 20
5.136120
  0
VERTEX
  8
0
  6
CONTINUOUS
 10
7.681080
 20
5.119400
  0
VERTEX
  8
0
  6
CONTINUOUS
 10
7.033840
 20
4.751560
  0
VERTEX
  8
0
  6
CONTINUOUS
 10
7.017120
 20
4.768280
  0
SEQEND
  8
0
  0
SOLID
  8
0
 62
    15
 10
6.673920
 20
3.494040
 11
7.321160
 21
3.861880
 12
6.568760
 22
3.336520
 13
7.216000
 23
3.704360
  0
POLYLINE
  8
0
  6
CONTINUOUS
 66
     1
 40
0.000000
 41
0.000000
  0
VERTEX
  8
0
  6
CONTINUOUS
 10
6.673920
 20
3.494040
  0
VERTEX
  8
0
  6
CONTINUOUS
 10
7.321160
 20
3.861880
  0
VERTEX
  8
0
  6
CONTINUOUS
 10
7.216000
 20
3.704360
  0
VERTEX
  8
0
  6
CONTINUOUS
 10
6.568760
 20
3.336520
  0
VERTEX
  8
0
  6
CONTINUOUS
 10
6.673920
 20
3.494040
  0
SEQEND
  8
0
  0
SOLID
  8
0
 62
    15
 10
7.033840
 20
4.751560
 11
7.681080
 21
5.119400
 12
7.033840
 22
3.649360
 13
7.681080
 23
4.017200
  0
POLYLINE
  8
0
  6
CONTINUOUS
 66
     1
 40
0.000000
 41
0.000000
  0
VERTEX
  8
0
  6
CONTINUOUS
 10
7.033840
 20
4.751560
  0
VERTEX
  8
0
  6
CONTINUOUS
 10
7.681080
 20
5.119400
  0
VERTEX
  8
0
  6
CONTINUOUS
 10
7.681080
 20
4.017200
  0
VERTEX
  8
0
  6
CONTINUOUS
 10
7.033840
 20
3.649360
  0
VERTEX
  8
0
  6
CONTINUOUS
 10
7.033840
 20
4.751560
  0
SEQEND
  8
0
  0
POLYLINE
  8
0
  6
CONTINUOUS
 66
     1
 40
0.000000
 41
0.000000
  0
VERTEX
  8
0
  6
CONTINUOUS
 10
7.017120
 20
3.632640
  0
VERTEX
  8
0
  6
CONTINUOUS
 10
6.820880
 20
3.592600
  0
VERTEX
  8
0
  6
CONTINUOUS
 10
6.673920
 20
3.494040
  0
VERTEX
  8
0
  6
CONTINUOUS
 10
6.568760
 20
3.336520
  0
VERTEX
  8
0
  6
CONTINUOUS
 10
6.498360
 20
3.119600
  0
VERTEX
  8
0
  6
CONTINUOUS
 10
6.456120
 20
2.842840
  0
VERTEX
  8
0
  6
CONTINUOUS
 10
6.434120
 20
2.505360
  0
VERTEX
  8
0
  6
CONTINUOUS
 10
6.426200
 20
2.107160
  0
VERTEX
  8
0
  6
CONTINUOUS
 10
6.425320
 20
1.647360
  0
VERTEX
  8
0
  6
CONTINUOUS
 10
6.144160
 20
1.647360
  0
VERTEX
  8
0
  6
CONTINUOUS
 10
6.144160
 20
1.536920
  0
VERTEX
  8
0
  6
CONTINUOUS
 10
6.148120
 20
1.534720
  0
VERTEX
  8
0
  6
CONTINUOUS
 10
6.253280
 20
1.512720
  0
VERTEX
  8
0
  6
CONTINUOUS
 10
6.339960
 20
1.453760
  0
VERTEX
  8
0
  6
CONTINUOUS
 10
6.399360
 20
1.367080
  0
VERTEX
  8
0
  6
CONTINUOUS
 10
6.421360
 20
1.261920
  0
VERTEX
  8
0
  6
CONTINUOUS
 10
6.399360
 20
1.156760
  0
VERTEX
  8
0
  6
CONTINUOUS
 10
6.339960
 20
1.070080
  0
VERTEX
  8
0
  6
CONTINUOUS
 10
6.253280
 20
1.010680
  0
VERTEX
  8
0
  6
CONTINUOUS
 10
6.148120
 20
0.989120
  0
VERTEX
  8
0
  6
CONTINUOUS
 10
6.043400
 20
1.010680
  0
VERTEX
  8
0
  6
CONTINUOUS
 10
5.956280
 20
1.070080
  0
VERTEX
  8
0
  6
CONTINUOUS
 10
5.897320
 20
1.156760
  0
VERTEX
  8
0
  6
CONTINUOUS
 10
5.875320
 20
1.261920
  0
VERTEX
  8
0
  6
CONTINUOUS
 10
5.758720
 20
1.261920
  0
VERTEX
  8
0
  6
CONTINUOUS
 10
5.758720
 20
0.974160
  0
VERTEX
  8
0
  6
CONTINUOUS
 10
1.990120
 20
0.974160
  0
VERTEX
  8
0
  6
CONTINUOUS
 10
1.990120
 20
1.257520
  0
VERTEX
  8
0
  6
CONTINUOUS
 10
1.873080
 20
1.257520
  0
VERTEX
  8
0
  6
CONTINUOUS
 10
1.851520
 20
1.152800
  0
VERTEX
  8
0
  6
CONTINUOUS
 10
1.792120
 20
1.065680
  0
VERTEX
  8
0
  6
CONTINUOUS
 10
1.705440
 20
1.006720
  0
VERTEX
  8
0
  6
CONTINUOUS
 10
1.600280
 20
0.984720
  0
VERTEX
  8
0
  6
CONTINUOUS
 10
1.495120
 20
1.006720
  0
VERTEX
  8
0
  6
CONTINUOUS
 10
1.408440
 20
1.065680
  0
VERTEX
  8
0
  6
CONTINUOUS
 10
1.349040
 20
1.152800
  0
VERTEX
  8
0
  6
CONTINUOUS
 10
1.327480
 20
1.257520
  0
VERTEX
  8
0
  6
CONTINUOUS
 10
1.349040
 20
1.362680
  0
VERTEX
  8
0
  6
CONTINUOUS
 10
1.408440
 20
1.449800
  0
VERTEX
  8
0
  6
CONTINUOUS
 10
1.495120
 20
1.508760
  0
VERTEX
  8
0
  6
CONTINUOUS
 10
1.600280
 20
1.530760
  0
VERTEX
  8
0
  6
CONTINUOUS
 10
1.604680
 20
1.532520
  0
VERTEX
  8
0
  6
CONTINUOUS
 10
1.604680
 20
1.642960
  0
VERTEX
  8
0
  6
CONTINUOUS
 10
1.323080
 20
1.642960
  0
VERTEX
  8
0
  6
CONTINUOUS
 10
1.322200
 20
2.102760
  0
VERTEX
  8
0
  6
CONTINUOUS
 10
1.314280
 20
2.501400
  0
VERTEX
  8
0
  6
CONTINUOUS
 10
1.292720
 20
2.838440
  0
VERTEX
  8
0
  6
CONTINUOUS
 10
1.250040
 20
3.115640
  0
VERTEX
  8
0
  6
CONTINUOUS
 10
1.179640
 20
3.332560
  0
VERTEX
  8
0
  6
CONTINUOUS
 10
1.074480
 20
3.490080
  0
VERTEX
  8
0
  6
CONTINUOUS
 10
0.927520
 20
3.588640
  0
VERTEX
  8
0
  6
CONTINUOUS
 10
0.731720
 20
3.628680
  0
VERTEX
  8
0
  6
CONTINUOUS
 10
0.715000
 20
3.645400
  0
VERTEX
  8
0
  6
CONTINUOUS
 10
0.715000
 20
4.747160
  0
VERTEX
  8
0
  6
CONTINUOUS
 10
0.731720
 20
4.763880
  0
VERTEX
  8
0
  6
CONTINUOUS
 10
3.873320
 20
5.486800
  0
VERTEX
  8
0
  6
CONTINUOUS
 10
3.879480
 20
5.482840
  0
VERTEX
  8
0
  6
CONTINUOUS
 10
7.017120
 20
4.768280
  0
VERTEX
  8
0
  6
CONTINUOUS
 10
7.033840
 20
4.751560
  0
VERTEX
  8
0
  6
CONTINUOUS
 10
7.033840
 20
3.649360
  0
VERTEX
  8
0
  6
CONTINUOUS
 10
7.017120
 20
3.632640
  0
SEQEND
  8
0
  0
TEXT
  8
0
 10
3.901920
 20
0.688600
 40
0.137985
  1
BA  714
 41
1.000000
  7
SN0
 71
     0
 72
     5
 11
4.492865
 21
0.688600
  0
TEXT
  8
0
 10
3.626480
 20
0.497200
 40
0.137985
  1
4-1/2" x 6-5/16"
 41
1.000000
  7
SN0
 71
     0
 72
     5
 11
4.767825
 21
0.497200
  0
ENDSEC
  0
EOF
