  0
SECTION
  2
HEADER
  9
$ACADVER
  1
AC1006
  9
$EXTMIN
 10
0.418000
 20
0.349800
  9
$EXTMAX
 10
7.850040
 20
10.022320
  9
$LTSCALE
 40
0.044000
  9
$PDMODE
 70
    35
  9
$PDSIZE
 40
0.035200
  0
ENDSEC
  0
SECTION
  2
TABLES
  0
TABLE
  2
LTYPE
 70
     9
  0
LTYPE
  2
CONTINUOUS
 70
    64
  3
Solid line
 72
    65
 73
     0
 40
0.000000
  0
LTYPE
  2
DASHED
 70
    64
  3
__ __ __ __ __ __ __ __ __ __ __ __ __ __ __
 72
    65
 73
     2
 40
0.000330
 49
0.000220
 49
-0.000110
  0
LTYPE
  2
HIDDEN
 70
    64
  3
 _ _ _ _ _ _ _ _ _ _ _ _ _ _ _ _ _ _ _ _ _ _
 72
    65
 73
     2
 40
0.000165
 49
0.000110
 49
-0.000055
  0
LTYPE
  2
CENTER
 70
    64
  3
____ _ ____ _ ____ _ ____ _ ____ _ ____ _ ____
 72
    65
 73
     4
 40
0.000880
 49
0.000550
 49
-0.000110
 49
0.000110
 49
-0.000110
  0
LTYPE
  2
PHANTOM
 70
    64
  3
_____ _ _ _____ _ _ _____ _ _ _____ _ _ ____
 72
    65
 73
     6
 40
0.001100
 49
0.000550
 49
-0.000110
 49
0.000110
 49
-0.000110
 49
0.000110
 49
-0.000110
  0
LTYPE
  2
DOT
 70
    64
  3
...............................................
 72
    65
 73
     2
 40
0.000110
 49
0.000000
 49
-0.000110
  0
LTYPE
  2
DASHDOT
 70
    64
  3
__ . __ . __ . __ . __ . __ . __ . __ . __ . __
 72
    65
 73
     4
 40
0.000440
 49
0.000220
 49
-0.000110
 49
0.000000
 49
-0.000110
  0
LTYPE
  2
BORDER
 70
    64
  3
__ __ . __ __ . __ __ . __ __ . __ __ . __ __
 72
    65
 73
     6
 40
0.000770
 49
0.000220
 49
-0.000110
 49
0.000220
 49
-0.000110
 49
0.000000
 49
-0.000110
  0
LTYPE
  2
DIVIDE
 70
    64
  3
__ . . __ . . __ . . __ . . __ . . __ . . __
 72
    65
 73
     6
 40
0.000550
 49
0.000220
 49
-0.000110
 49
0.000000
 49
-0.000110
 49
0.000000
 49
-0.000110
  0
LTYPE
  2
DOTDOT
 70
    64
  3
 . .  . .  . .  . .  . .  . . 
 72
    65
 73
     5
 40
0.000242
 49
-0.000110
 49
0.000000
 49
-0.000110
 49
0.000000
 49
-0.000110
  0
ENDTAB
  0
TABLE
  2
STYLE
 70
     2
  0
STYLE
 70
     0
  2
SN0
 40
0.000000
 41
0.000440
 50
0.000000
 71
     0
 42
0.000000
  3
ROMAND
  0
STYLE
 70
    68
  2
SV0
 40
0.000000
 41
0.000440
 50
0.000000
 71
     0
 42
0.000000
  3
ROMAND
  0
ENDTAB
  0
TABLE
  2
LAYER
 70
     3
  0
LAYER
  2
FOREGROUND
 70
    64
 62
     7
  6
CONTINUOUS
  0
LAYER
  2
BACKGROUND
 70
    65
 62
    -7
  6
CONTINUOUS
  0
LAYER
  2
0
 70
    64
 62
     7
  6
CONTINUOUS
  0
ENDTAB
  0
ENDSEC
  0
SECTION
  2
ENTITIES
  0
POLYLINE
  8
FOREGROUND
  6
CONTINUOUS
 66
     1
 40
0.000000
 41
0.000000
  0
VERTEX
  8
FOREGROUND
  6
CONTINUOUS
 10
0.000000
 20
10.372120
  0
VERTEX
  8
FOREGROUND
  6
CONTINUOUS
 10
8.499920
 20
10.372120
  0
VERTEX
  8
FOREGROUND
  6
CONTINUOUS
 10
8.499920
 20
-0.627880
  0
VERTEX
  8
FOREGROUND
  6
CONTINUOUS
 10
0.000000
 20
-0.627880
  0
VERTEX
  8
FOREGROUND
  6
CONTINUOUS
 10
0.000000
 20
10.372120
  0
SEQEND
  8
0
  0
POLYLINE
  8
FOREGROUND
  6
CONTINUOUS
 66
     1
 40
0.000000
 41
0.000000
  0
VERTEX
  8
FOREGROUND
  6
CONTINUOUS
 10
0.000000
 20
10.372120
  0
VERTEX
  8
FOREGROUND
  6
CONTINUOUS
 10
8.499920
 20
10.372120
  0
VERTEX
  8
FOREGROUND
  6
CONTINUOUS
 10
8.499920
 20
-0.627880
  0
VERTEX
  8
FOREGROUND
  6
CONTINUOUS
 10
0.000000
 20
-0.627880
  0
VERTEX
  8
FOREGROUND
  6
CONTINUOUS
 10
0.000000
 20
10.372120
  0
SEQEND
  8
0
  0
POLYLINE
  8
0
  6
CONTINUOUS
 66
     1
 40
0.012320
 41
0.012320
  0
VERTEX
  8
0
  6
CONTINUOUS
 10
2.322320
 20
4.760360
  0
VERTEX
  8
0
  6
CONTINUOUS
 10
2.324520
 20
3.618560
  0
VERTEX
  8
0
  6
CONTINUOUS
 10
2.322760
 20
3.613280
  0
VERTEX
  8
0
  6
CONTINUOUS
 10
2.508440
 20
3.613280
  0
VERTEX
  8
0
  6
CONTINUOUS
 10
2.511520
 20
3.605800
  0
VERTEX
  8
0
  6
CONTINUOUS
 10
2.543640
 20
3.605360
  0
VERTEX
  8
0
  6
CONTINUOUS
 10
2.575320
 20
3.602280
  0
VERTEX
  8
0
  6
CONTINUOUS
 10
2.607000
 20
3.597440
  0
VERTEX
  8
0
  6
CONTINUOUS
 10
2.637800
 20
3.590840
  0
VERTEX
  8
0
  6
CONTINUOUS
 10
2.698520
 20
3.571040
  0
VERTEX
  8
0
  6
CONTINUOUS
 10
2.755720
 20
3.543320
  0
VERTEX
  8
0
  6
CONTINUOUS
 10
2.783440
 20
3.526600
  0
VERTEX
  8
0
  6
CONTINUOUS
 10
2.809400
 20
3.508120
  0
VERTEX
  8
0
  6
CONTINUOUS
 10
2.834920
 20
3.487440
  0
VERTEX
  8
0
  6
CONTINUOUS
 10
2.858680
 20
3.465000
  0
VERTEX
  8
0
  6
CONTINUOUS
 10
2.881120
 20
3.441240
  0
VERTEX
  8
0
  6
CONTINUOUS
 10
2.902240
 20
3.415280
  0
VERTEX
  8
0
  6
CONTINUOUS
 10
2.921600
 20
3.388000
  0
VERTEX
  8
0
  6
CONTINUOUS
 10
2.951520
 20
3.336520
  0
VERTEX
  8
0
  6
CONTINUOUS
 10
2.971760
 20
3.291200
  0
VERTEX
  8
0
  6
CONTINUOUS
 10
2.987160
 20
3.245000
  0
VERTEX
  8
0
  6
CONTINUOUS
 10
2.997720
 20
3.197920
  0
VERTEX
  8
0
  6
CONTINUOUS
 10
3.003440
 20
3.149960
  0
VERTEX
  8
0
  6
CONTINUOUS
 10
3.004760
 20
3.102440
  0
VERTEX
  8
0
  6
CONTINUOUS
 10
3.001240
 20
3.054920
  0
VERTEX
  8
0
  6
CONTINUOUS
 10
2.993320
 20
3.007840
  0
VERTEX
  8
0
  6
CONTINUOUS
 10
2.981000
 20
2.962080
  0
VERTEX
  8
0
  6
CONTINUOUS
 10
2.964280
 20
2.917200
  0
VERTEX
  8
0
  6
CONTINUOUS
 10
2.943600
 20
2.874520
  0
VERTEX
  8
0
  6
CONTINUOUS
 10
2.918960
 20
2.833600
  0
VERTEX
  8
0
  6
CONTINUOUS
 10
2.889920
 20
2.795320
  0
VERTEX
  8
0
  6
CONTINUOUS
 10
2.857360
 20
2.759680
  0
VERTEX
  8
0
  6
CONTINUOUS
 10
2.820840
 20
2.727120
  0
VERTEX
  8
0
  6
CONTINUOUS
 10
2.780800
 20
2.698520
  0
VERTEX
  8
0
  6
CONTINUOUS
 10
2.759240
 20
2.685320
  0
VERTEX
  8
0
  6
CONTINUOUS
 10
2.757040
 20
2.681360
  0
VERTEX
  8
0
  6
CONTINUOUS
 10
1.156760
 20
1.753400
  0
VERTEX
  8
0
  6
CONTINUOUS
 10
1.152800
 20
1.756040
  0
VERTEX
  8
0
  6
CONTINUOUS
 10
0.883080
 20
2.221120
  0
VERTEX
  8
0
  6
CONTINUOUS
 10
0.432520
 20
1.959760
  0
VERTEX
  8
0
  6
CONTINUOUS
 10
0.418440
 20
8.609920
  0
VERTEX
  8
0
  6
CONTINUOUS
 10
0.421960
 20
8.612120
  0
VERTEX
  8
0
  6
CONTINUOUS
 10
0.694760
 20
8.660520
  0
VERTEX
  8
0
  6
CONTINUOUS
 10
0.690360
 20
8.664040
  0
VERTEX
  8
0
  6
CONTINUOUS
 10
0.508200
 20
9.651840
  0
VERTEX
  8
0
  6
CONTINUOUS
 10
0.511720
 20
9.653600
  0
VERTEX
  8
0
  6
CONTINUOUS
 10
2.311320
 20
10.021440
  0
VERTEX
  8
0
  6
CONTINUOUS
 10
2.313960
 20
10.015720
  0
VERTEX
  8
0
  6
CONTINUOUS
 10
2.317480
 20
7.972360
  0
VERTEX
  8
0
  6
CONTINUOUS
 10
2.289320
 20
7.976320
  0
VERTEX
  8
0
  6
CONTINUOUS
 10
2.310880
 20
7.973240
  0
VERTEX
  8
0
  6
CONTINUOUS
 10
2.296360
 20
7.971920
  0
VERTEX
  8
0
  6
CONTINUOUS
 10
2.086920
 20
7.972360
  0
VERTEX
  8
0
  6
CONTINUOUS
 10
2.046000
 20
7.969720
  0
VERTEX
  8
0
  6
CONTINUOUS
 10
1.988360
 20
7.959600
  0
VERTEX
  8
0
  6
CONTINUOUS
 10
1.931600
 20
7.945080
  0
VERTEX
  8
0
  6
CONTINUOUS
 10
1.876600
 20
7.927040
  0
VERTEX
  8
0
  6
CONTINUOUS
 10
1.823360
 20
7.905040
  0
VERTEX
  8
0
  6
CONTINUOUS
 10
1.771000
 20
7.879520
  0
VERTEX
  8
0
  6
CONTINUOUS
 10
1.720400
 20
7.850480
  0
VERTEX
  8
0
  6
CONTINUOUS
 10
1.671560
 20
7.818360
  0
VERTEX
  8
0
  6
CONTINUOUS
 10
1.601600
 20
7.763360
  0
VERTEX
  8
0
  6
CONTINUOUS
 10
1.556720
 20
7.722880
  0
VERTEX
  8
0
  6
CONTINUOUS
 10
1.493360
 20
7.656440
  0
VERTEX
  8
0
  6
CONTINUOUS
 10
1.453320
 20
7.608920
  0
VERTEX
  8
0
  6
CONTINUOUS
 10
1.397000
 20
7.531920
  0
VERTEX
  8
0
  6
CONTINUOUS
 10
1.345520
 20
7.449200
  0
VERTEX
  8
0
  6
CONTINUOUS
 10
1.298440
 20
7.361200
  0
VERTEX
  8
0
  6
CONTINUOUS
 10
1.256640
 20
7.268360
  0
VERTEX
  8
0
  6
CONTINUOUS
 10
1.220120
 20
7.170680
  0
VERTEX
  8
0
  6
CONTINUOUS
 10
1.188440
 20
7.068600
  0
VERTEX
  8
0
  6
CONTINUOUS
 10
1.162920
 20
6.962560
  0
VERTEX
  8
0
  6
CONTINUOUS
 10
1.148840
 20
6.889960
  0
VERTEX
  8
0
  6
CONTINUOUS
 10
1.137400
 20
6.815600
  0
VERTEX
  8
0
  6
CONTINUOUS
 10
1.128600
 20
6.740360
  0
VERTEX
  8
0
  6
CONTINUOUS
 10
1.122440
 20
6.663800
  0
VERTEX
  8
0
  6
CONTINUOUS
 10
1.119360
 20
6.585920
  0
VERTEX
  8
0
  6
CONTINUOUS
 10
1.118920
 20
6.507160
  0
VERTEX
  8
0
  6
CONTINUOUS
 10
1.121120
 20
6.427080
  0
VERTEX
  8
0
  6
CONTINUOUS
 10
1.130360
 20
6.306080
  0
VERTEX
  8
0
  6
CONTINUOUS
 10
1.145760
 20
6.188600
  0
VERTEX
  8
0
  6
CONTINUOUS
 10
1.165560
 20
6.081680
  0
VERTEX
  8
0
  6
CONTINUOUS
 10
1.181400
 20
6.011720
  0
VERTEX
  8
0
  6
CONTINUOUS
 10
1.209560
 20
5.909640
  0
VERTEX
  8
0
  6
CONTINUOUS
 10
1.230680
 20
5.843200
  0
VERTEX
  8
0
  6
CONTINUOUS
 10
1.266760
 20
5.746400
  0
VERTEX
  8
0
  6
CONTINUOUS
 10
1.292720
 20
5.683480
  0
VERTEX
  8
0
  6
CONTINUOUS
 10
1.320880
 20
5.622320
  0
VERTEX
  8
0
  6
CONTINUOUS
 10
1.350800
 20
5.562480
  0
VERTEX
  8
0
  6
CONTINUOUS
 10
1.382480
 20
5.504840
  0
VERTEX
  8
0
  6
CONTINUOUS
 10
1.415920
 20
5.448520
  0
VERTEX
  8
0
  6
CONTINUOUS
 10
1.450680
 20
5.394400
  0
VERTEX
  8
0
  6
CONTINUOUS
 10
1.487200
 20
5.342040
  0
VERTEX
  8
0
  6
CONTINUOUS
 10
1.525040
 20
5.291440
  0
VERTEX
  8
0
  6
CONTINUOUS
 10
1.584000
 20
5.219720
  0
VERTEX
  8
0
  6
CONTINUOUS
 10
1.646040
 20
5.152840
  0
VERTEX
  8
0
  6
CONTINUOUS
 10
1.710720
 20
5.090800
  0
VERTEX
  8
0
  6
CONTINUOUS
 10
1.754720
 20
5.052080
  0
VERTEX
  8
0
  6
CONTINUOUS
 10
1.823360
 20
4.998840
  0
VERTEX
  8
0
  6
CONTINUOUS
 10
1.870000
 20
4.966280
  0
VERTEX
  8
0
  6
CONTINUOUS
 10
1.941280
 20
4.922280
  0
VERTEX
  8
0
  6
CONTINUOUS
 10
2.014320
 20
4.884440
  0
VERTEX
  8
0
  6
CONTINUOUS
 10
2.088240
 20
4.852320
  0
VERTEX
  8
0
  6
CONTINUOUS
 10
2.163480
 20
4.826800
  0
VERTEX
  8
0
  6
CONTINUOUS
 10
2.239600
 20
4.807440
  0
VERTEX
  8
0
  6
CONTINUOUS
 10
2.316160
 20
4.795120
  0
VERTEX
  8
0
  6
CONTINUOUS
 10
2.322320
 20
4.760360
  0
SEQEND
  8
0
  0
SOLID
  8
0
 62
    15
 10
6.179800
 20
6.140200
 11
6.805480
 21
5.780720
 12
6.196520
 22
6.127440
 13
6.822200
 23
5.767520
  0
POLYLINE
  8
0
  6
CONTINUOUS
 66
     1
 40
0.000000
 41
0.000000
  0
VERTEX
  8
0
  6
CONTINUOUS
 10
6.179800
 20
6.140200
  0
VERTEX
  8
0
  6
CONTINUOUS
 10
6.805480
 20
5.780720
  0
VERTEX
  8
0
  6
CONTINUOUS
 10
6.822200
 20
5.767520
  0
VERTEX
  8
0
  6
CONTINUOUS
 10
6.196520
 20
6.127440
  0
VERTEX
  8
0
  6
CONTINUOUS
 10
6.179800
 20
6.140200
  0
SEQEND
  8
0
  0
SOLID
  8
0
 62
    15
 10
4.024680
 20
2.352680
 11
4.650360
 21
1.993200
 12
4.020280
 22
2.348720
 13
4.645960
 23
1.989240
  0
POLYLINE
  8
0
  6
CONTINUOUS
 66
     1
 40
0.000000
 41
0.000000
  0
VERTEX
  8
0
  6
CONTINUOUS
 10
4.024680
 20
2.352680
  0
VERTEX
  8
0
  6
CONTINUOUS
 10
4.650360
 20
1.993200
  0
VERTEX
  8
0
  6
CONTINUOUS
 10
4.645960
 20
1.989240
  0
VERTEX
  8
0
  6
CONTINUOUS
 10
4.020280
 20
2.348720
  0
VERTEX
  8
0
  6
CONTINUOUS
 10
4.024680
 20
2.352680
  0
SEQEND
  8
0
  0
SOLID
  8
0
 62
    15
 10
4.020280
 20
2.348720
 11
4.645960
 21
1.989240
 12
4.180880
 22
2.255880
 13
4.806560
 23
1.896400
  0
POLYLINE
  8
0
  6
CONTINUOUS
 66
     1
 40
0.000000
 41
0.000000
  0
VERTEX
  8
0
  6
CONTINUOUS
 10
4.020280
 20
2.348720
  0
VERTEX
  8
0
  6
CONTINUOUS
 10
4.645960
 20
1.989240
  0
VERTEX
  8
0
  6
CONTINUOUS
 10
4.806560
 20
1.896400
  0
VERTEX
  8
0
  6
CONTINUOUS
 10
4.180880
 20
2.255880
  0
VERTEX
  8
0
  6
CONTINUOUS
 10
4.020280
 20
2.348720
  0
SEQEND
  8
0
  0
SOLID
  8
0
 62
    15
 10
4.180880
 20
2.255880
 11
4.806560
 21
1.896400
 12
4.180000
 22
2.247520
 13
4.805680
 23
1.888040
  0
POLYLINE
  8
0
  6
CONTINUOUS
 66
     1
 40
0.000000
 41
0.000000
  0
VERTEX
  8
0
  6
CONTINUOUS
 10
4.180880
 20
2.255880
  0
VERTEX
  8
0
  6
CONTINUOUS
 10
4.806560
 20
1.896400
  0
VERTEX
  8
0
  6
CONTINUOUS
 10
4.805680
 20
1.888040
  0
VERTEX
  8
0
  6
CONTINUOUS
 10
4.180000
 20
2.247520
  0
VERTEX
  8
0
  6
CONTINUOUS
 10
4.180880
 20
2.255880
  0
SEQEND
  8
0
  0
SOLID
  8
0
 62
    15
 10
4.180000
 20
2.247520
 11
4.805680
 21
1.888040
 12
4.281640
 22
2.171400
 13
4.907320
 23
1.811920
  0
POLYLINE
  8
0
  6
CONTINUOUS
 66
     1
 40
0.000000
 41
0.000000
  0
VERTEX
  8
0
  6
CONTINUOUS
 10
4.180000
 20
2.247520
  0
VERTEX
  8
0
  6
CONTINUOUS
 10
4.805680
 20
1.888040
  0
VERTEX
  8
0
  6
CONTINUOUS
 10
4.907320
 20
1.811920
  0
VERTEX
  8
0
  6
CONTINUOUS
 10
4.281640
 20
2.171400
  0
VERTEX
  8
0
  6
CONTINUOUS
 10
4.180000
 20
2.247520
  0
SEQEND
  8
0
  0
SOLID
  8
0
 62
    15
 10
4.281640
 20
2.171400
 11
4.907320
 21
1.811920
 12
4.359960
 22
2.071080
 13
4.985640
 23
1.711600
  0
POLYLINE
  8
0
  6
CONTINUOUS
 66
     1
 40
0.000000
 41
0.000000
  0
VERTEX
  8
0
  6
CONTINUOUS
 10
4.281640
 20
2.171400
  0
VERTEX
  8
0
  6
CONTINUOUS
 10
4.907320
 20
1.811920
  0
VERTEX
  8
0
  6
CONTINUOUS
 10
4.985640
 20
1.711600
  0
VERTEX
  8
0
  6
CONTINUOUS
 10
4.359960
 20
2.071080
  0
VERTEX
  8
0
  6
CONTINUOUS
 10
4.281640
 20
2.171400
  0
SEQEND
  8
0
  0
SOLID
  8
0
 62
    15
 10
4.359960
 20
2.071080
 11
4.985640
 21
1.711600
 12
4.409680
 22
1.952280
 13
5.035360
 23
1.592360
  0
POLYLINE
  8
0
  6
CONTINUOUS
 66
     1
 40
0.000000
 41
0.000000
  0
VERTEX
  8
0
  6
CONTINUOUS
 10
4.359960
 20
2.071080
  0
VERTEX
  8
0
  6
CONTINUOUS
 10
4.985640
 20
1.711600
  0
VERTEX
  8
0
  6
CONTINUOUS
 10
5.035360
 20
1.592360
  0
VERTEX
  8
0
  6
CONTINUOUS
 10
4.409680
 20
1.952280
  0
VERTEX
  8
0
  6
CONTINUOUS
 10
4.359960
 20
2.071080
  0
SEQEND
  8
0
  0
SOLID
  8
0
 62
    15
 10
4.409680
 20
1.952280
 11
5.035360
 21
1.592360
 12
4.425960
 22
1.819400
 13
5.051640
 23
1.459920
  0
POLYLINE
  8
0
  6
CONTINUOUS
 66
     1
 40
0.000000
 41
0.000000
  0
VERTEX
  8
0
  6
CONTINUOUS
 10
4.409680
 20
1.952280
  0
VERTEX
  8
0
  6
CONTINUOUS
 10
5.035360
 20
1.592360
  0
VERTEX
  8
0
  6
CONTINUOUS
 10
5.051640
 20
1.459920
  0
VERTEX
  8
0
  6
CONTINUOUS
 10
4.425960
 20
1.819400
  0
VERTEX
  8
0
  6
CONTINUOUS
 10
4.409680
 20
1.952280
  0
SEQEND
  8
0
  0
SOLID
  8
0
 62
    15
 10
4.425960
 20
1.819400
 11
5.051640
 21
1.459920
 12
4.386800
 22
1.628440
 13
5.012480
 23
1.268960
  0
POLYLINE
  8
0
  6
CONTINUOUS
 66
     1
 40
0.000000
 41
0.000000
  0
VERTEX
  8
0
  6
CONTINUOUS
 10
4.425960
 20
1.819400
  0
VERTEX
  8
0
  6
CONTINUOUS
 10
5.051640
 20
1.459920
  0
VERTEX
  8
0
  6
CONTINUOUS
 10
5.012480
 20
1.268960
  0
VERTEX
  8
0
  6
CONTINUOUS
 10
4.386800
 20
1.628440
  0
VERTEX
  8
0
  6
CONTINUOUS
 10
4.425960
 20
1.819400
  0
SEQEND
  8
0
  0
SOLID
  8
0
 62
    15
 10
4.386800
 20
1.628440
 11
5.012480
 21
1.268960
 12
4.280320
 22
1.471800
 13
4.906000
 23
1.112320
  0
POLYLINE
  8
0
  6
CONTINUOUS
 66
     1
 40
0.000000
 41
0.000000
  0
VERTEX
  8
0
  6
CONTINUOUS
 10
4.386800
 20
1.628440
  0
VERTEX
  8
0
  6
CONTINUOUS
 10
5.012480
 20
1.268960
  0
VERTEX
  8
0
  6
CONTINUOUS
 10
4.906000
 20
1.112320
  0
VERTEX
  8
0
  6
CONTINUOUS
 10
4.280320
 20
1.471800
  0
VERTEX
  8
0
  6
CONTINUOUS
 10
4.386800
 20
1.628440
  0
SEQEND
  8
0
  0
SOLID
  8
0
 62
    15
 10
3.928760
 20
1.324840
 11
4.554440
 21
0.964920
 12
2.078560
 22
1.324840
 13
2.704240
 23
0.964920
  0
POLYLINE
  8
0
  6
CONTINUOUS
 66
     1
 40
0.000000
 41
0.000000
  0
VERTEX
  8
0
  6
CONTINUOUS
 10
3.928760
 20
1.324840
  0
VERTEX
  8
0
  6
CONTINUOUS
 10
4.554440
 20
0.964920
  0
VERTEX
  8
0
  6
CONTINUOUS
 10
2.704240
 20
0.964920
  0
VERTEX
  8
0
  6
CONTINUOUS
 10
2.078560
 20
1.324840
  0
VERTEX
  8
0
  6
CONTINUOUS
 10
3.928760
 20
1.324840
  0
SEQEND
  8
0
  0
SOLID
  8
0
 62
    15
 10
3.932280
 20
1.327040
 11
4.558400
 21
0.967560
 12
3.928760
 22
1.324840
 13
4.554440
 23
0.964920
  0
POLYLINE
  8
0
  6
CONTINUOUS
 66
     1
 40
0.000000
 41
0.000000
  0
VERTEX
  8
0
  6
CONTINUOUS
 10
3.932280
 20
1.327040
  0
VERTEX
  8
0
  6
CONTINUOUS
 10
4.558400
 20
0.967560
  0
VERTEX
  8
0
  6
CONTINUOUS
 10
4.554440
 20
0.964920
  0
VERTEX
  8
0
  6
CONTINUOUS
 10
3.928760
 20
1.324840
  0
VERTEX
  8
0
  6
CONTINUOUS
 10
3.932280
 20
1.327040
  0
SEQEND
  8
0
  0
SOLID
  8
0
 62
    15
 10
4.122800
 20
1.365760
 11
4.748920
 21
1.006280
 12
3.932280
 22
1.327040
 13
4.558400
 23
0.967560
  0
POLYLINE
  8
0
  6
CONTINUOUS
 66
     1
 40
0.000000
 41
0.000000
  0
VERTEX
  8
0
  6
CONTINUOUS
 10
4.122800
 20
1.365760
  0
VERTEX
  8
0
  6
CONTINUOUS
 10
4.748920
 20
1.006280
  0
VERTEX
  8
0
  6
CONTINUOUS
 10
4.558400
 20
0.967560
  0
VERTEX
  8
0
  6
CONTINUOUS
 10
3.932280
 20
1.327040
  0
VERTEX
  8
0
  6
CONTINUOUS
 10
4.122800
 20
1.365760
  0
SEQEND
  8
0
  0
SOLID
  8
0
 62
    15
 10
4.280320
 20
1.471800
 11
4.906000
 21
1.112320
 12
4.122800
 22
1.365760
 13
4.748920
 23
1.006280
  0
POLYLINE
  8
0
  6
CONTINUOUS
 66
     1
 40
0.000000
 41
0.000000
  0
VERTEX
  8
0
  6
CONTINUOUS
 10
4.280320
 20
1.471800
  0
VERTEX
  8
0
  6
CONTINUOUS
 10
4.906000
 20
1.112320
  0
VERTEX
  8
0
  6
CONTINUOUS
 10
4.748920
 20
1.006280
  0
VERTEX
  8
0
  6
CONTINUOUS
 10
4.122800
 20
1.365760
  0
VERTEX
  8
0
  6
CONTINUOUS
 10
4.280320
 20
1.471800
  0
SEQEND
  8
0
  0
SOLID
  8
0
 62
    15
 10
2.076800
 20
1.866480
 11
2.702480
 21
1.507000
 12
1.555840
 22
1.866480
 13
2.181520
 23
1.507000
  0
POLYLINE
  8
0
  6
CONTINUOUS
 66
     1
 40
0.000000
 41
0.000000
  0
VERTEX
  8
0
  6
CONTINUOUS
 10
2.076800
 20
1.866480
  0
VERTEX
  8
0
  6
CONTINUOUS
 10
2.702480
 20
1.507000
  0
VERTEX
  8
0
  6
CONTINUOUS
 10
2.181520
 20
1.507000
  0
VERTEX
  8
0
  6
CONTINUOUS
 10
1.555840
 20
1.866480
  0
VERTEX
  8
0
  6
CONTINUOUS
 10
2.076800
 20
1.866480
  0
SEQEND
  8
0
  0
SOLID
  8
0
 62
    15
 10
7.223920
 20
7.898880
 11
7.849600
 21
7.538960
 12
7.223480
 22
7.892720
 13
7.849160
 23
7.532800
  0
POLYLINE
  8
0
  6
CONTINUOUS
 66
     1
 40
0.000000
 41
0.000000
  0
VERTEX
  8
0
  6
CONTINUOUS
 10
7.223920
 20
7.898880
  0
VERTEX
  8
0
  6
CONTINUOUS
 10
7.849600
 20
7.538960
  0
VERTEX
  8
0
  6
CONTINUOUS
 10
7.849160
 20
7.532800
  0
VERTEX
  8
0
  6
CONTINUOUS
 10
7.223480
 20
7.892720
  0
VERTEX
  8
0
  6
CONTINUOUS
 10
7.223920
 20
7.898880
  0
SEQEND
  8
0
  0
SOLID
  8
0
 62
    15
 10
6.032840
 20
6.221160
 11
6.658520
 21
5.861680
 12
5.965520
 22
6.256800
 13
6.591200
 23
5.897320
  0
POLYLINE
  8
0
  6
CONTINUOUS
 66
     1
 40
0.000000
 41
0.000000
  0
VERTEX
  8
0
  6
CONTINUOUS
 10
6.032840
 20
6.221160
  0
VERTEX
  8
0
  6
CONTINUOUS
 10
6.658520
 20
5.861680
  0
VERTEX
  8
0
  6
CONTINUOUS
 10
6.591200
 20
5.897320
  0
VERTEX
  8
0
  6
CONTINUOUS
 10
5.965520
 20
6.256800
  0
VERTEX
  8
0
  6
CONTINUOUS
 10
6.032840
 20
6.221160
  0
SEQEND
  8
0
  0
SOLID
  8
0
 62
    15
 10
6.196520
 20
6.127440
 11
6.822200
 21
5.767520
 12
6.188600
 22
6.130520
 13
6.814280
 23
5.770600
  0
POLYLINE
  8
0
  6
CONTINUOUS
 66
     1
 40
0.000000
 41
0.000000
  0
VERTEX
  8
0
  6
CONTINUOUS
 10
6.196520
 20
6.127440
  0
VERTEX
  8
0
  6
CONTINUOUS
 10
6.822200
 20
5.767520
  0
VERTEX
  8
0
  6
CONTINUOUS
 10
6.814280
 20
5.770600
  0
VERTEX
  8
0
  6
CONTINUOUS
 10
6.188600
 20
6.130520
  0
VERTEX
  8
0
  6
CONTINUOUS
 10
6.196520
 20
6.127440
  0
SEQEND
  8
0
  0
SOLID
  8
0
 62
    15
 10
4.595360
 20
3.341360
 11
5.221040
 21
2.981880
 12
4.024680
 22
2.352680
 13
4.650360
 23
1.993200
  0
POLYLINE
  8
0
  6
CONTINUOUS
 66
     1
 40
0.000000
 41
0.000000
  0
VERTEX
  8
0
  6
CONTINUOUS
 10
4.595360
 20
3.341360
  0
VERTEX
  8
0
  6
CONTINUOUS
 10
5.221040
 20
2.981880
  0
VERTEX
  8
0
  6
CONTINUOUS
 10
4.650360
 20
1.993200
  0
VERTEX
  8
0
  6
CONTINUOUS
 10
4.024680
 20
2.352680
  0
VERTEX
  8
0
  6
CONTINUOUS
 10
4.595360
 20
3.341360
  0
SEQEND
  8
0
  0
SOLID
  8
0
 62
    15
 10
7.223480
 20
7.892720
 11
7.849160
 21
7.532800
 12
6.201800
 22
6.122600
 13
6.827480
 23
5.763120
  0
POLYLINE
  8
0
  6
CONTINUOUS
 66
     1
 40
0.000000
 41
0.000000
  0
VERTEX
  8
0
  6
CONTINUOUS
 10
7.223480
 20
7.892720
  0
VERTEX
  8
0
  6
CONTINUOUS
 10
7.849160
 20
7.532800
  0
VERTEX
  8
0
  6
CONTINUOUS
 10
6.827480
 20
5.763120
  0
VERTEX
  8
0
  6
CONTINUOUS
 10
6.201800
 20
6.122600
  0
VERTEX
  8
0
  6
CONTINUOUS
 10
7.223480
 20
7.892720
  0
SEQEND
  8
0
  0
SOLID
  8
0
 62
    15
 10
5.965520
 20
6.256800
 11
6.591200
 21
5.897320
 12
5.740240
 22
6.312680
 13
6.365920
 23
5.953200
  0
POLYLINE
  8
0
  6
CONTINUOUS
 66
     1
 40
0.000000
 41
0.000000
  0
VERTEX
  8
0
  6
CONTINUOUS
 10
5.965520
 20
6.256800
  0
VERTEX
  8
0
  6
CONTINUOUS
 10
6.591200
 20
5.897320
  0
VERTEX
  8
0
  6
CONTINUOUS
 10
6.365920
 20
5.953200
  0
VERTEX
  8
0
  6
CONTINUOUS
 10
5.740240
 20
6.312680
  0
VERTEX
  8
0
  6
CONTINUOUS
 10
5.965520
 20
6.256800
  0
SEQEND
  8
0
  0
SOLID
  8
0
 62
    15
 10
5.740240
 20
6.312680
 11
6.365920
 21
5.953200
 12
5.507040
 22
6.306080
 13
6.132720
 23
5.946600
  0
POLYLINE
  8
0
  6
CONTINUOUS
 66
     1
 40
0.000000
 41
0.000000
  0
VERTEX
  8
0
  6
CONTINUOUS
 10
5.740240
 20
6.312680
  0
VERTEX
  8
0
  6
CONTINUOUS
 10
6.365920
 20
5.953200
  0
VERTEX
  8
0
  6
CONTINUOUS
 10
6.132720
 20
5.946600
  0
VERTEX
  8
0
  6
CONTINUOUS
 10
5.507040
 20
6.306080
  0
VERTEX
  8
0
  6
CONTINUOUS
 10
5.740240
 20
6.312680
  0
SEQEND
  8
0
  0
SOLID
  8
0
 62
    15
 10
5.507040
 20
6.306080
 11
6.132720
 21
5.946600
 12
5.271640
 22
6.241400
 13
5.897760
 23
5.881920
  0
POLYLINE
  8
0
  6
CONTINUOUS
 66
     1
 40
0.000000
 41
0.000000
  0
VERTEX
  8
0
  6
CONTINUOUS
 10
5.507040
 20
6.306080
  0
VERTEX
  8
0
  6
CONTINUOUS
 10
6.132720
 20
5.946600
  0
VERTEX
  8
0
  6
CONTINUOUS
 10
5.897760
 20
5.881920
  0
VERTEX
  8
0
  6
CONTINUOUS
 10
5.271640
 20
6.241400
  0
VERTEX
  8
0
  6
CONTINUOUS
 10
5.507040
 20
6.306080
  0
SEQEND
  8
0
  0
SOLID
  8
0
 62
    15
 10
5.271640
 20
6.241400
 11
5.897760
 21
5.881920
 12
5.041960
 22
6.123480
 13
5.667640
 23
5.764000
  0
POLYLINE
  8
0
  6
CONTINUOUS
 66
     1
 40
0.000000
 41
0.000000
  0
VERTEX
  8
0
  6
CONTINUOUS
 10
5.271640
 20
6.241400
  0
VERTEX
  8
0
  6
CONTINUOUS
 10
5.897760
 20
5.881920
  0
VERTEX
  8
0
  6
CONTINUOUS
 10
5.667640
 20
5.764000
  0
VERTEX
  8
0
  6
CONTINUOUS
 10
5.041960
 20
6.123480
  0
VERTEX
  8
0
  6
CONTINUOUS
 10
5.271640
 20
6.241400
  0
SEQEND
  8
0
  0
SOLID
  8
0
 62
    15
 10
5.041960
 20
6.123480
 11
5.667640
 21
5.764000
 12
4.823720
 22
5.955840
 13
5.449400
 23
5.596360
  0
POLYLINE
  8
0
  6
CONTINUOUS
 66
     1
 40
0.000000
 41
0.000000
  0
VERTEX
  8
0
  6
CONTINUOUS
 10
5.041960
 20
6.123480
  0
VERTEX
  8
0
  6
CONTINUOUS
 10
5.667640
 20
5.764000
  0
VERTEX
  8
0
  6
CONTINUOUS
 10
5.449400
 20
5.596360
  0
VERTEX
  8
0
  6
CONTINUOUS
 10
4.823720
 20
5.955840
  0
VERTEX
  8
0
  6
CONTINUOUS
 10
5.041960
 20
6.123480
  0
SEQEND
  8
0
  0
SOLID
  8
0
 62
    15
 10
4.823720
 20
5.955840
 11
5.449400
 21
5.596360
 12
4.623960
 22
5.743320
 13
5.249640
 23
5.383840
  0
POLYLINE
  8
0
  6
CONTINUOUS
 66
     1
 40
0.000000
 41
0.000000
  0
VERTEX
  8
0
  6
CONTINUOUS
 10
4.823720
 20
5.955840
  0
VERTEX
  8
0
  6
CONTINUOUS
 10
5.449400
 20
5.596360
  0
VERTEX
  8
0
  6
CONTINUOUS
 10
5.249640
 20
5.383840
  0
VERTEX
  8
0
  6
CONTINUOUS
 10
4.623960
 20
5.743320
  0
VERTEX
  8
0
  6
CONTINUOUS
 10
4.823720
 20
5.955840
  0
SEQEND
  8
0
  0
SOLID
  8
0
 62
    15
 10
4.623960
 20
5.743320
 11
5.249640
 21
5.383840
 12
4.449720
 22
5.490320
 13
5.075400
 23
5.130840
  0
POLYLINE
  8
0
  6
CONTINUOUS
 66
     1
 40
0.000000
 41
0.000000
  0
VERTEX
  8
0
  6
CONTINUOUS
 10
4.623960
 20
5.743320
  0
VERTEX
  8
0
  6
CONTINUOUS
 10
5.249640
 20
5.383840
  0
VERTEX
  8
0
  6
CONTINUOUS
 10
5.075400
 20
5.130840
  0
VERTEX
  8
0
  6
CONTINUOUS
 10
4.449720
 20
5.490320
  0
VERTEX
  8
0
  6
CONTINUOUS
 10
4.623960
 20
5.743320
  0
SEQEND
  8
0
  0
SOLID
  8
0
 62
    15
 10
4.449720
 20
5.490320
 11
5.075400
 21
5.130840
 12
4.307160
 22
5.200800
 13
4.932840
 23
4.841320
  0
POLYLINE
  8
0
  6
CONTINUOUS
 66
     1
 40
0.000000
 41
0.000000
  0
VERTEX
  8
0
  6
CONTINUOUS
 10
4.449720
 20
5.490320
  0
VERTEX
  8
0
  6
CONTINUOUS
 10
5.075400
 20
5.130840
  0
VERTEX
  8
0
  6
CONTINUOUS
 10
4.932840
 20
4.841320
  0
VERTEX
  8
0
  6
CONTINUOUS
 10
4.307160
 20
5.200800
  0
VERTEX
  8
0
  6
CONTINUOUS
 10
4.449720
 20
5.490320
  0
SEQEND
  8
0
  0
SOLID
  8
0
 62
    15
 10
4.307160
 20
5.200800
 11
4.932840
 21
4.841320
 12
4.216960
 22
4.928000
 13
4.842640
 23
4.568520
  0
POLYLINE
  8
0
  6
CONTINUOUS
 66
     1
 40
0.000000
 41
0.000000
  0
VERTEX
  8
0
  6
CONTINUOUS
 10
4.307160
 20
5.200800
  0
VERTEX
  8
0
  6
CONTINUOUS
 10
4.932840
 20
4.841320
  0
VERTEX
  8
0
  6
CONTINUOUS
 10
4.842640
 20
4.568520
  0
VERTEX
  8
0
  6
CONTINUOUS
 10
4.216960
 20
4.928000
  0
VERTEX
  8
0
  6
CONTINUOUS
 10
4.307160
 20
5.200800
  0
SEQEND
  8
0
  0
SOLID
  8
0
 62
    15
 10
4.216960
 20
4.928000
 11
4.842640
 21
4.568520
 12
4.167240
 22
4.656080
 13
4.792920
 23
4.296600
  0
POLYLINE
  8
0
  6
CONTINUOUS
 66
     1
 40
0.000000
 41
0.000000
  0
VERTEX
  8
0
  6
CONTINUOUS
 10
4.216960
 20
4.928000
  0
VERTEX
  8
0
  6
CONTINUOUS
 10
4.842640
 20
4.568520
  0
VERTEX
  8
0
  6
CONTINUOUS
 10
4.792920
 20
4.296600
  0
VERTEX
  8
0
  6
CONTINUOUS
 10
4.167240
 20
4.656080
  0
VERTEX
  8
0
  6
CONTINUOUS
 10
4.216960
 20
4.928000
  0
SEQEND
  8
0
  0
SOLID
  8
0
 62
    15
 10
4.167240
 20
4.656080
 11
4.792920
 21
4.296600
 12
4.155800
 22
4.391640
 13
4.781480
 23
4.032160
  0
POLYLINE
  8
0
  6
CONTINUOUS
 66
     1
 40
0.000000
 41
0.000000
  0
VERTEX
  8
0
  6
CONTINUOUS
 10
4.167240
 20
4.656080
  0
VERTEX
  8
0
  6
CONTINUOUS
 10
4.792920
 20
4.296600
  0
VERTEX
  8
0
  6
CONTINUOUS
 10
4.781480
 20
4.032160
  0
VERTEX
  8
0
  6
CONTINUOUS
 10
4.155800
 20
4.391640
  0
VERTEX
  8
0
  6
CONTINUOUS
 10
4.167240
 20
4.656080
  0
SEQEND
  8
0
  0
SOLID
  8
0
 62
    15
 10
4.155800
 20
4.391640
 11
4.781480
 21
4.032160
 12
4.180880
 22
4.139520
 13
4.807000
 23
3.780040
  0
POLYLINE
  8
0
  6
CONTINUOUS
 66
     1
 40
0.000000
 41
0.000000
  0
VERTEX
  8
0
  6
CONTINUOUS
 10
4.155800
 20
4.391640
  0
VERTEX
  8
0
  6
CONTINUOUS
 10
4.781480
 20
4.032160
  0
VERTEX
  8
0
  6
CONTINUOUS
 10
4.807000
 20
3.780040
  0
VERTEX
  8
0
  6
CONTINUOUS
 10
4.180880
 20
4.139520
  0
VERTEX
  8
0
  6
CONTINUOUS
 10
4.155800
 20
4.391640
  0
SEQEND
  8
0
  0
SOLID
  8
0
 62
    15
 10
4.180880
 20
4.139520
 11
4.807000
 21
3.780040
 12
4.240720
 22
3.906320
 13
4.866400
 23
3.546840
  0
POLYLINE
  8
0
  6
CONTINUOUS
 66
     1
 40
0.000000
 41
0.000000
  0
VERTEX
  8
0
  6
CONTINUOUS
 10
4.180880
 20
4.139520
  0
VERTEX
  8
0
  6
CONTINUOUS
 10
4.807000
 20
3.780040
  0
VERTEX
  8
0
  6
CONTINUOUS
 10
4.866400
 20
3.546840
  0
VERTEX
  8
0
  6
CONTINUOUS
 10
4.240720
 20
3.906320
  0
VERTEX
  8
0
  6
CONTINUOUS
 10
4.180880
 20
4.139520
  0
SEQEND
  8
0
  0
SOLID
  8
0
 62
    15
 10
4.240720
 20
3.906320
 11
4.866400
 21
3.546840
 12
4.332680
 22
3.696880
 13
4.958800
 23
3.337400
  0
POLYLINE
  8
0
  6
CONTINUOUS
 66
     1
 40
0.000000
 41
0.000000
  0
VERTEX
  8
0
  6
CONTINUOUS
 10
4.240720
 20
3.906320
  0
VERTEX
  8
0
  6
CONTINUOUS
 10
4.866400
 20
3.546840
  0
VERTEX
  8
0
  6
CONTINUOUS
 10
4.958800
 20
3.337400
  0
VERTEX
  8
0
  6
CONTINUOUS
 10
4.332680
 20
3.696880
  0
VERTEX
  8
0
  6
CONTINUOUS
 10
4.240720
 20
3.906320
  0
SEQEND
  8
0
  0
SOLID
  8
0
 62
    15
 10
4.332680
 20
3.696880
 11
4.958800
 21
3.337400
 12
4.455440
 22
3.518240
 13
5.081560
 23
3.158320
  0
POLYLINE
  8
0
  6
CONTINUOUS
 66
     1
 40
0.000000
 41
0.000000
  0
VERTEX
  8
0
  6
CONTINUOUS
 10
4.332680
 20
3.696880
  0
VERTEX
  8
0
  6
CONTINUOUS
 10
4.958800
 20
3.337400
  0
VERTEX
  8
0
  6
CONTINUOUS
 10
5.081560
 20
3.158320
  0
VERTEX
  8
0
  6
CONTINUOUS
 10
4.455440
 20
3.518240
  0
VERTEX
  8
0
  6
CONTINUOUS
 10
4.332680
 20
3.696880
  0
SEQEND
  8
0
  0
SOLID
  8
0
 62
    15
 10
4.455440
 20
3.518240
 11
5.081560
 21
3.158320
 12
4.607240
 22
3.374800
 13
5.232920
 23
3.015320
  0
POLYLINE
  8
0
  6
CONTINUOUS
 66
     1
 40
0.000000
 41
0.000000
  0
VERTEX
  8
0
  6
CONTINUOUS
 10
4.455440
 20
3.518240
  0
VERTEX
  8
0
  6
CONTINUOUS
 10
5.081560
 20
3.158320
  0
VERTEX
  8
0
  6
CONTINUOUS
 10
5.232920
 20
3.015320
  0
VERTEX
  8
0
  6
CONTINUOUS
 10
4.607240
 20
3.374800
  0
VERTEX
  8
0
  6
CONTINUOUS
 10
4.455440
 20
3.518240
  0
SEQEND
  8
0
  0
SOLID
  8
0
 62
    15
 10
4.607240
 20
3.374800
 11
5.232920
 21
3.015320
 12
4.595360
 22
3.341360
 13
5.221040
 23
2.981880
  0
POLYLINE
  8
0
  6
CONTINUOUS
 66
     1
 40
0.000000
 41
0.000000
  0
VERTEX
  8
0
  6
CONTINUOUS
 10
4.607240
 20
3.374800
  0
VERTEX
  8
0
  6
CONTINUOUS
 10
5.232920
 20
3.015320
  0
VERTEX
  8
0
  6
CONTINUOUS
 10
5.221040
 20
2.981880
  0
VERTEX
  8
0
  6
CONTINUOUS
 10
4.595360
 20
3.341360
  0
VERTEX
  8
0
  6
CONTINUOUS
 10
4.607240
 20
3.374800
  0
SEQEND
  8
0
  0
POLYLINE
  8
0
  6
CONTINUOUS
 66
     1
 40
0.000000
 41
0.000000
  0
VERTEX
  8
0
  6
CONTINUOUS
 10
4.595360
 20
3.341360
  0
VERTEX
  8
0
  6
CONTINUOUS
 10
4.024680
 20
2.352680
  0
VERTEX
  8
0
  6
CONTINUOUS
 10
4.020280
 20
2.348720
  0
VERTEX
  8
0
  6
CONTINUOUS
 10
4.180880
 20
2.255880
  0
VERTEX
  8
0
  6
CONTINUOUS
 10
4.180000
 20
2.247520
  0
VERTEX
  8
0
  6
CONTINUOUS
 10
4.281640
 20
2.171400
  0
VERTEX
  8
0
  6
CONTINUOUS
 10
4.359960
 20
2.071080
  0
VERTEX
  8
0
  6
CONTINUOUS
 10
4.409680
 20
1.952280
  0
VERTEX
  8
0
  6
CONTINUOUS
 10
4.425960
 20
1.819400
  0
VERTEX
  8
0
  6
CONTINUOUS
 10
4.386800
 20
1.628440
  0
VERTEX
  8
0
  6
CONTINUOUS
 10
4.280320
 20
1.471800
  0
VERTEX
  8
0
  6
CONTINUOUS
 10
4.122800
 20
1.365760
  0
VERTEX
  8
0
  6
CONTINUOUS
 10
3.932280
 20
1.327040
  0
VERTEX
  8
0
  6
CONTINUOUS
 10
3.928760
 20
1.324840
  0
VERTEX
  8
0
  6
CONTINUOUS
 10
2.078560
 20
1.324840
  0
VERTEX
  8
0
  6
CONTINUOUS
 10
2.076800
 20
1.328800
  0
VERTEX
  8
0
  6
CONTINUOUS
 10
2.076800
 20
1.866480
  0
VERTEX
  8
0
  6
CONTINUOUS
 10
1.555840
 20
1.866480
  0
VERTEX
  8
0
  6
CONTINUOUS
 10
4.878720
 20
7.626960
  0
VERTEX
  8
0
  6
CONTINUOUS
 10
4.882680
 20
7.626960
  0
VERTEX
  8
0
  6
CONTINUOUS
 10
5.143160
 20
7.531920
  0
VERTEX
  8
0
  6
CONTINUOUS
 10
5.141400
 20
7.537200
  0
VERTEX
  8
0
  6
CONTINUOUS
 10
5.478880
 20
8.483200
  0
VERTEX
  8
0
  6
CONTINUOUS
 10
5.482840
 20
8.483200
  0
VERTEX
  8
0
  6
CONTINUOUS
 10
7.223920
 20
7.898880
  0
VERTEX
  8
0
  6
CONTINUOUS
 10
7.223480
 20
7.892720
  0
VERTEX
  8
0
  6
CONTINUOUS
 10
6.201800
 20
6.122600
  0
VERTEX
  8
0
  6
CONTINUOUS
 10
6.179800
 20
6.140200
  0
VERTEX
  8
0
  6
CONTINUOUS
 10
6.196520
 20
6.127440
  0
VERTEX
  8
0
  6
CONTINUOUS
 10
6.188600
 20
6.130520
  0
VERTEX
  8
0
  6
CONTINUOUS
 10
6.123480
 20
6.168360
  0
VERTEX
  8
0
  6
CONTINUOUS
 10
6.032840
 20
6.221160
  0
VERTEX
  8
0
  6
CONTINUOUS
 10
5.965520
 20
6.256800
  0
VERTEX
  8
0
  6
CONTINUOUS
 10
5.740240
 20
6.312680
  0
VERTEX
  8
0
  6
CONTINUOUS
 10
5.507040
 20
6.306080
  0
VERTEX
  8
0
  6
CONTINUOUS
 10
5.271640
 20
6.241400
  0
VERTEX
  8
0
  6
CONTINUOUS
 10
5.041960
 20
6.123480
  0
VERTEX
  8
0
  6
CONTINUOUS
 10
4.823720
 20
5.955840
  0
VERTEX
  8
0
  6
CONTINUOUS
 10
4.623960
 20
5.743320
  0
VERTEX
  8
0
  6
CONTINUOUS
 10
4.449720
 20
5.490320
  0
VERTEX
  8
0
  6
CONTINUOUS
 10
4.307160
 20
5.200800
  0
VERTEX
  8
0
  6
CONTINUOUS
 10
4.216960
 20
4.928000
  0
VERTEX
  8
0
  6
CONTINUOUS
 10
4.167240
 20
4.656080
  0
VERTEX
  8
0
  6
CONTINUOUS
 10
4.155800
 20
4.391640
  0
VERTEX
  8
0
  6
CONTINUOUS
 10
4.180880
 20
4.139520
  0
VERTEX
  8
0
  6
CONTINUOUS
 10
4.240720
 20
3.906320
  0
VERTEX
  8
0
  6
CONTINUOUS
 10
4.332680
 20
3.696880
  0
VERTEX
  8
0
  6
CONTINUOUS
 10
4.455440
 20
3.518240
  0
VERTEX
  8
0
  6
CONTINUOUS
 10
4.607240
 20
3.374800
  0
VERTEX
  8
0
  6
CONTINUOUS
 10
4.595360
 20
3.341360
  0
SEQEND
  8
0
  0
TEXT
  8
0
 10
4.407920
 20
0.584760
 40
0.137879
  1
BA  713
 41
1.000000
  7
SN0
 71
     0
 72
     5
 11
4.999395
 21
0.584760
  0
TEXT
  8
0
 10
4.178240
 20
0.392920
 40
0.137879
  1
2-5/8" x 8-1/4"
 41
1.000000
  7
SN0
 71
     0
 72
     5
 11
5.230610
 21
0.392920
  0
ENDSEC
  0
EOF
