  0
SECTION
  2
HEADER
  9
$ACADVER
  1
AC1006
  9
$EXTMIN
 10
4.882680
 20
0.576840
  9
$EXTMAX
 10
7.386280
 20
2.677840
  9
$LTSCALE
 40
0.044000
  9
$PDMODE
 70
    35
  9
$PDSIZE
 40
0.035200
  0
ENDSEC
  0
SECTION
  2
TABLES
  0
TABLE
  2
LTYPE
 70
     9
  0
LTYPE
  2
CONTINUOUS
 70
    64
  3
Solid line
 72
    65
 73
     0
 40
0.000000
  0
LTYPE
  2
DASHED
 70
    64
  3
__ __ __ __ __ __ __ __ __ __ __ __ __ __ __
 72
    65
 73
     2
 40
0.000330
 49
0.000220
 49
-0.000110
  0
LTYPE
  2
HIDDEN
 70
    64
  3
 _ _ _ _ _ _ _ _ _ _ _ _ _ _ _ _ _ _ _ _ _ _
 72
    65
 73
     2
 40
0.000165
 49
0.000110
 49
-0.000055
  0
LTYPE
  2
CENTER
 70
    64
  3
____ _ ____ _ ____ _ ____ _ ____ _ ____ _ ____
 72
    65
 73
     4
 40
0.000880
 49
0.000550
 49
-0.000110
 49
0.000110
 49
-0.000110
  0
LTYPE
  2
PHANTOM
 70
    64
  3
_____ _ _ _____ _ _ _____ _ _ _____ _ _ ____
 72
    65
 73
     6
 40
0.001100
 49
0.000550
 49
-0.000110
 49
0.000110
 49
-0.000110
 49
0.000110
 49
-0.000110
  0
LTYPE
  2
DOT
 70
    64
  3
...............................................
 72
    65
 73
     2
 40
0.000110
 49
0.000000
 49
-0.000110
  0
LTYPE
  2
DASHDOT
 70
    64
  3
__ . __ . __ . __ . __ . __ . __ . __ . __ . __
 72
    65
 73
     4
 40
0.000440
 49
0.000220
 49
-0.000110
 49
0.000000
 49
-0.000110
  0
LTYPE
  2
BORDER
 70
    64
  3
__ __ . __ __ . __ __ . __ __ . __ __ . __ __
 72
    65
 73
     6
 40
0.000770
 49
0.000220
 49
-0.000110
 49
0.000220
 49
-0.000110
 49
0.000000
 49
-0.000110
  0
LTYPE
  2
DIVIDE
 70
    64
  3
__ . . __ . . __ . . __ . . __ . . __ . . __
 72
    65
 73
     6
 40
0.000550
 49
0.000220
 49
-0.000110
 49
0.000000
 49
-0.000110
 49
0.000000
 49
-0.000110
  0
LTYPE
  2
DOTDOT
 70
    64
  3
 . .  . .  . .  . .  . .  . . 
 72
    65
 73
     5
 40
0.000242
 49
-0.000110
 49
0.000000
 49
-0.000110
 49
0.000000
 49
-0.000110
  0
ENDTAB
  0
TABLE
  2
STYLE
 70
     2
  0
STYLE
 70
     0
  2
SN0
 40
0.000000
 41
0.000440
 50
0.000000
 71
     0
 42
0.000000
  3
ROMAND
  0
STYLE
 70
    68
  2
SV0
 40
0.000000
 41
0.000440
 50
0.000000
 71
     0
 42
0.000000
  3
ROMAND
  0
ENDTAB
  0
TABLE
  2
LAYER
 70
     3
  0
LAYER
  2
FOREGROUND
 70
    64
 62
     7
  6
CONTINUOUS
  0
LAYER
  2
BACKGROUND
 70
    65
 62
    -7
  6
CONTINUOUS
  0
LAYER
  2
0
 70
    64
 62
     7
  6
CONTINUOUS
  0
ENDTAB
  0
ENDSEC
  0
SECTION
  2
ENTITIES
  0
POLYLINE
  8
FOREGROUND
  6
CONTINUOUS
 66
     1
 40
0.000000
 41
0.000000
  0
VERTEX
  8
FOREGROUND
  6
CONTINUOUS
 10
0.000000
 20
3.254680
  0
VERTEX
  8
FOREGROUND
  6
CONTINUOUS
 10
8.499920
 20
3.254680
  0
VERTEX
  8
FOREGROUND
  6
CONTINUOUS
 10
8.499920
 20
-7.745320
  0
VERTEX
  8
FOREGROUND
  6
CONTINUOUS
 10
0.000000
 20
-7.745320
  0
VERTEX
  8
FOREGROUND
  6
CONTINUOUS
 10
0.000000
 20
3.254680
  0
SEQEND
  8
0
  0
POLYLINE
  8
FOREGROUND
  6
CONTINUOUS
 66
     1
 40
0.000000
 41
0.000000
  0
VERTEX
  8
FOREGROUND
  6
CONTINUOUS
 10
0.000000
 20
3.254680
  0
VERTEX
  8
FOREGROUND
  6
CONTINUOUS
 10
8.499920
 20
3.254680
  0
VERTEX
  8
FOREGROUND
  6
CONTINUOUS
 10
8.499920
 20
-7.745320
  0
VERTEX
  8
FOREGROUND
  6
CONTINUOUS
 10
0.000000
 20
-7.745320
  0
VERTEX
  8
FOREGROUND
  6
CONTINUOUS
 10
0.000000
 20
3.254680
  0
SEQEND
  8
0
  0
POLYLINE
  8
0
  6
CONTINUOUS
 66
     1
 40
0.014080
 41
0.014080
  0
VERTEX
  8
0
  6
CONTINUOUS
 10
7.374840
 20
2.252360
  0
VERTEX
  8
0
  6
CONTINUOUS
 10
6.622880
 20
2.250160
  0
VERTEX
  8
0
  6
CONTINUOUS
 10
6.622880
 20
1.000120
  0
VERTEX
  8
0
  6
CONTINUOUS
 10
6.904040
 20
1.000120
  0
VERTEX
  8
0
  6
CONTINUOUS
 10
6.906240
 20
1.205600
  0
VERTEX
  8
0
  6
CONTINUOUS
 10
6.910640
 20
1.348600
  0
VERTEX
  8
0
  6
CONTINUOUS
 10
6.918120
 20
1.473120
  0
VERTEX
  8
0
  6
CONTINUOUS
 10
6.929120
 20
1.581360
  0
VERTEX
  8
0
  6
CONTINUOUS
 10
6.939680
 20
1.652640
  0
VERTEX
  8
0
  6
CONTINUOUS
 10
6.952000
 20
1.715120
  0
VERTEX
  8
0
  6
CONTINUOUS
 10
6.966520
 20
1.770120
  0
VERTEX
  8
0
  6
CONTINUOUS
 10
6.983240
 20
1.818080
  0
VERTEX
  8
0
  6
CONTINUOUS
 10
7.002600
 20
1.859000
  0
VERTEX
  8
0
  6
CONTINUOUS
 10
7.024160
 20
1.894200
  0
VERTEX
  8
0
  6
CONTINUOUS
 10
7.048360
 20
1.923240
  0
VERTEX
  8
0
  6
CONTINUOUS
 10
7.065960
 20
1.939960
  0
VERTEX
  8
0
  6
CONTINUOUS
 10
7.084440
 20
1.954480
  0
VERTEX
  8
0
  6
CONTINUOUS
 10
7.104680
 20
1.966800
  0
VERTEX
  8
0
  6
CONTINUOUS
 10
7.125800
 20
1.977360
  0
VERTEX
  8
0
  6
CONTINUOUS
 10
7.172440
 20
1.993640
  0
VERTEX
  8
0
  6
CONTINUOUS
 10
7.197520
 20
1.999800
  0
VERTEX
  8
0
  6
CONTINUOUS
 10
7.224360
 20
2.004640
  0
VERTEX
  8
0
  6
CONTINUOUS
 10
7.282000
 20
2.010800
  0
VERTEX
  8
0
  6
CONTINUOUS
 10
7.379240
 20
2.014760
  0
VERTEX
  8
0
  6
CONTINUOUS
 10
7.379240
 20
2.252360
  0
VERTEX
  8
0
  6
CONTINUOUS
 10
7.374840
 20
2.252360
  0
SEQEND
  8
0
  0
SOLID
  8
0
 62
    15
 10
5.186720
 20
1.611720
 11
5.823400
 21
1.980880
 12
5.181000
 22
1.557600
 13
5.818120
 23
1.927200
  0
POLYLINE
  8
0
  6
CONTINUOUS
 66
     1
 40
0.000000
 41
0.000000
  0
VERTEX
  8
0
  6
CONTINUOUS
 10
5.186720
 20
1.611720
  0
VERTEX
  8
0
  6
CONTINUOUS
 10
5.823400
 20
1.980880
  0
VERTEX
  8
0
  6
CONTINUOUS
 10
5.818120
 20
1.927200
  0
VERTEX
  8
0
  6
CONTINUOUS
 10
5.181000
 20
1.557600
  0
VERTEX
  8
0
  6
CONTINUOUS
 10
5.186720
 20
1.611720
  0
SEQEND
  8
0
  0
SOLID
  8
0
 62
    15
 10
5.364920
 20
2.022240
 11
6.002040
 21
2.391840
 12
5.326200
 22
1.995400
 13
5.963320
 23
2.365000
  0
POLYLINE
  8
0
  6
CONTINUOUS
 66
     1
 40
0.000000
 41
0.000000
  0
VERTEX
  8
0
  6
CONTINUOUS
 10
5.364920
 20
2.022240
  0
VERTEX
  8
0
  6
CONTINUOUS
 10
6.002040
 20
2.391840
  0
VERTEX
  8
0
  6
CONTINUOUS
 10
5.963320
 20
2.365000
  0
VERTEX
  8
0
  6
CONTINUOUS
 10
5.326200
 20
1.995400
  0
VERTEX
  8
0
  6
CONTINUOUS
 10
5.364920
 20
2.022240
  0
SEQEND
  8
0
  0
SOLID
  8
0
 62
    15
 10
5.326200
 20
1.995400
 11
5.963320
 21
2.365000
 12
5.292320
 22
1.959760
 13
5.929440
 23
2.329360
  0
POLYLINE
  8
0
  6
CONTINUOUS
 66
     1
 40
0.000000
 41
0.000000
  0
VERTEX
  8
0
  6
CONTINUOUS
 10
5.326200
 20
1.995400
  0
VERTEX
  8
0
  6
CONTINUOUS
 10
5.963320
 20
2.365000
  0
VERTEX
  8
0
  6
CONTINUOUS
 10
5.929440
 20
2.329360
  0
VERTEX
  8
0
  6
CONTINUOUS
 10
5.292320
 20
1.959760
  0
VERTEX
  8
0
  6
CONTINUOUS
 10
5.326200
 20
1.995400
  0
SEQEND
  8
0
  0
SOLID
  8
0
 62
    15
 10
5.292320
 20
1.959760
 11
5.929440
 21
2.329360
 12
5.262840
 22
1.914880
 13
5.899960
 23
2.284040
  0
POLYLINE
  8
0
  6
CONTINUOUS
 66
     1
 40
0.000000
 41
0.000000
  0
VERTEX
  8
0
  6
CONTINUOUS
 10
5.292320
 20
1.959760
  0
VERTEX
  8
0
  6
CONTINUOUS
 10
5.929440
 20
2.329360
  0
VERTEX
  8
0
  6
CONTINUOUS
 10
5.899960
 20
2.284040
  0
VERTEX
  8
0
  6
CONTINUOUS
 10
5.262840
 20
1.914880
  0
VERTEX
  8
0
  6
CONTINUOUS
 10
5.292320
 20
1.959760
  0
SEQEND
  8
0
  0
SOLID
  8
0
 62
    15
 10
5.262840
 20
1.914880
 11
5.899960
 21
2.284040
 12
5.237760
 22
1.858560
 13
5.874880
 23
2.227720
  0
POLYLINE
  8
0
  6
CONTINUOUS
 66
     1
 40
0.000000
 41
0.000000
  0
VERTEX
  8
0
  6
CONTINUOUS
 10
5.262840
 20
1.914880
  0
VERTEX
  8
0
  6
CONTINUOUS
 10
5.899960
 20
2.284040
  0
VERTEX
  8
0
  6
CONTINUOUS
 10
5.874880
 20
2.227720
  0
VERTEX
  8
0
  6
CONTINUOUS
 10
5.237760
 20
1.858560
  0
VERTEX
  8
0
  6
CONTINUOUS
 10
5.262840
 20
1.914880
  0
SEQEND
  8
0
  0
SOLID
  8
0
 62
    15
 10
5.237760
 20
1.858560
 11
5.874880
 21
2.227720
 12
5.217080
 22
1.789920
 13
5.854200
 23
2.159520
  0
POLYLINE
  8
0
  6
CONTINUOUS
 66
     1
 40
0.000000
 41
0.000000
  0
VERTEX
  8
0
  6
CONTINUOUS
 10
5.237760
 20
1.858560
  0
VERTEX
  8
0
  6
CONTINUOUS
 10
5.874880
 20
2.227720
  0
VERTEX
  8
0
  6
CONTINUOUS
 10
5.854200
 20
2.159520
  0
VERTEX
  8
0
  6
CONTINUOUS
 10
5.217080
 20
1.789920
  0
VERTEX
  8
0
  6
CONTINUOUS
 10
5.237760
 20
1.858560
  0
SEQEND
  8
0
  0
SOLID
  8
0
 62
    15
 10
5.217080
 20
1.789920
 11
5.854200
 21
2.159520
 12
5.207840
 22
1.750760
 13
5.844960
 23
2.120360
  0
POLYLINE
  8
0
  6
CONTINUOUS
 66
     1
 40
0.000000
 41
0.000000
  0
VERTEX
  8
0
  6
CONTINUOUS
 10
5.217080
 20
1.789920
  0
VERTEX
  8
0
  6
CONTINUOUS
 10
5.854200
 20
2.159520
  0
VERTEX
  8
0
  6
CONTINUOUS
 10
5.844960
 20
2.120360
  0
VERTEX
  8
0
  6
CONTINUOUS
 10
5.207840
 20
1.750760
  0
VERTEX
  8
0
  6
CONTINUOUS
 10
5.217080
 20
1.789920
  0
SEQEND
  8
0
  0
SOLID
  8
0
 62
    15
 10
5.207840
 20
1.750760
 11
5.844960
 21
2.120360
 12
5.199920
 22
1.708080
 13
5.837040
 23
2.077680
  0
POLYLINE
  8
0
  6
CONTINUOUS
 66
     1
 40
0.000000
 41
0.000000
  0
VERTEX
  8
0
  6
CONTINUOUS
 10
5.207840
 20
1.750760
  0
VERTEX
  8
0
  6
CONTINUOUS
 10
5.844960
 20
2.120360
  0
VERTEX
  8
0
  6
CONTINUOUS
 10
5.837040
 20
2.077680
  0
VERTEX
  8
0
  6
CONTINUOUS
 10
5.199920
 20
1.708080
  0
VERTEX
  8
0
  6
CONTINUOUS
 10
5.207840
 20
1.750760
  0
SEQEND
  8
0
  0
SOLID
  8
0
 62
    15
 10
5.199920
 20
1.708080
 11
5.837040
 21
2.077680
 12
5.192880
 22
1.661880
 13
5.830000
 23
2.031040
  0
POLYLINE
  8
0
  6
CONTINUOUS
 66
     1
 40
0.000000
 41
0.000000
  0
VERTEX
  8
0
  6
CONTINUOUS
 10
5.199920
 20
1.708080
  0
VERTEX
  8
0
  6
CONTINUOUS
 10
5.837040
 20
2.077680
  0
VERTEX
  8
0
  6
CONTINUOUS
 10
5.830000
 20
2.031040
  0
VERTEX
  8
0
  6
CONTINUOUS
 10
5.192880
 20
1.661880
  0
VERTEX
  8
0
  6
CONTINUOUS
 10
5.199920
 20
1.708080
  0
SEQEND
  8
0
  0
SOLID
  8
0
 62
    15
 10
5.192880
 20
1.661880
 11
5.830000
 21
2.031040
 12
5.186720
 22
1.611720
 13
5.823400
 23
1.980880
  0
POLYLINE
  8
0
  6
CONTINUOUS
 66
     1
 40
0.000000
 41
0.000000
  0
VERTEX
  8
0
  6
CONTINUOUS
 10
5.192880
 20
1.661880
  0
VERTEX
  8
0
  6
CONTINUOUS
 10
5.830000
 20
2.031040
  0
VERTEX
  8
0
  6
CONTINUOUS
 10
5.823400
 20
1.980880
  0
VERTEX
  8
0
  6
CONTINUOUS
 10
5.186720
 20
1.611720
  0
VERTEX
  8
0
  6
CONTINUOUS
 10
5.192880
 20
1.661880
  0
SEQEND
  8
0
  0
SOLID
  8
0
 62
    15
 10
5.639480
 20
2.307800
 11
6.276600
 21
2.677400
 12
5.639480
 22
2.070200
 13
6.276600
 23
2.439800
  0
POLYLINE
  8
0
  6
CONTINUOUS
 66
     1
 40
0.000000
 41
0.000000
  0
VERTEX
  8
0
  6
CONTINUOUS
 10
5.639480
 20
2.307800
  0
VERTEX
  8
0
  6
CONTINUOUS
 10
6.276600
 20
2.677400
  0
VERTEX
  8
0
  6
CONTINUOUS
 10
6.276600
 20
2.439800
  0
VERTEX
  8
0
  6
CONTINUOUS
 10
5.639480
 20
2.070200
  0
VERTEX
  8
0
  6
CONTINUOUS
 10
5.639480
 20
2.307800
  0
SEQEND
  8
0
  0
SOLID
  8
0
 62
    15
 10
5.181000
 20
1.557600
 11
5.818120
 21
1.927200
 12
5.176600
 22
1.499520
 13
5.813720
 23
1.868680
  0
POLYLINE
  8
0
  6
CONTINUOUS
 66
     1
 40
0.000000
 41
0.000000
  0
VERTEX
  8
0
  6
CONTINUOUS
 10
5.181000
 20
1.557600
  0
VERTEX
  8
0
  6
CONTINUOUS
 10
5.818120
 20
1.927200
  0
VERTEX
  8
0
  6
CONTINUOUS
 10
5.813720
 20
1.868680
  0
VERTEX
  8
0
  6
CONTINUOUS
 10
5.176600
 20
1.499520
  0
VERTEX
  8
0
  6
CONTINUOUS
 10
5.181000
 20
1.557600
  0
SEQEND
  8
0
  0
SOLID
  8
0
 62
    15
 10
5.176600
 20
1.499520
 11
5.813720
 21
1.868680
 12
5.172640
 22
1.437040
 13
5.809760
 23
1.806200
  0
POLYLINE
  8
0
  6
CONTINUOUS
 66
     1
 40
0.000000
 41
0.000000
  0
VERTEX
  8
0
  6
CONTINUOUS
 10
5.176600
 20
1.499520
  0
VERTEX
  8
0
  6
CONTINUOUS
 10
5.813720
 20
1.868680
  0
VERTEX
  8
0
  6
CONTINUOUS
 10
5.809760
 20
1.806200
  0
VERTEX
  8
0
  6
CONTINUOUS
 10
5.172640
 20
1.437040
  0
VERTEX
  8
0
  6
CONTINUOUS
 10
5.176600
 20
1.499520
  0
SEQEND
  8
0
  0
SOLID
  8
0
 62
    15
 10
5.172640
 20
1.437040
 11
5.809760
 21
1.806200
 12
5.169560
 22
1.370160
 13
5.806680
 23
1.739760
  0
POLYLINE
  8
0
  6
CONTINUOUS
 66
     1
 40
0.000000
 41
0.000000
  0
VERTEX
  8
0
  6
CONTINUOUS
 10
5.172640
 20
1.437040
  0
VERTEX
  8
0
  6
CONTINUOUS
 10
5.809760
 20
1.806200
  0
VERTEX
  8
0
  6
CONTINUOUS
 10
5.806680
 20
1.739760
  0
VERTEX
  8
0
  6
CONTINUOUS
 10
5.169560
 20
1.370160
  0
VERTEX
  8
0
  6
CONTINUOUS
 10
5.172640
 20
1.437040
  0
SEQEND
  8
0
  0
SOLID
  8
0
 62
     7
 10
5.169560
 20
1.370160
 11
5.806680
 21
1.739760
 12
5.167360
 22
1.298880
 13
5.804480
 23
1.668040
  0
POLYLINE
  8
0
  6
CONTINUOUS
 66
     1
 40
0.000000
 41
0.000000
  0
VERTEX
  8
0
  6
CONTINUOUS
 10
5.169560
 20
1.370160
  0
VERTEX
  8
0
  6
CONTINUOUS
 10
5.806680
 20
1.739760
  0
VERTEX
  8
0
  6
CONTINUOUS
 10
5.804480
 20
1.668040
  0
VERTEX
  8
0
  6
CONTINUOUS
 10
5.167360
 20
1.298880
  0
VERTEX
  8
0
  6
CONTINUOUS
 10
5.169560
 20
1.370160
  0
SEQEND
  8
0
  0
SOLID
  8
0
 62
     7
 10
5.167360
 20
1.298880
 11
5.804480
 21
1.668040
 12
5.165600
 22
1.222760
 13
5.802720
 23
1.591920
  0
POLYLINE
  8
0
  6
CONTINUOUS
 66
     1
 40
0.000000
 41
0.000000
  0
VERTEX
  8
0
  6
CONTINUOUS
 10
5.167360
 20
1.298880
  0
VERTEX
  8
0
  6
CONTINUOUS
 10
5.804480
 20
1.668040
  0
VERTEX
  8
0
  6
CONTINUOUS
 10
5.802720
 20
1.591920
  0
VERTEX
  8
0
  6
CONTINUOUS
 10
5.165600
 20
1.222760
  0
VERTEX
  8
0
  6
CONTINUOUS
 10
5.167360
 20
1.298880
  0
SEQEND
  8
0
  0
SOLID
  8
0
 62
     7
 10
5.165600
 20
1.222760
 11
5.802720
 21
1.591920
 12
5.164720
 22
1.141800
 13
5.801840
 23
1.510960
  0
POLYLINE
  8
0
  6
CONTINUOUS
 66
     1
 40
0.000000
 41
0.000000
  0
VERTEX
  8
0
  6
CONTINUOUS
 10
5.165600
 20
1.222760
  0
VERTEX
  8
0
  6
CONTINUOUS
 10
5.802720
 20
1.591920
  0
VERTEX
  8
0
  6
CONTINUOUS
 10
5.801840
 20
1.510960
  0
VERTEX
  8
0
  6
CONTINUOUS
 10
5.164720
 20
1.141800
  0
VERTEX
  8
0
  6
CONTINUOUS
 10
5.165600
 20
1.222760
  0
SEQEND
  8
0
  0
SOLID
  8
0
 62
     7
 10
5.164720
 20
1.141800
 11
5.801840
 21
1.510960
 12
5.164280
 22
1.056000
 13
5.801400
 23
1.425160
  0
POLYLINE
  8
0
  6
CONTINUOUS
 66
     1
 40
0.000000
 41
0.000000
  0
VERTEX
  8
0
  6
CONTINUOUS
 10
5.164720
 20
1.141800
  0
VERTEX
  8
0
  6
CONTINUOUS
 10
5.801840
 20
1.510960
  0
VERTEX
  8
0
  6
CONTINUOUS
 10
5.801400
 20
1.425160
  0
VERTEX
  8
0
  6
CONTINUOUS
 10
5.164280
 20
1.056000
  0
VERTEX
  8
0
  6
CONTINUOUS
 10
5.164720
 20
1.141800
  0
SEQEND
  8
0
  0
SOLID
  8
0
 62
    15
 10
4.883120
 20
2.306040
 11
5.520240
 21
2.675200
 12
5.635520
 22
2.307800
 13
6.272200
 23
2.677400
  0
POLYLINE
  8
0
  6
CONTINUOUS
 66
     1
 40
0.000000
 41
0.000000
  0
VERTEX
  8
0
  6
CONTINUOUS
 10
4.883120
 20
2.306040
  0
VERTEX
  8
0
  6
CONTINUOUS
 10
5.520240
 20
2.675200
  0
VERTEX
  8
0
  6
CONTINUOUS
 10
6.272200
 20
2.677400
  0
VERTEX
  8
0
  6
CONTINUOUS
 10
5.635520
 20
2.307800
  0
VERTEX
  8
0
  6
CONTINUOUS
 10
4.883120
 20
2.306040
  0
SEQEND
  8
0
  0
SOLID
  8
0
 62
    15
 10
5.635520
 20
2.307800
 11
6.272200
 21
2.677400
 12
5.639480
 22
2.307800
 13
6.276600
 23
2.677400
  0
POLYLINE
  8
0
  6
CONTINUOUS
 66
     1
 40
0.000000
 41
0.000000
  0
VERTEX
  8
0
  6
CONTINUOUS
 10
5.635520
 20
2.307800
  0
VERTEX
  8
0
  6
CONTINUOUS
 10
6.272200
 20
2.677400
  0
VERTEX
  8
0
  6
CONTINUOUS
 10
6.276600
 20
2.677400
  0
VERTEX
  8
0
  6
CONTINUOUS
 10
5.639480
 20
2.307800
  0
VERTEX
  8
0
  6
CONTINUOUS
 10
5.635520
 20
2.307800
  0
SEQEND
  8
0
  0
POLYLINE
  8
0
  6
CONTINUOUS
 66
     1
 40
0.000000
 41
0.000000
  0
VERTEX
  8
0
  6
CONTINUOUS
 10
5.639480
 20
2.307800
  0
VERTEX
  8
0
  6
CONTINUOUS
 10
5.639480
 20
2.070200
  0
VERTEX
  8
0
  6
CONTINUOUS
 10
5.573040
 20
2.068440
  0
VERTEX
  8
0
  6
CONTINUOUS
 10
5.512760
 20
2.063600
  0
VERTEX
  8
0
  6
CONTINUOUS
 10
5.457760
 20
2.055240
  0
VERTEX
  8
0
  6
CONTINUOUS
 10
5.408920
 20
2.042040
  0
VERTEX
  8
0
  6
CONTINUOUS
 10
5.364920
 20
2.022240
  0
VERTEX
  8
0
  6
CONTINUOUS
 10
5.326200
 20
1.995400
  0
VERTEX
  8
0
  6
CONTINUOUS
 10
5.292320
 20
1.959760
  0
VERTEX
  8
0
  6
CONTINUOUS
 10
5.262840
 20
1.914880
  0
VERTEX
  8
0
  6
CONTINUOUS
 10
5.237760
 20
1.858560
  0
VERTEX
  8
0
  6
CONTINUOUS
 10
5.217080
 20
1.789920
  0
VERTEX
  8
0
  6
CONTINUOUS
 10
5.207840
 20
1.750760
  0
VERTEX
  8
0
  6
CONTINUOUS
 10
5.199920
 20
1.708080
  0
VERTEX
  8
0
  6
CONTINUOUS
 10
5.192880
 20
1.661880
  0
VERTEX
  8
0
  6
CONTINUOUS
 10
5.186720
 20
1.611720
  0
VERTEX
  8
0
  6
CONTINUOUS
 10
5.181000
 20
1.557600
  0
VERTEX
  8
0
  6
CONTINUOUS
 10
5.176600
 20
1.499520
  0
VERTEX
  8
0
  6
CONTINUOUS
 10
5.172640
 20
1.437040
  0
VERTEX
  8
0
  6
CONTINUOUS
 10
5.169560
 20
1.370160
  0
VERTEX
  8
0
  6
CONTINUOUS
 10
5.167360
 20
1.298880
  0
VERTEX
  8
0
  6
CONTINUOUS
 10
5.165600
 20
1.222760
  0
VERTEX
  8
0
  6
CONTINUOUS
 10
5.164720
 20
1.141800
  0
VERTEX
  8
0
  6
CONTINUOUS
 10
5.164280
 20
1.056000
  0
VERTEX
  8
0
  6
CONTINUOUS
 10
4.883120
 20
1.056000
  0
VERTEX
  8
0
  6
CONTINUOUS
 10
4.883120
 20
2.306040
  0
VERTEX
  8
0
  6
CONTINUOUS
 10
5.635520
 20
2.307800
  0
VERTEX
  8
0
  6
CONTINUOUS
 10
5.639480
 20
2.307800
  0
SEQEND
  8
0
  0
TEXT
  8
0
 10
5.283960
 20
0.811800
 40
0.138162
  1
BA  712
 41
1.000000
  7
SN0
 71
     0
 72
     5
 11
5.874309
 21
0.811800
  0
TEXT
  8
0
 10
5.128200
 20
0.620400
 40
0.138162
  1
3/4" x 1-1/4"
 41
1.000000
  7
SN0
 71
     0
 72
     5
 11
6.028995
 21
0.620400
  0
ENDSEC
  0
EOF
