  0
SECTION
  2
HEADER
  9
$ACADVER
  1
AC1006
  9
$EXTMIN
 10
2.233880
 20
0.580360
  9
$EXTMAX
 10
7.521360
 20
7.281560
  9
$LTSCALE
 40
0.044000
  9
$PDMODE
 70
    35
  9
$PDSIZE
 40
0.035200
  0
ENDSEC
  0
SECTION
  2
TABLES
  0
TABLE
  2
LTYPE
 70
     9
  0
LTYPE
  2
CONTINUOUS
 70
    64
  3
Solid line
 72
    65
 73
     0
 40
0.000000
  0
LTYPE
  2
DASHED
 70
    64
  3
__ __ __ __ __ __ __ __ __ __ __ __ __ __ __
 72
    65
 73
     2
 40
0.000330
 49
0.000220
 49
-0.000110
  0
LTYPE
  2
HIDDEN
 70
    64
  3
 _ _ _ _ _ _ _ _ _ _ _ _ _ _ _ _ _ _ _ _ _ _
 72
    65
 73
     2
 40
0.000165
 49
0.000110
 49
-0.000055
  0
LTYPE
  2
CENTER
 70
    64
  3
____ _ ____ _ ____ _ ____ _ ____ _ ____ _ ____
 72
    65
 73
     4
 40
0.000880
 49
0.000550
 49
-0.000110
 49
0.000110
 49
-0.000110
  0
LTYPE
  2
PHANTOM
 70
    64
  3
_____ _ _ _____ _ _ _____ _ _ _____ _ _ ____
 72
    65
 73
     6
 40
0.001100
 49
0.000550
 49
-0.000110
 49
0.000110
 49
-0.000110
 49
0.000110
 49
-0.000110
  0
LTYPE
  2
DOT
 70
    64
  3
...............................................
 72
    65
 73
     2
 40
0.000110
 49
0.000000
 49
-0.000110
  0
LTYPE
  2
DASHDOT
 70
    64
  3
__ . __ . __ . __ . __ . __ . __ . __ . __ . __
 72
    65
 73
     4
 40
0.000440
 49
0.000220
 49
-0.000110
 49
0.000000
 49
-0.000110
  0
LTYPE
  2
BORDER
 70
    64
  3
__ __ . __ __ . __ __ . __ __ . __ __ . __ __
 72
    65
 73
     6
 40
0.000770
 49
0.000220
 49
-0.000110
 49
0.000220
 49
-0.000110
 49
0.000000
 49
-0.000110
  0
LTYPE
  2
DIVIDE
 70
    64
  3
__ . . __ . . __ . . __ . . __ . . __ . . __
 72
    65
 73
     6
 40
0.000550
 49
0.000220
 49
-0.000110
 49
0.000000
 49
-0.000110
 49
0.000000
 49
-0.000110
  0
LTYPE
  2
DOTDOT
 70
    64
  3
 . .  . .  . .  . .  . .  . . 
 72
    65
 73
     5
 40
0.000242
 49
-0.000110
 49
0.000000
 49
-0.000110
 49
0.000000
 49
-0.000110
  0
ENDTAB
  0
TABLE
  2
STYLE
 70
     2
  0
STYLE
 70
     0
  2
SN0
 40
0.000000
 41
0.000440
 50
0.000000
 71
     0
 42
0.000000
  3
ROMAND
  0
STYLE
 70
    68
  2
SV0
 40
0.000000
 41
0.000440
 50
0.000000
 71
     0
 42
0.000000
  3
ROMAND
  0
ENDTAB
  0
TABLE
  2
LAYER
 70
     3
  0
LAYER
  2
FOREGROUND
 70
    64
 62
     7
  6
CONTINUOUS
  0
LAYER
  2
BACKGROUND
 70
    65
 62
    -7
  6
CONTINUOUS
  0
LAYER
  2
0
 70
    64
 62
     7
  6
CONTINUOUS
  0
ENDTAB
  0
ENDSEC
  0
SECTION
  2
ENTITIES
  0
POLYLINE
  8
FOREGROUND
  6
CONTINUOUS
 66
     1
 40
0.000000
 41
0.000000
  0
VERTEX
  8
FOREGROUND
  6
CONTINUOUS
 10
0.000000
 20
7.861920
  0
VERTEX
  8
FOREGROUND
  6
CONTINUOUS
 10
8.499920
 20
7.861920
  0
VERTEX
  8
FOREGROUND
  6
CONTINUOUS
 10
8.499920
 20
-3.138080
  0
VERTEX
  8
FOREGROUND
  6
CONTINUOUS
 10
0.000000
 20
-3.138080
  0
VERTEX
  8
FOREGROUND
  6
CONTINUOUS
 10
0.000000
 20
7.861920
  0
SEQEND
  8
0
  0
POLYLINE
  8
FOREGROUND
  6
CONTINUOUS
 66
     1
 40
0.000000
 41
0.000000
  0
VERTEX
  8
FOREGROUND
  6
CONTINUOUS
 10
0.000000
 20
7.861920
  0
VERTEX
  8
FOREGROUND
  6
CONTINUOUS
 10
8.499920
 20
7.861920
  0
VERTEX
  8
FOREGROUND
  6
CONTINUOUS
 10
8.499920
 20
-3.138080
  0
VERTEX
  8
FOREGROUND
  6
CONTINUOUS
 10
0.000000
 20
-3.138080
  0
VERTEX
  8
FOREGROUND
  6
CONTINUOUS
 10
0.000000
 20
7.861920
  0
SEQEND
  8
0
  0
POLYLINE
  8
0
  6
CONTINUOUS
 66
     1
 40
0.014080
 41
0.014080
  0
VERTEX
  8
0
  6
CONTINUOUS
 10
6.043400
 20
7.091480
  0
VERTEX
  8
0
  6
CONTINUOUS
 10
7.514760
 20
5.546640
  0
VERTEX
  8
0
  6
CONTINUOUS
 10
7.516080
 20
5.547960
  0
VERTEX
  8
0
  6
CONTINUOUS
 10
5.872680
 20
7.274080
  0
VERTEX
  8
0
  6
CONTINUOUS
 10
5.275160
 20
7.191360
  0
VERTEX
  8
0
  6
CONTINUOUS
 10
5.244800
 20
7.127560
  0
VERTEX
  8
0
  6
CONTINUOUS
 10
5.204320
 20
7.055400
  0
VERTEX
  8
0
  6
CONTINUOUS
 10
5.174400
 20
7.008760
  0
VERTEX
  8
0
  6
CONTINUOUS
 10
5.124680
 20
6.941000
  0
VERTEX
  8
0
  6
CONTINUOUS
 10
5.069680
 20
6.876320
  0
VERTEX
  8
0
  6
CONTINUOUS
 10
5.030080
 20
6.834960
  0
VERTEX
  8
0
  6
CONTINUOUS
 10
4.961880
 20
6.771600
  0
VERTEX
  8
0
  6
CONTINUOUS
 10
4.912600
 20
6.731120
  0
VERTEX
  8
0
  6
CONTINUOUS
 10
4.835600
 20
6.676560
  0
VERTEX
  8
0
  6
CONTINUOUS
 10
4.782800
 20
6.643560
  0
VERTEX
  8
0
  6
CONTINUOUS
 10
4.700960
 20
6.599120
  0
VERTEX
  8
0
  6
CONTINUOUS
 10
4.616920
 20
6.561720
  0
VERTEX
  8
0
  6
CONTINUOUS
 10
4.531120
 20
6.530480
  0
VERTEX
  8
0
  6
CONTINUOUS
 10
4.443120
 20
6.505840
  0
VERTEX
  8
0
  6
CONTINUOUS
 10
4.354240
 20
6.487800
  0
VERTEX
  8
0
  6
CONTINUOUS
 10
4.294400
 20
6.479000
  0
VERTEX
  8
0
  6
CONTINUOUS
 10
4.234560
 20
6.473280
  0
VERTEX
  8
0
  6
CONTINUOUS
 10
4.174280
 20
6.470640
  0
VERTEX
  8
0
  6
CONTINUOUS
 10
4.114000
 20
6.470640
  0
VERTEX
  8
0
  6
CONTINUOUS
 10
4.083640
 20
6.471520
  0
VERTEX
  8
0
  6
CONTINUOUS
 10
4.023800
 20
6.475920
  0
VERTEX
  8
0
  6
CONTINUOUS
 10
3.934040
 20
6.487800
  0
VERTEX
  8
0
  6
CONTINUOUS
 10
3.874640
 20
6.499240
  0
VERTEX
  8
0
  6
CONTINUOUS
 10
3.786640
 20
6.521680
  0
VERTEX
  8
0
  6
CONTINUOUS
 10
3.729000
 20
6.540160
  0
VERTEX
  8
0
  6
CONTINUOUS
 10
3.644080
 20
6.573600
  0
VERTEX
  8
0
  6
CONTINUOUS
 10
3.588200
 20
6.599120
  0
VERTEX
  8
0
  6
CONTINUOUS
 10
3.507240
 20
6.643120
  0
VERTEX
  8
0
  6
CONTINUOUS
 10
3.454440
 20
6.675680
  0
VERTEX
  8
0
  6
CONTINUOUS
 10
3.378320
 20
6.730240
  0
VERTEX
  8
0
  6
CONTINUOUS
 10
3.329480
 20
6.769840
  0
VERTEX
  8
0
  6
CONTINUOUS
 10
3.281960
 20
6.812520
  0
VERTEX
  8
0
  6
CONTINUOUS
 10
3.236640
 20
6.857840
  0
VERTEX
  8
0
  6
CONTINUOUS
 10
3.224760
 20
6.867080
  0
VERTEX
  8
0
  6
CONTINUOUS
 10
2.662000
 20
6.331160
  0
VERTEX
  8
0
  6
CONTINUOUS
 10
2.667720
 20
6.322360
  0
VERTEX
  8
0
  6
CONTINUOUS
 10
3.736920
 20
5.199920
  0
VERTEX
  8
0
  6
CONTINUOUS
 10
7.149560
 20
5.198600
  0
VERTEX
  8
0
  6
CONTINUOUS
 10
7.514760
 20
5.546640
  0
VERTEX
  8
0
  6
CONTINUOUS
 10
6.043400
 20
7.091480
  0
SEQEND
  8
0
  0
SOLID
  8
0
 62
    15
 10
4.979480
 20
2.918080
 11
5.639040
 21
2.540560
 12
4.906000
 22
2.683120
 13
5.565560
 23
2.305600
  0
POLYLINE
  8
0
  6
CONTINUOUS
 66
     1
 40
0.000000
 41
0.000000
  0
VERTEX
  8
0
  6
CONTINUOUS
 10
4.979480
 20
2.918080
  0
VERTEX
  8
0
  6
CONTINUOUS
 10
5.639040
 20
2.540560
  0
VERTEX
  8
0
  6
CONTINUOUS
 10
5.565560
 20
2.305600
  0
VERTEX
  8
0
  6
CONTINUOUS
 10
4.906000
 20
2.683120
  0
VERTEX
  8
0
  6
CONTINUOUS
 10
4.979480
 20
2.918080
  0
SEQEND
  8
0
  0
SOLID
  8
0
 62
    15
 10
6.149440
 20
3.687640
 11
6.808560
 21
3.309680
 12
6.134920
 22
3.685440
 13
6.794040
 23
3.307920
  0
POLYLINE
  8
0
  6
CONTINUOUS
 66
     1
 40
0.000000
 41
0.000000
  0
VERTEX
  8
0
  6
CONTINUOUS
 10
6.149440
 20
3.687640
  0
VERTEX
  8
0
  6
CONTINUOUS
 10
6.808560
 20
3.309680
  0
VERTEX
  8
0
  6
CONTINUOUS
 10
6.794040
 20
3.307920
  0
VERTEX
  8
0
  6
CONTINUOUS
 10
6.134920
 20
3.685440
  0
VERTEX
  8
0
  6
CONTINUOUS
 10
6.149440
 20
3.687640
  0
SEQEND
  8
0
  0
SOLID
  8
0
 62
    15
 10
6.134920
 20
3.685440
 11
6.794040
 21
3.307920
 12
5.882800
 22
3.659920
 13
6.542360
 23
3.281960
  0
POLYLINE
  8
0
  6
CONTINUOUS
 66
     1
 40
0.000000
 41
0.000000
  0
VERTEX
  8
0
  6
CONTINUOUS
 10
6.134920
 20
3.685440
  0
VERTEX
  8
0
  6
CONTINUOUS
 10
6.794040
 20
3.307920
  0
VERTEX
  8
0
  6
CONTINUOUS
 10
6.542360
 20
3.281960
  0
VERTEX
  8
0
  6
CONTINUOUS
 10
5.882800
 20
3.659920
  0
VERTEX
  8
0
  6
CONTINUOUS
 10
6.134920
 20
3.685440
  0
SEQEND
  8
0
  0
SOLID
  8
0
 62
    15
 10
5.882800
 20
3.659920
 11
6.542360
 21
3.281960
 12
5.647840
 22
3.586440
 13
6.307400
 23
3.208920
  0
POLYLINE
  8
0
  6
CONTINUOUS
 66
     1
 40
0.000000
 41
0.000000
  0
VERTEX
  8
0
  6
CONTINUOUS
 10
5.882800
 20
3.659920
  0
VERTEX
  8
0
  6
CONTINUOUS
 10
6.542360
 20
3.281960
  0
VERTEX
  8
0
  6
CONTINUOUS
 10
6.307400
 20
3.208920
  0
VERTEX
  8
0
  6
CONTINUOUS
 10
5.647840
 20
3.586440
  0
VERTEX
  8
0
  6
CONTINUOUS
 10
5.882800
 20
3.659920
  0
SEQEND
  8
0
  0
SOLID
  8
0
 62
    15
 10
5.647840
 20
3.586440
 11
6.307400
 21
3.208920
 12
5.434880
 22
3.470280
 13
6.094000
 23
3.092760
  0
POLYLINE
  8
0
  6
CONTINUOUS
 66
     1
 40
0.000000
 41
0.000000
  0
VERTEX
  8
0
  6
CONTINUOUS
 10
5.647840
 20
3.586440
  0
VERTEX
  8
0
  6
CONTINUOUS
 10
6.307400
 20
3.208920
  0
VERTEX
  8
0
  6
CONTINUOUS
 10
6.094000
 20
3.092760
  0
VERTEX
  8
0
  6
CONTINUOUS
 10
5.434880
 20
3.470280
  0
VERTEX
  8
0
  6
CONTINUOUS
 10
5.647840
 20
3.586440
  0
SEQEND
  8
0
  0
SOLID
  8
0
 62
    15
 10
5.434880
 20
3.470280
 11
6.094000
 21
3.092760
 12
5.249200
 22
3.316720
 13
5.908320
 23
2.939200
  0
POLYLINE
  8
0
  6
CONTINUOUS
 66
     1
 40
0.000000
 41
0.000000
  0
VERTEX
  8
0
  6
CONTINUOUS
 10
5.434880
 20
3.470280
  0
VERTEX
  8
0
  6
CONTINUOUS
 10
6.094000
 20
3.092760
  0
VERTEX
  8
0
  6
CONTINUOUS
 10
5.908320
 20
2.939200
  0
VERTEX
  8
0
  6
CONTINUOUS
 10
5.249200
 20
3.316720
  0
VERTEX
  8
0
  6
CONTINUOUS
 10
5.434880
 20
3.470280
  0
SEQEND
  8
0
  0
SOLID
  8
0
 62
    15
 10
5.249200
 20
3.316720
 11
5.908320
 21
2.939200
 12
5.095640
 22
3.131040
 13
5.754760
 23
2.753520
  0
POLYLINE
  8
0
  6
CONTINUOUS
 66
     1
 40
0.000000
 41
0.000000
  0
VERTEX
  8
0
  6
CONTINUOUS
 10
5.249200
 20
3.316720
  0
VERTEX
  8
0
  6
CONTINUOUS
 10
5.908320
 20
2.939200
  0
VERTEX
  8
0
  6
CONTINUOUS
 10
5.754760
 20
2.753520
  0
VERTEX
  8
0
  6
CONTINUOUS
 10
5.095640
 20
3.131040
  0
VERTEX
  8
0
  6
CONTINUOUS
 10
5.249200
 20
3.316720
  0
SEQEND
  8
0
  0
SOLID
  8
0
 62
    15
 10
5.095640
 20
3.131040
 11
5.754760
 21
2.753520
 12
4.979480
 22
2.918080
 13
5.639040
 23
2.540560
  0
POLYLINE
  8
0
  6
CONTINUOUS
 66
     1
 40
0.000000
 41
0.000000
  0
VERTEX
  8
0
  6
CONTINUOUS
 10
5.095640
 20
3.131040
  0
VERTEX
  8
0
  6
CONTINUOUS
 10
5.754760
 20
2.753520
  0
VERTEX
  8
0
  6
CONTINUOUS
 10
5.639040
 20
2.540560
  0
VERTEX
  8
0
  6
CONTINUOUS
 10
4.979480
 20
2.918080
  0
VERTEX
  8
0
  6
CONTINUOUS
 10
5.095640
 20
3.131040
  0
SEQEND
  8
0
  0
SOLID
  8
0
 62
    15
 10
6.149440
 20
4.464680
 11
6.808560
 21
4.086720
 12
6.149440
 22
3.687640
 13
6.808560
 23
3.309680
  0
POLYLINE
  8
0
  6
CONTINUOUS
 66
     1
 40
0.000000
 41
0.000000
  0
VERTEX
  8
0
  6
CONTINUOUS
 10
6.149440
 20
4.464680
  0
VERTEX
  8
0
  6
CONTINUOUS
 10
6.808560
 20
4.086720
  0
VERTEX
  8
0
  6
CONTINUOUS
 10
6.808560
 20
3.309680
  0
VERTEX
  8
0
  6
CONTINUOUS
 10
6.149440
 20
3.687640
  0
VERTEX
  8
0
  6
CONTINUOUS
 10
6.149440
 20
4.464680
  0
SEQEND
  8
0
  0
SOLID
  8
0
 62
    15
 10
4.906000
 20
2.683120
 11
5.565560
 21
2.305600
 12
4.880480
 22
2.431000
 13
5.540040
 23
2.053480
  0
POLYLINE
  8
0
  6
CONTINUOUS
 66
     1
 40
0.000000
 41
0.000000
  0
VERTEX
  8
0
  6
CONTINUOUS
 10
4.906000
 20
2.683120
  0
VERTEX
  8
0
  6
CONTINUOUS
 10
5.565560
 20
2.305600
  0
VERTEX
  8
0
  6
CONTINUOUS
 10
5.540040
 20
2.053480
  0
VERTEX
  8
0
  6
CONTINUOUS
 10
4.880480
 20
2.431000
  0
VERTEX
  8
0
  6
CONTINUOUS
 10
4.906000
 20
2.683120
  0
SEQEND
  8
0
  0
SOLID
  8
0
 62
    15
 10
4.880480
 20
2.431000
 11
5.540040
 21
2.053480
 12
4.902040
 22
2.205280
 13
5.561160
 23
1.827760
  0
POLYLINE
  8
0
  6
CONTINUOUS
 66
     1
 40
0.000000
 41
0.000000
  0
VERTEX
  8
0
  6
CONTINUOUS
 10
4.880480
 20
2.431000
  0
VERTEX
  8
0
  6
CONTINUOUS
 10
5.540040
 20
2.053480
  0
VERTEX
  8
0
  6
CONTINUOUS
 10
5.561160
 20
1.827760
  0
VERTEX
  8
0
  6
CONTINUOUS
 10
4.902040
 20
2.205280
  0
VERTEX
  8
0
  6
CONTINUOUS
 10
4.880480
 20
2.431000
  0
SEQEND
  8
0
  0
SOLID
  8
0
 62
    15
 10
4.902040
 20
2.205280
 11
5.561160
 21
1.827760
 12
4.964080
 22
1.993640
 13
5.623200
 23
1.616120
  0
POLYLINE
  8
0
  6
CONTINUOUS
 66
     1
 40
0.000000
 41
0.000000
  0
VERTEX
  8
0
  6
CONTINUOUS
 10
4.902040
 20
2.205280
  0
VERTEX
  8
0
  6
CONTINUOUS
 10
5.561160
 20
1.827760
  0
VERTEX
  8
0
  6
CONTINUOUS
 10
5.623200
 20
1.616120
  0
VERTEX
  8
0
  6
CONTINUOUS
 10
4.964080
 20
1.993640
  0
VERTEX
  8
0
  6
CONTINUOUS
 10
4.902040
 20
2.205280
  0
SEQEND
  8
0
  0
SOLID
  8
0
 62
    15
 10
4.964080
 20
1.993640
 11
5.623200
 21
1.616120
 12
4.970240
 22
1.979120
 13
5.629360
 23
1.601600
  0
POLYLINE
  8
0
  6
CONTINUOUS
 66
     1
 40
0.000000
 41
0.000000
  0
VERTEX
  8
0
  6
CONTINUOUS
 10
4.964080
 20
1.993640
  0
VERTEX
  8
0
  6
CONTINUOUS
 10
5.623200
 20
1.616120
  0
VERTEX
  8
0
  6
CONTINUOUS
 10
5.629360
 20
1.601600
  0
VERTEX
  8
0
  6
CONTINUOUS
 10
4.970240
 20
1.979120
  0
VERTEX
  8
0
  6
CONTINUOUS
 10
4.964080
 20
1.993640
  0
SEQEND
  8
0
  0
SOLID
  8
0
 62
    15
 10
4.970240
 20
1.979120
 11
5.629360
 21
1.601600
 12
4.618240
 22
1.489400
 13
5.277360
 23
1.111880
  0
POLYLINE
  8
0
  6
CONTINUOUS
 66
     1
 40
0.000000
 41
0.000000
  0
VERTEX
  8
0
  6
CONTINUOUS
 10
4.970240
 20
1.979120
  0
VERTEX
  8
0
  6
CONTINUOUS
 10
5.629360
 20
1.601600
  0
VERTEX
  8
0
  6
CONTINUOUS
 10
5.277360
 20
1.111880
  0
VERTEX
  8
0
  6
CONTINUOUS
 10
4.618240
 20
1.489400
  0
VERTEX
  8
0
  6
CONTINUOUS
 10
4.970240
 20
1.979120
  0
SEQEND
  8
0
  0
SOLID
  8
0
 62
    15
 10
4.367880
 20
1.491600
 11
5.027440
 21
1.114080
 12
2.234760
 22
1.491600
 13
2.894320
 23
1.114080
  0
POLYLINE
  8
0
  6
CONTINUOUS
 66
     1
 40
0.000000
 41
0.000000
  0
VERTEX
  8
0
  6
CONTINUOUS
 10
4.367880
 20
1.491600
  0
VERTEX
  8
0
  6
CONTINUOUS
 10
5.027440
 20
1.114080
  0
VERTEX
  8
0
  6
CONTINUOUS
 10
2.894320
 20
1.114080
  0
VERTEX
  8
0
  6
CONTINUOUS
 10
2.234760
 20
1.491600
  0
VERTEX
  8
0
  6
CONTINUOUS
 10
4.367880
 20
1.491600
  0
SEQEND
  8
0
  0
SOLID
  8
0
 62
    15
 10
4.618240
 20
1.489400
 11
5.277360
 21
1.111880
 12
2.234760
 22
1.489400
 13
2.894320
 23
1.111880
  0
POLYLINE
  8
0
  6
CONTINUOUS
 66
     1
 40
0.000000
 41
0.000000
  0
VERTEX
  8
0
  6
CONTINUOUS
 10
4.618240
 20
1.489400
  0
VERTEX
  8
0
  6
CONTINUOUS
 10
5.277360
 20
1.111880
  0
VERTEX
  8
0
  6
CONTINUOUS
 10
2.894320
 20
1.111880
  0
VERTEX
  8
0
  6
CONTINUOUS
 10
2.234760
 20
1.489400
  0
VERTEX
  8
0
  6
CONTINUOUS
 10
4.618240
 20
1.489400
  0
SEQEND
  8
0
  0
POLYLINE
  8
0
  6
CONTINUOUS
 66
     1
 40
0.000000
 41
0.000000
  0
VERTEX
  8
0
  6
CONTINUOUS
 10
2.234760
 20
1.491600
  0
VERTEX
  8
0
  6
CONTINUOUS
 10
2.234760
 20
1.995840
  0
VERTEX
  8
0
  6
CONTINUOUS
 10
4.588760
 20
4.466440
  0
VERTEX
  8
0
  6
CONTINUOUS
 10
6.138880
 20
4.466440
  0
VERTEX
  8
0
  6
CONTINUOUS
 10
6.149440
 20
4.464680
  0
VERTEX
  8
0
  6
CONTINUOUS
 10
6.149440
 20
3.687640
  0
VERTEX
  8
0
  6
CONTINUOUS
 10
6.134920
 20
3.685440
  0
VERTEX
  8
0
  6
CONTINUOUS
 10
5.882800
 20
3.659920
  0
VERTEX
  8
0
  6
CONTINUOUS
 10
5.647840
 20
3.586440
  0
VERTEX
  8
0
  6
CONTINUOUS
 10
5.434880
 20
3.470280
  0
VERTEX
  8
0
  6
CONTINUOUS
 10
5.249200
 20
3.316720
  0
VERTEX
  8
0
  6
CONTINUOUS
 10
5.095640
 20
3.131040
  0
VERTEX
  8
0
  6
CONTINUOUS
 10
4.979480
 20
2.918080
  0
VERTEX
  8
0
  6
CONTINUOUS
 10
4.906000
 20
2.683120
  0
VERTEX
  8
0
  6
CONTINUOUS
 10
4.880480
 20
2.431000
  0
VERTEX
  8
0
  6
CONTINUOUS
 10
4.902040
 20
2.205280
  0
VERTEX
  8
0
  6
CONTINUOUS
 10
4.964080
 20
1.993640
  0
VERTEX
  8
0
  6
CONTINUOUS
 10
4.970240
 20
1.979120
  0
VERTEX
  8
0
  6
CONTINUOUS
 10
4.618240
 20
1.489400
  0
VERTEX
  8
0
  6
CONTINUOUS
 10
2.234760
 20
1.489400
  0
VERTEX
  8
0
  6
CONTINUOUS
 10
2.234760
 20
1.491600
  0
VERTEX
  8
0
  6
CONTINUOUS
 10
4.367880
 20
1.491600
  0
VERTEX
  8
0
  6
CONTINUOUS
 10
2.234760
 20
1.491600
  0
SEQEND
  8
0
  0
TEXT
  8
0
 10
4.226200
 20
0.814880
 40
0.138217
  1
BA  710
 41
1.000000
  7
SN0
 71
     0
 72
     5
 11
4.815906
 21
0.814880
  0
TEXT
  8
0
 10
3.996520
 20
0.623480
 40
0.138217
  1
2-1/8" x 4-7/8"
 41
1.000000
  7
SN0
 71
     0
 72
     5
 11
5.044253
 21
0.623480
  0
ENDSEC
  0
EOF
