  0
SECTION
  2
HEADER
  9
$ACADVER
  1
AC1006
  9
$EXTMIN
 10
0.796400
 20
0.577720
  9
$EXTMAX
 10
7.937160
 20
8.592320
  9
$LTSCALE
 40
0.044000
  9
$PDMODE
 70
    35
  9
$PDSIZE
 40
0.035200
  0
ENDSEC
  0
SECTION
  2
TABLES
  0
TABLE
  2
LTYPE
 70
     9
  0
LTYPE
  2
CONTINUOUS
 70
    64
  3
Solid line
 72
    65
 73
     0
 40
0.000000
  0
LTYPE
  2
DASHED
 70
    64
  3
__ __ __ __ __ __ __ __ __ __ __ __ __ __ __
 72
    65
 73
     2
 40
0.000330
 49
0.000220
 49
-0.000110
  0
LTYPE
  2
HIDDEN
 70
    64
  3
 _ _ _ _ _ _ _ _ _ _ _ _ _ _ _ _ _ _ _ _ _ _
 72
    65
 73
     2
 40
0.000165
 49
0.000110
 49
-0.000055
  0
LTYPE
  2
CENTER
 70
    64
  3
____ _ ____ _ ____ _ ____ _ ____ _ ____ _ ____
 72
    65
 73
     4
 40
0.000880
 49
0.000550
 49
-0.000110
 49
0.000110
 49
-0.000110
  0
LTYPE
  2
PHANTOM
 70
    64
  3
_____ _ _ _____ _ _ _____ _ _ _____ _ _ ____
 72
    65
 73
     6
 40
0.001100
 49
0.000550
 49
-0.000110
 49
0.000110
 49
-0.000110
 49
0.000110
 49
-0.000110
  0
LTYPE
  2
DOT
 70
    64
  3
...............................................
 72
    65
 73
     2
 40
0.000110
 49
0.000000
 49
-0.000110
  0
LTYPE
  2
DASHDOT
 70
    64
  3
__ . __ . __ . __ . __ . __ . __ . __ . __ . __
 72
    65
 73
     4
 40
0.000440
 49
0.000220
 49
-0.000110
 49
0.000000
 49
-0.000110
  0
LTYPE
  2
BORDER
 70
    64
  3
__ __ . __ __ . __ __ . __ __ . __ __ . __ __
 72
    65
 73
     6
 40
0.000770
 49
0.000220
 49
-0.000110
 49
0.000220
 49
-0.000110
 49
0.000000
 49
-0.000110
  0
LTYPE
  2
DIVIDE
 70
    64
  3
__ . . __ . . __ . . __ . . __ . . __ . . __
 72
    65
 73
     6
 40
0.000550
 49
0.000220
 49
-0.000110
 49
0.000000
 49
-0.000110
 49
0.000000
 49
-0.000110
  0
LTYPE
  2
DOTDOT
 70
    64
  3
 . .  . .  . .  . .  . .  . . 
 72
    65
 73
     5
 40
0.000242
 49
-0.000110
 49
0.000000
 49
-0.000110
 49
0.000000
 49
-0.000110
  0
ENDTAB
  0
TABLE
  2
STYLE
 70
     2
  0
STYLE
 70
     0
  2
SN0
 40
0.000000
 41
0.000440
 50
0.000000
 71
     0
 42
0.000000
  3
ROMAND
  0
STYLE
 70
    68
  2
SV0
 40
0.000000
 41
0.000440
 50
0.000000
 71
     0
 42
0.000000
  3
ROMAND
  0
ENDTAB
  0
TABLE
  2
LAYER
 70
     3
  0
LAYER
  2
FOREGROUND
 70
    64
 62
     7
  6
CONTINUOUS
  0
LAYER
  2
BACKGROUND
 70
    65
 62
    -7
  6
CONTINUOUS
  0
LAYER
  2
0
 70
    64
 62
     7
  6
CONTINUOUS
  0
ENDTAB
  0
ENDSEC
  0
SECTION
  2
ENTITIES
  0
POLYLINE
  8
FOREGROUND
  6
CONTINUOUS
 66
     1
 40
0.000000
 41
0.000000
  0
VERTEX
  8
FOREGROUND
  6
CONTINUOUS
 10
0.000000
 20
9.170040
  0
VERTEX
  8
FOREGROUND
  6
CONTINUOUS
 10
8.499920
 20
9.170040
  0
VERTEX
  8
FOREGROUND
  6
CONTINUOUS
 10
8.499920
 20
-1.829960
  0
VERTEX
  8
FOREGROUND
  6
CONTINUOUS
 10
0.000000
 20
-1.829960
  0
VERTEX
  8
FOREGROUND
  6
CONTINUOUS
 10
0.000000
 20
9.170040
  0
SEQEND
  8
0
  0
POLYLINE
  8
FOREGROUND
  6
CONTINUOUS
 66
     1
 40
0.000000
 41
0.000000
  0
VERTEX
  8
FOREGROUND
  6
CONTINUOUS
 10
0.000000
 20
9.170040
  0
VERTEX
  8
FOREGROUND
  6
CONTINUOUS
 10
8.499920
 20
9.170040
  0
VERTEX
  8
FOREGROUND
  6
CONTINUOUS
 10
8.499920
 20
-1.829960
  0
VERTEX
  8
FOREGROUND
  6
CONTINUOUS
 10
0.000000
 20
-1.829960
  0
VERTEX
  8
FOREGROUND
  6
CONTINUOUS
 10
0.000000
 20
9.170040
  0
SEQEND
  8
0
  0
POLYLINE
  8
0
  6
CONTINUOUS
 66
     1
 40
0.014080
 41
0.014080
  0
VERTEX
  8
0
  6
CONTINUOUS
 10
6.623760
 20
8.213480
  0
VERTEX
  8
0
  6
CONTINUOUS
 10
6.593840
 20
8.242520
  0
VERTEX
  8
0
  6
CONTINUOUS
 10
6.532240
 20
8.294880
  0
VERTEX
  8
0
  6
CONTINUOUS
 10
6.501000
 20
8.319080
  0
VERTEX
  8
0
  6
CONTINUOUS
 10
6.436760
 20
8.362200
  0
VERTEX
  8
0
  6
CONTINUOUS
 10
6.370760
 20
8.399160
  0
VERTEX
  8
0
  6
CONTINUOUS
 10
6.337320
 20
8.415880
  0
VERTEX
  8
0
  6
CONTINUOUS
 10
6.268680
 20
8.444480
  0
VERTEX
  8
0
  6
CONTINUOUS
 10
6.198720
 20
8.467360
  0
VERTEX
  8
0
  6
CONTINUOUS
 10
6.163080
 20
8.477040
  0
VERTEX
  8
0
  6
CONTINUOUS
 10
6.090920
 20
8.492000
  0
VERTEX
  8
0
  6
CONTINUOUS
 10
6.054400
 20
8.498160
  0
VERTEX
  8
0
  6
CONTINUOUS
 10
5.980040
 20
8.506080
  0
VERTEX
  8
0
  6
CONTINUOUS
 10
5.942200
 20
8.508720
  0
VERTEX
  8
0
  6
CONTINUOUS
 10
5.865640
 20
8.510040
  0
VERTEX
  8
0
  6
CONTINUOUS
 10
5.788200
 20
8.507400
  0
VERTEX
  8
0
  6
CONTINUOUS
 10
5.709440
 20
8.500800
  0
VERTEX
  8
0
  6
CONTINUOUS
 10
5.629360
 20
8.490680
  0
VERTEX
  8
0
  6
CONTINUOUS
 10
5.507040
 20
8.468680
  0
VERTEX
  8
0
  6
CONTINUOUS
 10
5.382960
 20
8.440080
  0
VERTEX
  8
0
  6
CONTINUOUS
 10
5.256680
 20
8.405320
  0
VERTEX
  8
0
  6
CONTINUOUS
 10
5.128640
 20
8.365280
  0
VERTEX
  8
0
  6
CONTINUOUS
 10
5.042400
 20
8.336240
  0
VERTEX
  8
0
  6
CONTINUOUS
 10
4.867720
 20
8.272880
  0
VERTEX
  8
0
  6
CONTINUOUS
 10
4.602400
 20
8.168600
  0
VERTEX
  8
0
  6
CONTINUOUS
 10
4.153160
 20
7.986880
  0
VERTEX
  8
0
  6
CONTINUOUS
 10
3.972760
 20
7.916920
  0
VERTEX
  8
0
  6
CONTINUOUS
 10
3.792800
 20
7.851800
  0
VERTEX
  8
0
  6
CONTINUOUS
 10
3.703040
 20
7.821000
  0
VERTEX
  8
0
  6
CONTINUOUS
 10
3.613280
 20
7.792400
  0
VERTEX
  8
0
  6
CONTINUOUS
 10
3.523960
 20
7.766000
  0
VERTEX
  8
0
  6
CONTINUOUS
 10
3.390640
 20
7.730800
  0
VERTEX
  8
0
  6
CONTINUOUS
 10
3.302640
 20
7.710120
  0
VERTEX
  8
0
  6
CONTINUOUS
 10
3.171080
 20
7.685480
  0
VERTEX
  8
0
  6
CONTINUOUS
 10
3.083960
 20
7.672720
  0
VERTEX
  8
0
  6
CONTINUOUS
 10
2.997720
 20
7.663480
  0
VERTEX
  8
0
  6
CONTINUOUS
 10
2.912360
 20
7.658200
  0
VERTEX
  8
0
  6
CONTINUOUS
 10
2.827880
 20
7.656880
  0
VERTEX
  8
0
  6
CONTINUOUS
 10
2.743840
 20
7.659520
  0
VERTEX
  8
0
  6
CONTINUOUS
 10
2.661120
 20
7.667000
  0
VERTEX
  8
0
  6
CONTINUOUS
 10
2.578840
 20
7.678880
  0
VERTEX
  8
0
  6
CONTINUOUS
 10
2.497880
 20
7.696040
  0
VERTEX
  8
0
  6
CONTINUOUS
 10
2.457840
 20
7.706160
  0
VERTEX
  8
0
  6
CONTINUOUS
 10
2.378640
 20
7.730800
  0
VERTEX
  8
0
  6
CONTINUOUS
 10
2.300320
 20
7.761160
  0
VERTEX
  8
0
  6
CONTINUOUS
 10
2.223320
 20
7.797240
  0
VERTEX
  8
0
  6
CONTINUOUS
 10
2.148080
 20
7.839480
  0
VERTEX
  8
0
  6
CONTINUOUS
 10
2.073720
 20
7.887880
  0
VERTEX
  8
0
  6
CONTINUOUS
 10
2.000680
 20
7.942440
  0
VERTEX
  8
0
  6
CONTINUOUS
 10
1.929400
 20
8.004040
  0
VERTEX
  8
0
  6
CONTINUOUS
 10
1.859440
 20
8.072680
  0
VERTEX
  8
0
  6
CONTINUOUS
 10
1.791240
 20
8.148360
  0
VERTEX
  8
0
  6
CONTINUOUS
 10
1.724800
 20
8.231520
  0
VERTEX
  8
0
  6
CONTINUOUS
 10
1.660120
 20
8.322600
  0
VERTEX
  8
0
  6
CONTINUOUS
 10
1.596760
 20
8.421160
  0
VERTEX
  8
0
  6
CONTINUOUS
 10
1.535600
 20
8.528080
  0
VERTEX
  8
0
  6
CONTINUOUS
 10
1.505680
 20
8.584840
  0
VERTEX
  8
0
  6
CONTINUOUS
 10
0.827200
 20
8.255280
  0
VERTEX
  8
0
  6
CONTINUOUS
 10
1.375000
 20
7.127120
  0
VERTEX
  8
0
  6
CONTINUOUS
 10
1.374120
 20
7.124480
  0
VERTEX
  8
0
  6
CONTINUOUS
 10
7.285080
 20
7.113480
  0
VERTEX
  8
0
  6
CONTINUOUS
 10
7.927920
 20
7.425880
  0
VERTEX
  8
0
  6
CONTINUOUS
 10
7.371760
 20
8.570760
  0
VERTEX
  8
0
  6
CONTINUOUS
 10
6.631240
 20
8.211280
  0
VERTEX
  8
0
  6
CONTINUOUS
 10
6.623760
 20
8.213480
  0
SEQEND
  8
0
  0
SOLID
  8
0
 62
    15
 10
4.224880
 20
5.327080
 11
4.860240
 21
4.949560
 12
4.123680
 22
4.988720
 13
4.759040
 23
4.611200
  0
POLYLINE
  8
0
  6
CONTINUOUS
 66
     1
 40
0.000000
 41
0.000000
  0
VERTEX
  8
0
  6
CONTINUOUS
 10
4.224880
 20
5.327080
  0
VERTEX
  8
0
  6
CONTINUOUS
 10
4.860240
 20
4.949560
  0
VERTEX
  8
0
  6
CONTINUOUS
 10
4.759040
 20
4.611200
  0
VERTEX
  8
0
  6
CONTINUOUS
 10
4.123680
 20
4.988720
  0
VERTEX
  8
0
  6
CONTINUOUS
 10
4.224880
 20
5.327080
  0
SEQEND
  8
0
  0
SOLID
  8
0
 62
    15
 10
3.130600
 20
0.996160
 11
3.765960
 21
0.618640
 12
1.857680
 22
0.996160
 13
2.493040
 23
0.618640
  0
POLYLINE
  8
0
  6
CONTINUOUS
 66
     1
 40
0.000000
 41
0.000000
  0
VERTEX
  8
0
  6
CONTINUOUS
 10
3.130600
 20
0.996160
  0
VERTEX
  8
0
  6
CONTINUOUS
 10
3.765960
 20
0.618640
  0
VERTEX
  8
0
  6
CONTINUOUS
 10
2.493040
 20
0.618640
  0
VERTEX
  8
0
  6
CONTINUOUS
 10
1.857680
 20
0.996160
  0
VERTEX
  8
0
  6
CONTINUOUS
 10
3.130600
 20
0.996160
  0
SEQEND
  8
0
  0
SOLID
  8
0
 62
    15
 10
4.449280
 20
7.023280
 11
5.084640
 21
6.645760
 12
4.451480
 22
7.021080
 13
5.086840
 23
6.643560
  0
POLYLINE
  8
0
  6
CONTINUOUS
 66
     1
 40
0.000000
 41
0.000000
  0
VERTEX
  8
0
  6
CONTINUOUS
 10
4.449280
 20
7.023280
  0
VERTEX
  8
0
  6
CONTINUOUS
 10
5.084640
 20
6.645760
  0
VERTEX
  8
0
  6
CONTINUOUS
 10
5.086840
 20
6.643560
  0
VERTEX
  8
0
  6
CONTINUOUS
 10
4.451480
 20
7.021080
  0
VERTEX
  8
0
  6
CONTINUOUS
 10
4.449280
 20
7.023280
  0
SEQEND
  8
0
  0
SOLID
  8
0
 62
    15
 10
5.705920
 20
7.021080
 11
6.340840
 21
6.643560
 12
5.705920
 22
6.266920
 13
6.340840
 23
5.889400
  0
POLYLINE
  8
0
  6
CONTINUOUS
 66
     1
 40
0.000000
 41
0.000000
  0
VERTEX
  8
0
  6
CONTINUOUS
 10
5.705920
 20
7.021080
  0
VERTEX
  8
0
  6
CONTINUOUS
 10
6.340840
 20
6.643560
  0
VERTEX
  8
0
  6
CONTINUOUS
 10
6.340840
 20
5.889400
  0
VERTEX
  8
0
  6
CONTINUOUS
 10
5.705920
 20
6.266920
  0
VERTEX
  8
0
  6
CONTINUOUS
 10
5.705920
 20
7.021080
  0
SEQEND
  8
0
  0
SOLID
  8
0
 62
    15
 10
5.705920
 20
6.266920
 11
6.340840
 21
5.889400
 12
5.459520
 22
6.250200
 13
6.094880
 23
5.872680
  0
POLYLINE
  8
0
  6
CONTINUOUS
 66
     1
 40
0.000000
 41
0.000000
  0
VERTEX
  8
0
  6
CONTINUOUS
 10
5.705920
 20
6.266920
  0
VERTEX
  8
0
  6
CONTINUOUS
 10
6.340840
 20
5.889400
  0
VERTEX
  8
0
  6
CONTINUOUS
 10
6.094880
 20
5.872680
  0
VERTEX
  8
0
  6
CONTINUOUS
 10
5.459520
 20
6.250200
  0
VERTEX
  8
0
  6
CONTINUOUS
 10
5.705920
 20
6.266920
  0
SEQEND
  8
0
  0
SOLID
  8
0
 62
    15
 10
5.459520
 20
6.250200
 11
6.094880
 21
5.872680
 12
5.239520
 22
6.212800
 13
5.874880
 23
5.835720
  0
POLYLINE
  8
0
  6
CONTINUOUS
 66
     1
 40
0.000000
 41
0.000000
  0
VERTEX
  8
0
  6
CONTINUOUS
 10
5.459520
 20
6.250200
  0
VERTEX
  8
0
  6
CONTINUOUS
 10
6.094880
 20
5.872680
  0
VERTEX
  8
0
  6
CONTINUOUS
 10
5.874880
 20
5.835720
  0
VERTEX
  8
0
  6
CONTINUOUS
 10
5.239520
 20
6.212800
  0
VERTEX
  8
0
  6
CONTINUOUS
 10
5.459520
 20
6.250200
  0
SEQEND
  8
0
  0
SOLID
  8
0
 62
    15
 10
5.239520
 20
6.212800
 11
5.874880
 21
5.835720
 12
5.043720
 22
6.156480
 13
5.679080
 23
5.778960
  0
POLYLINE
  8
0
  6
CONTINUOUS
 66
     1
 40
0.000000
 41
0.000000
  0
VERTEX
  8
0
  6
CONTINUOUS
 10
5.239520
 20
6.212800
  0
VERTEX
  8
0
  6
CONTINUOUS
 10
5.874880
 20
5.835720
  0
VERTEX
  8
0
  6
CONTINUOUS
 10
5.679080
 20
5.778960
  0
VERTEX
  8
0
  6
CONTINUOUS
 10
5.043720
 20
6.156480
  0
VERTEX
  8
0
  6
CONTINUOUS
 10
5.239520
 20
6.212800
  0
SEQEND
  8
0
  0
SOLID
  8
0
 62
    15
 10
5.043720
 20
6.156480
 11
5.679080
 21
5.778960
 12
4.870360
 22
6.081680
 13
5.505720
 23
5.704160
  0
POLYLINE
  8
0
  6
CONTINUOUS
 66
     1
 40
0.000000
 41
0.000000
  0
VERTEX
  8
0
  6
CONTINUOUS
 10
5.043720
 20
6.156480
  0
VERTEX
  8
0
  6
CONTINUOUS
 10
5.679080
 20
5.778960
  0
VERTEX
  8
0
  6
CONTINUOUS
 10
5.505720
 20
5.704160
  0
VERTEX
  8
0
  6
CONTINUOUS
 10
4.870360
 20
6.081680
  0
VERTEX
  8
0
  6
CONTINUOUS
 10
5.043720
 20
6.156480
  0
SEQEND
  8
0
  0
SOLID
  8
0
 62
    15
 10
4.870360
 20
6.081680
 11
5.505720
 21
5.704160
 12
4.718560
 22
5.990600
 13
5.353920
 23
5.613080
  0
POLYLINE
  8
0
  6
CONTINUOUS
 66
     1
 40
0.000000
 41
0.000000
  0
VERTEX
  8
0
  6
CONTINUOUS
 10
4.870360
 20
6.081680
  0
VERTEX
  8
0
  6
CONTINUOUS
 10
5.505720
 20
5.704160
  0
VERTEX
  8
0
  6
CONTINUOUS
 10
5.353920
 20
5.613080
  0
VERTEX
  8
0
  6
CONTINUOUS
 10
4.718560
 20
5.990600
  0
VERTEX
  8
0
  6
CONTINUOUS
 10
4.870360
 20
6.081680
  0
SEQEND
  8
0
  0
SOLID
  8
0
 62
    15
 10
4.718560
 20
5.990600
 11
5.353920
 21
5.613080
 12
4.586120
 22
5.883680
 13
5.221480
 23
5.506160
  0
POLYLINE
  8
0
  6
CONTINUOUS
 66
     1
 40
0.000000
 41
0.000000
  0
VERTEX
  8
0
  6
CONTINUOUS
 10
4.718560
 20
5.990600
  0
VERTEX
  8
0
  6
CONTINUOUS
 10
5.353920
 20
5.613080
  0
VERTEX
  8
0
  6
CONTINUOUS
 10
5.221480
 20
5.506160
  0
VERTEX
  8
0
  6
CONTINUOUS
 10
4.586120
 20
5.883680
  0
VERTEX
  8
0
  6
CONTINUOUS
 10
4.718560
 20
5.990600
  0
SEQEND
  8
0
  0
SOLID
  8
0
 62
    15
 10
4.586120
 20
5.883680
 11
5.221480
 21
5.506160
 12
4.472600
 22
5.762680
 13
5.107520
 23
5.385160
  0
POLYLINE
  8
0
  6
CONTINUOUS
 66
     1
 40
0.000000
 41
0.000000
  0
VERTEX
  8
0
  6
CONTINUOUS
 10
4.586120
 20
5.883680
  0
VERTEX
  8
0
  6
CONTINUOUS
 10
5.221480
 20
5.506160
  0
VERTEX
  8
0
  6
CONTINUOUS
 10
5.107520
 20
5.385160
  0
VERTEX
  8
0
  6
CONTINUOUS
 10
4.472600
 20
5.762680
  0
VERTEX
  8
0
  6
CONTINUOUS
 10
4.586120
 20
5.883680
  0
SEQEND
  8
0
  0
SOLID
  8
0
 62
    15
 10
4.472600
 20
5.762680
 11
5.107520
 21
5.385160
 12
4.375360
 22
5.628480
 13
5.010720
 23
5.251400
  0
POLYLINE
  8
0
  6
CONTINUOUS
 66
     1
 40
0.000000
 41
0.000000
  0
VERTEX
  8
0
  6
CONTINUOUS
 10
4.472600
 20
5.762680
  0
VERTEX
  8
0
  6
CONTINUOUS
 10
5.107520
 20
5.385160
  0
VERTEX
  8
0
  6
CONTINUOUS
 10
5.010720
 20
5.251400
  0
VERTEX
  8
0
  6
CONTINUOUS
 10
4.375360
 20
5.628480
  0
VERTEX
  8
0
  6
CONTINUOUS
 10
4.472600
 20
5.762680
  0
SEQEND
  8
0
  0
SOLID
  8
0
 62
    15
 10
4.375360
 20
5.628480
 11
5.010720
 21
5.251400
 12
4.224880
 22
5.327080
 13
4.860240
 23
4.949560
  0
POLYLINE
  8
0
  6
CONTINUOUS
 66
     1
 40
0.000000
 41
0.000000
  0
VERTEX
  8
0
  6
CONTINUOUS
 10
4.375360
 20
5.628480
  0
VERTEX
  8
0
  6
CONTINUOUS
 10
5.010720
 20
5.251400
  0
VERTEX
  8
0
  6
CONTINUOUS
 10
4.860240
 20
4.949560
  0
VERTEX
  8
0
  6
CONTINUOUS
 10
4.224880
 20
5.327080
  0
VERTEX
  8
0
  6
CONTINUOUS
 10
4.375360
 20
5.628480
  0
SEQEND
  8
0
  0
SOLID
  8
0
 62
    15
 10
3.130600
 20
1.818960
 11
3.765960
 21
1.441440
 12
3.130600
 22
0.996160
 13
3.765960
 23
0.618640
  0
POLYLINE
  8
0
  6
CONTINUOUS
 66
     1
 40
0.000000
 41
0.000000
  0
VERTEX
  8
0
  6
CONTINUOUS
 10
3.130600
 20
1.818960
  0
VERTEX
  8
0
  6
CONTINUOUS
 10
3.765960
 20
1.441440
  0
VERTEX
  8
0
  6
CONTINUOUS
 10
3.765960
 20
0.618640
  0
VERTEX
  8
0
  6
CONTINUOUS
 10
3.130600
 20
0.996160
  0
VERTEX
  8
0
  6
CONTINUOUS
 10
3.130600
 20
1.818960
  0
SEQEND
  8
0
  0
SOLID
  8
0
 62
    15
 10
4.123680
 20
4.988720
 11
4.759040
 21
4.611200
 12
4.059000
 22
4.623960
 13
4.693920
 23
4.246440
  0
POLYLINE
  8
0
  6
CONTINUOUS
 66
     1
 40
0.000000
 41
0.000000
  0
VERTEX
  8
0
  6
CONTINUOUS
 10
4.123680
 20
4.988720
  0
VERTEX
  8
0
  6
CONTINUOUS
 10
4.759040
 20
4.611200
  0
VERTEX
  8
0
  6
CONTINUOUS
 10
4.693920
 20
4.246440
  0
VERTEX
  8
0
  6
CONTINUOUS
 10
4.059000
 20
4.623960
  0
VERTEX
  8
0
  6
CONTINUOUS
 10
4.123680
 20
4.988720
  0
SEQEND
  8
0
  0
SOLID
  8
0
 62
    15
 10
4.059000
 20
4.623960
 11
4.693920
 21
4.246440
 12
4.018960
 22
4.242920
 13
4.653880
 23
3.865400
  0
POLYLINE
  8
0
  6
CONTINUOUS
 66
     1
 40
0.000000
 41
0.000000
  0
VERTEX
  8
0
  6
CONTINUOUS
 10
4.059000
 20
4.623960
  0
VERTEX
  8
0
  6
CONTINUOUS
 10
4.693920
 20
4.246440
  0
VERTEX
  8
0
  6
CONTINUOUS
 10
4.653880
 20
3.865400
  0
VERTEX
  8
0
  6
CONTINUOUS
 10
4.018960
 20
4.242920
  0
VERTEX
  8
0
  6
CONTINUOUS
 10
4.059000
 20
4.623960
  0
SEQEND
  8
0
  0
SOLID
  8
0
 62
    15
 10
4.018960
 20
4.242920
 11
4.653880
 21
3.865400
 12
3.963960
 22
3.472920
 13
4.599320
 23
3.095400
  0
POLYLINE
  8
0
  6
CONTINUOUS
 66
     1
 40
0.000000
 41
0.000000
  0
VERTEX
  8
0
  6
CONTINUOUS
 10
4.018960
 20
4.242920
  0
VERTEX
  8
0
  6
CONTINUOUS
 10
4.653880
 20
3.865400
  0
VERTEX
  8
0
  6
CONTINUOUS
 10
4.599320
 20
3.095400
  0
VERTEX
  8
0
  6
CONTINUOUS
 10
3.963960
 20
3.472920
  0
VERTEX
  8
0
  6
CONTINUOUS
 10
4.018960
 20
4.242920
  0
SEQEND
  8
0
  0
SOLID
  8
0
 62
    15
 10
3.963960
 20
3.472920
 11
4.599320
 21
3.095400
 12
3.925680
 22
3.103760
 13
4.561040
 23
2.726240
  0
POLYLINE
  8
0
  6
CONTINUOUS
 66
     1
 40
0.000000
 41
0.000000
  0
VERTEX
  8
0
  6
CONTINUOUS
 10
3.963960
 20
3.472920
  0
VERTEX
  8
0
  6
CONTINUOUS
 10
4.599320
 20
3.095400
  0
VERTEX
  8
0
  6
CONTINUOUS
 10
4.561040
 20
2.726240
  0
VERTEX
  8
0
  6
CONTINUOUS
 10
3.925680
 20
3.103760
  0
VERTEX
  8
0
  6
CONTINUOUS
 10
3.963960
 20
3.472920
  0
SEQEND
  8
0
  0
SOLID
  8
0
 62
    15
 10
3.925680
 20
3.103760
 11
4.561040
 21
2.726240
 12
3.863200
 22
2.758800
 13
4.498560
 23
2.381720
  0
POLYLINE
  8
0
  6
CONTINUOUS
 66
     1
 40
0.000000
 41
0.000000
  0
VERTEX
  8
0
  6
CONTINUOUS
 10
3.925680
 20
3.103760
  0
VERTEX
  8
0
  6
CONTINUOUS
 10
4.561040
 20
2.726240
  0
VERTEX
  8
0
  6
CONTINUOUS
 10
4.498560
 20
2.381720
  0
VERTEX
  8
0
  6
CONTINUOUS
 10
3.863200
 20
2.758800
  0
VERTEX
  8
0
  6
CONTINUOUS
 10
3.925680
 20
3.103760
  0
SEQEND
  8
0
  0
SOLID
  8
0
 62
    15
 10
3.863200
 20
2.758800
 11
4.498560
 21
2.381720
 12
3.765080
 22
2.448600
 13
4.400440
 23
2.071080
  0
POLYLINE
  8
0
  6
CONTINUOUS
 66
     1
 40
0.000000
 41
0.000000
  0
VERTEX
  8
0
  6
CONTINUOUS
 10
3.863200
 20
2.758800
  0
VERTEX
  8
0
  6
CONTINUOUS
 10
4.498560
 20
2.381720
  0
VERTEX
  8
0
  6
CONTINUOUS
 10
4.400440
 20
2.071080
  0
VERTEX
  8
0
  6
CONTINUOUS
 10
3.765080
 20
2.448600
  0
VERTEX
  8
0
  6
CONTINUOUS
 10
3.863200
 20
2.758800
  0
SEQEND
  8
0
  0
SOLID
  8
0
 62
    15
 10
3.765080
 20
2.448600
 11
4.400440
 21
2.071080
 12
3.619440
 22
2.182840
 13
4.254800
 23
1.805320
  0
POLYLINE
  8
0
  6
CONTINUOUS
 66
     1
 40
0.000000
 41
0.000000
  0
VERTEX
  8
0
  6
CONTINUOUS
 10
3.765080
 20
2.448600
  0
VERTEX
  8
0
  6
CONTINUOUS
 10
4.400440
 20
2.071080
  0
VERTEX
  8
0
  6
CONTINUOUS
 10
4.254800
 20
1.805320
  0
VERTEX
  8
0
  6
CONTINUOUS
 10
3.619440
 20
2.182840
  0
VERTEX
  8
0
  6
CONTINUOUS
 10
3.765080
 20
2.448600
  0
SEQEND
  8
0
  0
SOLID
  8
0
 62
    15
 10
3.619440
 20
2.182840
 11
4.254800
 21
1.805320
 12
3.524840
 22
2.069760
 13
4.160200
 23
1.692240
  0
POLYLINE
  8
0
  6
CONTINUOUS
 66
     1
 40
0.000000
 41
0.000000
  0
VERTEX
  8
0
  6
CONTINUOUS
 10
3.619440
 20
2.182840
  0
VERTEX
  8
0
  6
CONTINUOUS
 10
4.254800
 20
1.805320
  0
VERTEX
  8
0
  6
CONTINUOUS
 10
4.160200
 20
1.692240
  0
VERTEX
  8
0
  6
CONTINUOUS
 10
3.524840
 20
2.069760
  0
VERTEX
  8
0
  6
CONTINUOUS
 10
3.619440
 20
2.182840
  0
SEQEND
  8
0
  0
SOLID
  8
0
 62
    15
 10
3.524840
 20
2.069760
 11
4.160200
 21
1.692240
 12
3.413520
 22
1.971640
 13
4.048880
 23
1.594120
  0
POLYLINE
  8
0
  6
CONTINUOUS
 66
     1
 40
0.000000
 41
0.000000
  0
VERTEX
  8
0
  6
CONTINUOUS
 10
3.524840
 20
2.069760
  0
VERTEX
  8
0
  6
CONTINUOUS
 10
4.160200
 20
1.692240
  0
VERTEX
  8
0
  6
CONTINUOUS
 10
4.048880
 20
1.594120
  0
VERTEX
  8
0
  6
CONTINUOUS
 10
3.413520
 20
1.971640
  0
VERTEX
  8
0
  6
CONTINUOUS
 10
3.524840
 20
2.069760
  0
SEQEND
  8
0
  0
SOLID
  8
0
 62
    15
 10
3.413520
 20
1.971640
 11
4.048880
 21
1.594120
 12
3.284600
 22
1.889800
 13
3.919960
 23
1.512280
  0
POLYLINE
  8
0
  6
CONTINUOUS
 66
     1
 40
0.000000
 41
0.000000
  0
VERTEX
  8
0
  6
CONTINUOUS
 10
3.413520
 20
1.971640
  0
VERTEX
  8
0
  6
CONTINUOUS
 10
4.048880
 20
1.594120
  0
VERTEX
  8
0
  6
CONTINUOUS
 10
3.919960
 20
1.512280
  0
VERTEX
  8
0
  6
CONTINUOUS
 10
3.284600
 20
1.889800
  0
VERTEX
  8
0
  6
CONTINUOUS
 10
3.413520
 20
1.971640
  0
SEQEND
  8
0
  0
SOLID
  8
0
 62
    15
 10
3.284600
 20
1.889800
 11
3.919960
 21
1.512280
 12
3.135880
 22
1.825120
 13
3.771240
 23
1.447600
  0
POLYLINE
  8
0
  6
CONTINUOUS
 66
     1
 40
0.000000
 41
0.000000
  0
VERTEX
  8
0
  6
CONTINUOUS
 10
3.284600
 20
1.889800
  0
VERTEX
  8
0
  6
CONTINUOUS
 10
3.919960
 20
1.512280
  0
VERTEX
  8
0
  6
CONTINUOUS
 10
3.771240
 20
1.447600
  0
VERTEX
  8
0
  6
CONTINUOUS
 10
3.135880
 20
1.825120
  0
VERTEX
  8
0
  6
CONTINUOUS
 10
3.284600
 20
1.889800
  0
SEQEND
  8
0
  0
SOLID
  8
0
 62
    15
 10
3.135880
 20
1.825120
 11
3.771240
 21
1.447600
 12
3.130600
 22
1.818960
 13
3.765960
 23
1.441440
  0
POLYLINE
  8
0
  6
CONTINUOUS
 66
     1
 40
0.000000
 41
0.000000
  0
VERTEX
  8
0
  6
CONTINUOUS
 10
3.135880
 20
1.825120
  0
VERTEX
  8
0
  6
CONTINUOUS
 10
3.771240
 20
1.447600
  0
VERTEX
  8
0
  6
CONTINUOUS
 10
3.765960
 20
1.441440
  0
VERTEX
  8
0
  6
CONTINUOUS
 10
3.130600
 20
1.818960
  0
VERTEX
  8
0
  6
CONTINUOUS
 10
3.135880
 20
1.825120
  0
SEQEND
  8
0
  0
POLYLINE
  8
0
  6
CONTINUOUS
 66
     1
 40
0.000000
 41
0.000000
  0
VERTEX
  8
0
  6
CONTINUOUS
 10
3.130600
 20
1.818960
  0
VERTEX
  8
0
  6
CONTINUOUS
 10
3.130600
 20
0.996160
  0
VERTEX
  8
0
  6
CONTINUOUS
 10
1.857680
 20
0.996160
  0
VERTEX
  8
0
  6
CONTINUOUS
 10
1.857680
 20
1.710720
  0
VERTEX
  8
0
  6
CONTINUOUS
 10
1.860320
 20
1.714680
  0
VERTEX
  8
0
  6
CONTINUOUS
 10
4.449280
 20
7.023280
  0
VERTEX
  8
0
  6
CONTINUOUS
 10
4.451480
 20
7.021080
  0
VERTEX
  8
0
  6
CONTINUOUS
 10
5.705920
 20
7.021080
  0
VERTEX
  8
0
  6
CONTINUOUS
 10
5.705920
 20
6.266920
  0
VERTEX
  8
0
  6
CONTINUOUS
 10
5.459520
 20
6.250200
  0
VERTEX
  8
0
  6
CONTINUOUS
 10
5.239520
 20
6.212800
  0
VERTEX
  8
0
  6
CONTINUOUS
 10
5.043720
 20
6.156480
  0
VERTEX
  8
0
  6
CONTINUOUS
 10
4.870360
 20
6.081680
  0
VERTEX
  8
0
  6
CONTINUOUS
 10
4.718560
 20
5.990600
  0
VERTEX
  8
0
  6
CONTINUOUS
 10
4.586120
 20
5.883680
  0
VERTEX
  8
0
  6
CONTINUOUS
 10
4.472600
 20
5.762680
  0
VERTEX
  8
0
  6
CONTINUOUS
 10
4.375360
 20
5.628480
  0
VERTEX
  8
0
  6
CONTINUOUS
 10
4.224880
 20
5.327080
  0
VERTEX
  8
0
  6
CONTINUOUS
 10
4.123680
 20
4.988720
  0
VERTEX
  8
0
  6
CONTINUOUS
 10
4.059000
 20
4.623960
  0
VERTEX
  8
0
  6
CONTINUOUS
 10
4.018960
 20
4.242920
  0
VERTEX
  8
0
  6
CONTINUOUS
 10
3.963960
 20
3.472920
  0
VERTEX
  8
0
  6
CONTINUOUS
 10
3.925680
 20
3.103760
  0
VERTEX
  8
0
  6
CONTINUOUS
 10
3.863200
 20
2.758800
  0
VERTEX
  8
0
  6
CONTINUOUS
 10
3.765080
 20
2.448600
  0
VERTEX
  8
0
  6
CONTINUOUS
 10
3.619440
 20
2.182840
  0
VERTEX
  8
0
  6
CONTINUOUS
 10
3.524840
 20
2.069760
  0
VERTEX
  8
0
  6
CONTINUOUS
 10
3.413520
 20
1.971640
  0
VERTEX
  8
0
  6
CONTINUOUS
 10
3.284600
 20
1.889800
  0
VERTEX
  8
0
  6
CONTINUOUS
 10
3.135880
 20
1.825120
  0
VERTEX
  8
0
  6
CONTINUOUS
 10
3.130600
 20
1.818960
  0
SEQEND
  8
0
  0
TEXT
  8
0
 10
4.334880
 20
0.812680
 40
0.138123
  1
BA  709
 41
1.000000
  7
SN0
 71
     0
 72
     5
 11
4.924354
 21
0.812680
  0
TEXT
  8
0
 10
4.105200
 20
0.621280
 40
0.138123
  1
1-1/2" x 7-1/8"
 41
1.000000
  7
SN0
 71
     0
 72
     5
 11
5.151105
 21
0.621280
  0
ENDSEC
  0
EOF
