  0
SECTION
  2
HEADER
  9
$ACADVER
  1
AC1006
  9
$EXTMIN
 10
3.381840
 20
0.444840
  9
$EXTMAX
 10
7.840800
 20
2.768040
  9
$LTSCALE
 40
0.044000
  9
$PDMODE
 70
    35
  9
$PDSIZE
 40
0.035200
  0
ENDSEC
  0
SECTION
  2
TABLES
  0
TABLE
  2
LTYPE
 70
     9
  0
LTYPE
  2
CONTINUOUS
 70
    64
  3
Solid line
 72
    65
 73
     0
 40
0.000000
  0
LTYPE
  2
DASHED
 70
    64
  3
__ __ __ __ __ __ __ __ __ __ __ __ __ __ __
 72
    65
 73
     2
 40
0.000330
 49
0.000220
 49
-0.000110
  0
LTYPE
  2
HIDDEN
 70
    64
  3
 _ _ _ _ _ _ _ _ _ _ _ _ _ _ _ _ _ _ _ _ _ _
 72
    65
 73
     2
 40
0.000165
 49
0.000110
 49
-0.000055
  0
LTYPE
  2
CENTER
 70
    64
  3
____ _ ____ _ ____ _ ____ _ ____ _ ____ _ ____
 72
    65
 73
     4
 40
0.000880
 49
0.000550
 49
-0.000110
 49
0.000110
 49
-0.000110
  0
LTYPE
  2
PHANTOM
 70
    64
  3
_____ _ _ _____ _ _ _____ _ _ _____ _ _ ____
 72
    65
 73
     6
 40
0.001100
 49
0.000550
 49
-0.000110
 49
0.000110
 49
-0.000110
 49
0.000110
 49
-0.000110
  0
LTYPE
  2
DOT
 70
    64
  3
...............................................
 72
    65
 73
     2
 40
0.000110
 49
0.000000
 49
-0.000110
  0
LTYPE
  2
DASHDOT
 70
    64
  3
__ . __ . __ . __ . __ . __ . __ . __ . __ . __
 72
    65
 73
     4
 40
0.000440
 49
0.000220
 49
-0.000110
 49
0.000000
 49
-0.000110
  0
LTYPE
  2
BORDER
 70
    64
  3
__ __ . __ __ . __ __ . __ __ . __ __ . __ __
 72
    65
 73
     6
 40
0.000770
 49
0.000220
 49
-0.000110
 49
0.000220
 49
-0.000110
 49
0.000000
 49
-0.000110
  0
LTYPE
  2
DIVIDE
 70
    64
  3
__ . . __ . . __ . . __ . . __ . . __ . . __
 72
    65
 73
     6
 40
0.000550
 49
0.000220
 49
-0.000110
 49
0.000000
 49
-0.000110
 49
0.000000
 49
-0.000110
  0
LTYPE
  2
DOTDOT
 70
    64
  3
 . .  . .  . .  . .  . .  . . 
 72
    65
 73
     5
 40
0.000242
 49
-0.000110
 49
0.000000
 49
-0.000110
 49
0.000000
 49
-0.000110
  0
ENDTAB
  0
TABLE
  2
STYLE
 70
     2
  0
STYLE
 70
     0
  2
SN0
 40
0.000000
 41
0.000440
 50
0.000000
 71
     0
 42
0.000000
  3
ROMAND
  0
STYLE
 70
    68
  2
SV0
 40
0.000000
 41
0.000440
 50
0.000000
 71
     0
 42
0.000000
  3
ROMAND
  0
ENDTAB
  0
TABLE
  2
LAYER
 70
     3
  0
LAYER
  2
FOREGROUND
 70
    64
 62
     7
  6
CONTINUOUS
  0
LAYER
  2
BACKGROUND
 70
    65
 62
    -7
  6
CONTINUOUS
  0
LAYER
  2
0
 70
    64
 62
     7
  6
CONTINUOUS
  0
ENDTAB
  0
ENDSEC
  0
SECTION
  2
ENTITIES
  0
POLYLINE
  8
FOREGROUND
  6
CONTINUOUS
 66
     1
 40
0.000000
 41
0.000000
  0
VERTEX
  8
FOREGROUND
  6
CONTINUOUS
 10
0.000000
 20
3.212880
  0
VERTEX
  8
FOREGROUND
  6
CONTINUOUS
 10
8.499920
 20
3.212880
  0
VERTEX
  8
FOREGROUND
  6
CONTINUOUS
 10
8.499920
 20
-7.787120
  0
VERTEX
  8
FOREGROUND
  6
CONTINUOUS
 10
0.000000
 20
-7.787120
  0
VERTEX
  8
FOREGROUND
  6
CONTINUOUS
 10
0.000000
 20
3.212880
  0
SEQEND
  8
0
  0
POLYLINE
  8
FOREGROUND
  6
CONTINUOUS
 66
     1
 40
0.000000
 41
0.000000
  0
VERTEX
  8
FOREGROUND
  6
CONTINUOUS
 10
0.000000
 20
3.212880
  0
VERTEX
  8
FOREGROUND
  6
CONTINUOUS
 10
8.499920
 20
3.212880
  0
VERTEX
  8
FOREGROUND
  6
CONTINUOUS
 10
8.499920
 20
-7.787120
  0
VERTEX
  8
FOREGROUND
  6
CONTINUOUS
 10
0.000000
 20
-7.787120
  0
VERTEX
  8
FOREGROUND
  6
CONTINUOUS
 10
0.000000
 20
3.212880
  0
SEQEND
  8
0
  0
POLYLINE
  8
0
  6
CONTINUOUS
 66
     1
 40
0.014080
 41
0.014080
  0
VERTEX
  8
0
  6
CONTINUOUS
 10
5.714720
 20
2.262480
  0
VERTEX
  8
0
  6
CONTINUOUS
 10
5.716920
 20
2.296360
  0
VERTEX
  8
0
  6
CONTINUOUS
 10
5.722640
 20
2.328920
  0
VERTEX
  8
0
  6
CONTINUOUS
 10
5.737600
 20
2.374680
  0
VERTEX
  8
0
  6
CONTINUOUS
 10
5.759600
 20
2.416920
  0
VERTEX
  8
0
  6
CONTINUOUS
 10
5.777640
 20
2.443320
  0
VERTEX
  8
0
  6
CONTINUOUS
 10
5.798320
 20
2.467520
  0
VERTEX
  8
0
  6
CONTINUOUS
 10
5.833520
 20
2.500080
  0
VERTEX
  8
0
  6
CONTINUOUS
 10
5.872680
 20
2.528240
  0
VERTEX
  8
0
  6
CONTINUOUS
 10
5.915800
 20
2.551120
  0
VERTEX
  8
0
  6
CONTINUOUS
 10
5.961120
 20
2.569160
  0
VERTEX
  8
0
  6
CONTINUOUS
 10
6.008640
 20
2.581480
  0
VERTEX
  8
0
  6
CONTINUOUS
 10
6.057040
 20
2.588080
  0
VERTEX
  8
0
  6
CONTINUOUS
 10
6.089600
 20
2.588960
  0
VERTEX
  8
0
  6
CONTINUOUS
 10
6.122160
 20
2.587200
  0
VERTEX
  8
0
  6
CONTINUOUS
 10
6.154720
 20
2.582360
  0
VERTEX
  8
0
  6
CONTINUOUS
 10
6.186400
 20
2.574880
  0
VERTEX
  8
0
  6
CONTINUOUS
 10
6.217200
 20
2.564320
  0
VERTEX
  8
0
  6
CONTINUOUS
 10
6.261640
 20
2.542320
  0
VERTEX
  8
0
  6
CONTINUOUS
 10
6.303000
 20
2.512840
  0
VERTEX
  8
0
  6
CONTINUOUS
 10
6.340400
 20
2.475880
  0
VERTEX
  8
0
  6
CONTINUOUS
 10
6.362840
 20
2.446400
  0
VERTEX
  8
0
  6
CONTINUOUS
 10
6.382640
 20
2.413840
  0
VERTEX
  8
0
  6
CONTINUOUS
 10
6.400240
 20
2.377320
  0
VERTEX
  8
0
  6
CONTINUOUS
 10
6.415200
 20
2.336840
  0
VERTEX
  8
0
  6
CONTINUOUS
 10
6.427080
 20
2.292840
  0
VERTEX
  8
0
  6
CONTINUOUS
 10
6.435440
 20
2.244440
  0
VERTEX
  8
0
  6
CONTINUOUS
 10
6.438520
 20
2.218920
  0
VERTEX
  8
0
  6
CONTINUOUS
 10
6.596920
 20
2.218920
  0
VERTEX
  8
0
  6
CONTINUOUS
 10
6.598240
 20
2.239160
  0
VERTEX
  8
0
  6
CONTINUOUS
 10
6.601320
 20
2.258080
  0
VERTEX
  8
0
  6
CONTINUOUS
 10
6.605720
 20
2.275680
  0
VERTEX
  8
0
  6
CONTINUOUS
 10
6.611880
 20
2.292400
  0
VERTEX
  8
0
  6
CONTINUOUS
 10
6.628600
 20
2.321440
  0
VERTEX
  8
0
  6
CONTINUOUS
 10
6.638720
 20
2.334640
  0
VERTEX
  8
0
  6
CONTINUOUS
 10
6.662040
 20
2.356200
  0
VERTEX
  8
0
  6
CONTINUOUS
 10
6.688880
 20
2.372920
  0
VERTEX
  8
0
  6
CONTINUOUS
 10
6.717920
 20
2.384360
  0
VERTEX
  8
0
  6
CONTINUOUS
 10
6.748720
 20
2.390520
  0
VERTEX
  8
0
  6
CONTINUOUS
 10
6.779520
 20
2.390960
  0
VERTEX
  8
0
  6
CONTINUOUS
 10
6.810320
 20
2.386120
  0
VERTEX
  8
0
  6
CONTINUOUS
 10
6.825280
 20
2.381720
  0
VERTEX
  8
0
  6
CONTINUOUS
 10
6.853440
 20
2.368080
  0
VERTEX
  8
0
  6
CONTINUOUS
 10
6.878960
 20
2.349160
  0
VERTEX
  8
0
  6
CONTINUOUS
 10
6.900520
 20
2.324080
  0
VERTEX
  8
0
  6
CONTINUOUS
 10
6.917240
 20
2.293280
  0
VERTEX
  8
0
  6
CONTINUOUS
 10
6.923840
 20
2.275680
  0
VERTEX
  8
0
  6
CONTINUOUS
 10
6.928680
 20
2.256760
  0
VERTEX
  8
0
  6
CONTINUOUS
 10
6.931760
 20
2.236080
  0
VERTEX
  8
0
  6
CONTINUOUS
 10
6.933080
 20
2.213640
  0
VERTEX
  8
0
  6
CONTINUOUS
 10
6.772040
 20
2.213640
  0
VERTEX
  8
0
  6
CONTINUOUS
 10
6.772040
 20
1.700160
  0
VERTEX
  8
0
  6
CONTINUOUS
 10
7.833320
 20
1.700160
  0
VERTEX
  8
0
  6
CONTINUOUS
 10
7.833320
 20
1.473120
  0
VERTEX
  8
0
  6
CONTINUOUS
 10
5.712960
 20
1.473120
  0
VERTEX
  8
0
  6
CONTINUOUS
 10
5.712960
 20
2.262480
  0
VERTEX
  8
0
  6
CONTINUOUS
 10
5.714720
 20
2.262480
  0
SEQEND
  8
0
  0
SOLID
  8
0
 62
    15
 10
4.275920
 20
1.692240
 11
4.270640
 21
2.437600
 12
4.286920
 22
1.726560
 13
4.281640
 23
2.471920
  0
POLYLINE
  8
0
  6
CONTINUOUS
 66
     1
 40
0.000000
 41
0.000000
  0
VERTEX
  8
0
  6
CONTINUOUS
 10
4.275920
 20
1.692240
  0
VERTEX
  8
0
  6
CONTINUOUS
 10
4.270640
 20
2.437600
  0
VERTEX
  8
0
  6
CONTINUOUS
 10
4.281640
 20
2.471920
  0
VERTEX
  8
0
  6
CONTINUOUS
 10
4.286920
 20
1.726560
  0
VERTEX
  8
0
  6
CONTINUOUS
 10
4.275920
 20
1.692240
  0
SEQEND
  8
0
  0
SOLID
  8
0
 62
    15
 10
3.397240
 20
1.763520
 11
3.391960
 21
2.508440
 12
3.419240
 22
1.823800
 13
3.413960
 23
2.569160
  0
POLYLINE
  8
0
  6
CONTINUOUS
 66
     1
 40
0.000000
 41
0.000000
  0
VERTEX
  8
0
  6
CONTINUOUS
 10
3.397240
 20
1.763520
  0
VERTEX
  8
0
  6
CONTINUOUS
 10
3.391960
 20
2.508440
  0
VERTEX
  8
0
  6
CONTINUOUS
 10
3.413960
 20
2.569160
  0
VERTEX
  8
0
  6
CONTINUOUS
 10
3.419240
 20
1.823800
  0
VERTEX
  8
0
  6
CONTINUOUS
 10
3.397240
 20
1.763520
  0
SEQEND
  8
0
  0
SOLID
  8
0
 62
    15
 10
3.419240
 20
1.823800
 11
3.413960
 21
2.569160
 12
3.452680
 22
1.877480
 13
3.447400
 23
2.622840
  0
POLYLINE
  8
0
  6
CONTINUOUS
 66
     1
 40
0.000000
 41
0.000000
  0
VERTEX
  8
0
  6
CONTINUOUS
 10
3.419240
 20
1.823800
  0
VERTEX
  8
0
  6
CONTINUOUS
 10
3.413960
 20
2.569160
  0
VERTEX
  8
0
  6
CONTINUOUS
 10
3.447400
 20
2.622840
  0
VERTEX
  8
0
  6
CONTINUOUS
 10
3.452680
 20
1.877480
  0
VERTEX
  8
0
  6
CONTINUOUS
 10
3.419240
 20
1.823800
  0
SEQEND
  8
0
  0
SOLID
  8
0
 62
    15
 10
3.452680
 20
1.877480
 11
3.447400
 21
2.622840
 12
3.495800
 22
1.924120
 13
3.490520
 23
2.669040
  0
POLYLINE
  8
0
  6
CONTINUOUS
 66
     1
 40
0.000000
 41
0.000000
  0
VERTEX
  8
0
  6
CONTINUOUS
 10
3.452680
 20
1.877480
  0
VERTEX
  8
0
  6
CONTINUOUS
 10
3.447400
 20
2.622840
  0
VERTEX
  8
0
  6
CONTINUOUS
 10
3.490520
 20
2.669040
  0
VERTEX
  8
0
  6
CONTINUOUS
 10
3.495800
 20
1.924120
  0
VERTEX
  8
0
  6
CONTINUOUS
 10
3.452680
 20
1.877480
  0
SEQEND
  8
0
  0
SOLID
  8
0
 62
    15
 10
3.495800
 20
1.924120
 11
3.490520
 21
2.669040
 12
3.547720
 22
1.962400
 13
3.542000
 23
2.707760
  0
POLYLINE
  8
0
  6
CONTINUOUS
 66
     1
 40
0.000000
 41
0.000000
  0
VERTEX
  8
0
  6
CONTINUOUS
 10
3.495800
 20
1.924120
  0
VERTEX
  8
0
  6
CONTINUOUS
 10
3.490520
 20
2.669040
  0
VERTEX
  8
0
  6
CONTINUOUS
 10
3.542000
 20
2.707760
  0
VERTEX
  8
0
  6
CONTINUOUS
 10
3.547720
 20
1.962400
  0
VERTEX
  8
0
  6
CONTINUOUS
 10
3.495800
 20
1.924120
  0
SEQEND
  8
0
  0
SOLID
  8
0
 62
    15
 10
3.547720
 20
1.962400
 11
3.542000
 21
2.707760
 12
3.605360
 22
1.992320
 13
3.600080
 23
2.737240
  0
POLYLINE
  8
0
  6
CONTINUOUS
 66
     1
 40
0.000000
 41
0.000000
  0
VERTEX
  8
0
  6
CONTINUOUS
 10
3.547720
 20
1.962400
  0
VERTEX
  8
0
  6
CONTINUOUS
 10
3.542000
 20
2.707760
  0
VERTEX
  8
0
  6
CONTINUOUS
 10
3.600080
 20
2.737240
  0
VERTEX
  8
0
  6
CONTINUOUS
 10
3.605360
 20
1.992320
  0
VERTEX
  8
0
  6
CONTINUOUS
 10
3.547720
 20
1.962400
  0
SEQEND
  8
0
  0
SOLID
  8
0
 62
    15
 10
3.605360
 20
1.992320
 11
3.600080
 21
2.737240
 12
3.667400
 22
2.012560
 13
3.662120
 23
2.757480
  0
POLYLINE
  8
0
  6
CONTINUOUS
 66
     1
 40
0.000000
 41
0.000000
  0
VERTEX
  8
0
  6
CONTINUOUS
 10
3.605360
 20
1.992320
  0
VERTEX
  8
0
  6
CONTINUOUS
 10
3.600080
 20
2.737240
  0
VERTEX
  8
0
  6
CONTINUOUS
 10
3.662120
 20
2.757480
  0
VERTEX
  8
0
  6
CONTINUOUS
 10
3.667400
 20
2.012560
  0
VERTEX
  8
0
  6
CONTINUOUS
 10
3.605360
 20
1.992320
  0
SEQEND
  8
0
  0
SOLID
  8
0
 62
    15
 10
3.667400
 20
2.012560
 11
3.662120
 21
2.757480
 12
3.732080
 22
2.022240
 13
3.726360
 23
2.767600
  0
POLYLINE
  8
0
  6
CONTINUOUS
 66
     1
 40
0.000000
 41
0.000000
  0
VERTEX
  8
0
  6
CONTINUOUS
 10
3.667400
 20
2.012560
  0
VERTEX
  8
0
  6
CONTINUOUS
 10
3.662120
 20
2.757480
  0
VERTEX
  8
0
  6
CONTINUOUS
 10
3.726360
 20
2.767600
  0
VERTEX
  8
0
  6
CONTINUOUS
 10
3.732080
 20
2.022240
  0
VERTEX
  8
0
  6
CONTINUOUS
 10
3.667400
 20
2.012560
  0
SEQEND
  8
0
  0
SOLID
  8
0
 62
    15
 10
3.732080
 20
2.022240
 11
3.726360
 21
2.767600
 12
3.797200
 22
2.021800
 13
3.791920
 23
2.766720
  0
POLYLINE
  8
0
  6
CONTINUOUS
 66
     1
 40
0.000000
 41
0.000000
  0
VERTEX
  8
0
  6
CONTINUOUS
 10
3.732080
 20
2.022240
  0
VERTEX
  8
0
  6
CONTINUOUS
 10
3.726360
 20
2.767600
  0
VERTEX
  8
0
  6
CONTINUOUS
 10
3.791920
 20
2.766720
  0
VERTEX
  8
0
  6
CONTINUOUS
 10
3.797200
 20
2.021800
  0
VERTEX
  8
0
  6
CONTINUOUS
 10
3.732080
 20
2.022240
  0
SEQEND
  8
0
  0
SOLID
  8
0
 62
    15
 10
3.797200
 20
2.021800
 11
3.791920
 21
2.766720
 12
3.861000
 22
2.009040
 13
3.855720
 23
2.754400
  0
POLYLINE
  8
0
  6
CONTINUOUS
 66
     1
 40
0.000000
 41
0.000000
  0
VERTEX
  8
0
  6
CONTINUOUS
 10
3.797200
 20
2.021800
  0
VERTEX
  8
0
  6
CONTINUOUS
 10
3.791920
 20
2.766720
  0
VERTEX
  8
0
  6
CONTINUOUS
 10
3.855720
 20
2.754400
  0
VERTEX
  8
0
  6
CONTINUOUS
 10
3.861000
 20
2.009040
  0
VERTEX
  8
0
  6
CONTINUOUS
 10
3.797200
 20
2.021800
  0
SEQEND
  8
0
  0
SOLID
  8
0
 62
    15
 10
3.861000
 20
2.009040
 11
3.855720
 21
2.754400
 12
3.921720
 22
1.984840
 13
3.916440
 23
2.729760
  0
POLYLINE
  8
0
  6
CONTINUOUS
 66
     1
 40
0.000000
 41
0.000000
  0
VERTEX
  8
0
  6
CONTINUOUS
 10
3.861000
 20
2.009040
  0
VERTEX
  8
0
  6
CONTINUOUS
 10
3.855720
 20
2.754400
  0
VERTEX
  8
0
  6
CONTINUOUS
 10
3.916440
 20
2.729760
  0
VERTEX
  8
0
  6
CONTINUOUS
 10
3.921720
 20
1.984840
  0
VERTEX
  8
0
  6
CONTINUOUS
 10
3.861000
 20
2.009040
  0
SEQEND
  8
0
  0
SOLID
  8
0
 62
    15
 10
3.921720
 20
1.984840
 11
3.916440
 21
2.729760
 12
3.977600
 22
1.947000
 13
3.972320
 23
2.692360
  0
POLYLINE
  8
0
  6
CONTINUOUS
 66
     1
 40
0.000000
 41
0.000000
  0
VERTEX
  8
0
  6
CONTINUOUS
 10
3.921720
 20
1.984840
  0
VERTEX
  8
0
  6
CONTINUOUS
 10
3.916440
 20
2.729760
  0
VERTEX
  8
0
  6
CONTINUOUS
 10
3.972320
 20
2.692360
  0
VERTEX
  8
0
  6
CONTINUOUS
 10
3.977600
 20
1.947000
  0
VERTEX
  8
0
  6
CONTINUOUS
 10
3.921720
 20
1.984840
  0
SEQEND
  8
0
  0
SOLID
  8
0
 62
    15
 10
3.977600
 20
1.947000
 11
3.972320
 21
2.692360
 12
4.026440
 22
1.895960
 13
4.021160
 23
2.640880
  0
POLYLINE
  8
0
  6
CONTINUOUS
 66
     1
 40
0.000000
 41
0.000000
  0
VERTEX
  8
0
  6
CONTINUOUS
 10
3.977600
 20
1.947000
  0
VERTEX
  8
0
  6
CONTINUOUS
 10
3.972320
 20
2.692360
  0
VERTEX
  8
0
  6
CONTINUOUS
 10
4.021160
 20
2.640880
  0
VERTEX
  8
0
  6
CONTINUOUS
 10
4.026440
 20
1.895960
  0
VERTEX
  8
0
  6
CONTINUOUS
 10
3.977600
 20
1.947000
  0
SEQEND
  8
0
  0
SOLID
  8
0
 62
    15
 10
4.026440
 20
1.895960
 11
4.021160
 21
2.640880
 12
4.066480
 22
1.830400
 13
4.061200
 23
2.575320
  0
POLYLINE
  8
0
  6
CONTINUOUS
 66
     1
 40
0.000000
 41
0.000000
  0
VERTEX
  8
0
  6
CONTINUOUS
 10
4.026440
 20
1.895960
  0
VERTEX
  8
0
  6
CONTINUOUS
 10
4.021160
 20
2.640880
  0
VERTEX
  8
0
  6
CONTINUOUS
 10
4.061200
 20
2.575320
  0
VERTEX
  8
0
  6
CONTINUOUS
 10
4.066480
 20
1.830400
  0
VERTEX
  8
0
  6
CONTINUOUS
 10
4.026440
 20
1.895960
  0
SEQEND
  8
0
  0
SOLID
  8
0
 62
    15
 10
4.066480
 20
1.830400
 11
4.061200
 21
2.575320
 12
4.096400
 22
1.749880
 13
4.091120
 23
2.494800
  0
POLYLINE
  8
0
  6
CONTINUOUS
 66
     1
 40
0.000000
 41
0.000000
  0
VERTEX
  8
0
  6
CONTINUOUS
 10
4.066480
 20
1.830400
  0
VERTEX
  8
0
  6
CONTINUOUS
 10
4.061200
 20
2.575320
  0
VERTEX
  8
0
  6
CONTINUOUS
 10
4.091120
 20
2.494800
  0
VERTEX
  8
0
  6
CONTINUOUS
 10
4.096400
 20
1.749880
  0
VERTEX
  8
0
  6
CONTINUOUS
 10
4.066480
 20
1.830400
  0
SEQEND
  8
0
  0
SOLID
  8
0
 62
    15
 10
4.096400
 20
1.749880
 11
4.091120
 21
2.494800
 12
4.113120
 22
1.653520
 13
4.107840
 23
2.398440
  0
POLYLINE
  8
0
  6
CONTINUOUS
 66
     1
 40
0.000000
 41
0.000000
  0
VERTEX
  8
0
  6
CONTINUOUS
 10
4.096400
 20
1.749880
  0
VERTEX
  8
0
  6
CONTINUOUS
 10
4.091120
 20
2.494800
  0
VERTEX
  8
0
  6
CONTINUOUS
 10
4.107840
 20
2.398440
  0
VERTEX
  8
0
  6
CONTINUOUS
 10
4.113120
 20
1.653520
  0
VERTEX
  8
0
  6
CONTINUOUS
 10
4.096400
 20
1.749880
  0
SEQEND
  8
0
  0
SOLID
  8
0
 62
    15
 10
4.113120
 20
1.653520
 11
4.107840
 21
2.398440
 12
4.271960
 22
1.653520
 13
4.266240
 23
2.398440
  0
POLYLINE
  8
0
  6
CONTINUOUS
 66
     1
 40
0.000000
 41
0.000000
  0
VERTEX
  8
0
  6
CONTINUOUS
 10
4.113120
 20
1.653520
  0
VERTEX
  8
0
  6
CONTINUOUS
 10
4.107840
 20
2.398440
  0
VERTEX
  8
0
  6
CONTINUOUS
 10
4.266240
 20
2.398440
  0
VERTEX
  8
0
  6
CONTINUOUS
 10
4.271960
 20
1.653520
  0
VERTEX
  8
0
  6
CONTINUOUS
 10
4.113120
 20
1.653520
  0
SEQEND
  8
0
  0
SOLID
  8
0
 62
    15
 10
4.271960
 20
1.653520
 11
4.266240
 21
2.398440
 12
4.275920
 22
1.692240
 13
4.270640
 23
2.437600
  0
POLYLINE
  8
0
  6
CONTINUOUS
 66
     1
 40
0.000000
 41
0.000000
  0
VERTEX
  8
0
  6
CONTINUOUS
 10
4.271960
 20
1.653520
  0
VERTEX
  8
0
  6
CONTINUOUS
 10
4.266240
 20
2.398440
  0
VERTEX
  8
0
  6
CONTINUOUS
 10
4.270640
 20
2.437600
  0
VERTEX
  8
0
  6
CONTINUOUS
 10
4.275920
 20
1.692240
  0
VERTEX
  8
0
  6
CONTINUOUS
 10
4.271960
 20
1.653520
  0
SEQEND
  8
0
  0
SOLID
  8
0
 62
    15
 10
3.389320
 20
1.697080
 11
3.384040
 21
2.442000
 12
3.397240
 22
1.763520
 13
3.391960
 23
2.508440
  0
POLYLINE
  8
0
  6
CONTINUOUS
 66
     1
 40
0.000000
 41
0.000000
  0
VERTEX
  8
0
  6
CONTINUOUS
 10
3.389320
 20
1.697080
  0
VERTEX
  8
0
  6
CONTINUOUS
 10
3.384040
 20
2.442000
  0
VERTEX
  8
0
  6
CONTINUOUS
 10
3.391960
 20
2.508440
  0
VERTEX
  8
0
  6
CONTINUOUS
 10
3.397240
 20
1.763520
  0
VERTEX
  8
0
  6
CONTINUOUS
 10
3.389320
 20
1.697080
  0
SEQEND
  8
0
  0
SOLID
  8
0
 62
    15
 10
4.286920
 20
1.726560
 11
4.281640
 21
2.471920
 12
4.303200
 22
1.756040
 13
4.297920
 23
2.500960
  0
POLYLINE
  8
0
  6
CONTINUOUS
 66
     1
 40
0.000000
 41
0.000000
  0
VERTEX
  8
0
  6
CONTINUOUS
 10
4.286920
 20
1.726560
  0
VERTEX
  8
0
  6
CONTINUOUS
 10
4.281640
 20
2.471920
  0
VERTEX
  8
0
  6
CONTINUOUS
 10
4.297920
 20
2.500960
  0
VERTEX
  8
0
  6
CONTINUOUS
 10
4.303200
 20
1.756040
  0
VERTEX
  8
0
  6
CONTINUOUS
 10
4.286920
 20
1.726560
  0
SEQEND
  8
0
  0
SOLID
  8
0
 62
    15
 10
4.303200
 20
1.756040
 11
4.297920
 21
2.500960
 12
4.324760
 22
1.780240
 13
4.319480
 23
2.525600
  0
POLYLINE
  8
0
  6
CONTINUOUS
 66
     1
 40
0.000000
 41
0.000000
  0
VERTEX
  8
0
  6
CONTINUOUS
 10
4.303200
 20
1.756040
  0
VERTEX
  8
0
  6
CONTINUOUS
 10
4.297920
 20
2.500960
  0
VERTEX
  8
0
  6
CONTINUOUS
 10
4.319480
 20
2.525600
  0
VERTEX
  8
0
  6
CONTINUOUS
 10
4.324760
 20
1.780240
  0
VERTEX
  8
0
  6
CONTINUOUS
 10
4.303200
 20
1.756040
  0
SEQEND
  8
0
  0
SOLID
  8
0
 62
    15
 10
4.324760
 20
1.780240
 11
4.319480
 21
2.525600
 12
4.349840
 22
1.799600
 13
4.344560
 23
2.544520
  0
POLYLINE
  8
0
  6
CONTINUOUS
 66
     1
 40
0.000000
 41
0.000000
  0
VERTEX
  8
0
  6
CONTINUOUS
 10
4.324760
 20
1.780240
  0
VERTEX
  8
0
  6
CONTINUOUS
 10
4.319480
 20
2.525600
  0
VERTEX
  8
0
  6
CONTINUOUS
 10
4.344560
 20
2.544520
  0
VERTEX
  8
0
  6
CONTINUOUS
 10
4.349840
 20
1.799600
  0
VERTEX
  8
0
  6
CONTINUOUS
 10
4.324760
 20
1.780240
  0
SEQEND
  8
0
  0
SOLID
  8
0
 62
    15
 10
4.349840
 20
1.799600
 11
4.344560
 21
2.544520
 12
4.378000
 22
1.813680
 13
4.372720
 23
2.558600
  0
POLYLINE
  8
0
  6
CONTINUOUS
 66
     1
 40
0.000000
 41
0.000000
  0
VERTEX
  8
0
  6
CONTINUOUS
 10
4.349840
 20
1.799600
  0
VERTEX
  8
0
  6
CONTINUOUS
 10
4.344560
 20
2.544520
  0
VERTEX
  8
0
  6
CONTINUOUS
 10
4.372720
 20
2.558600
  0
VERTEX
  8
0
  6
CONTINUOUS
 10
4.378000
 20
1.813680
  0
VERTEX
  8
0
  6
CONTINUOUS
 10
4.349840
 20
1.799600
  0
SEQEND
  8
0
  0
SOLID
  8
0
 62
    15
 10
4.378000
 20
1.813680
 11
4.372720
 21
2.558600
 12
4.407920
 22
1.822480
 13
4.402640
 23
2.567400
  0
POLYLINE
  8
0
  6
CONTINUOUS
 66
     1
 40
0.000000
 41
0.000000
  0
VERTEX
  8
0
  6
CONTINUOUS
 10
4.378000
 20
1.813680
  0
VERTEX
  8
0
  6
CONTINUOUS
 10
4.372720
 20
2.558600
  0
VERTEX
  8
0
  6
CONTINUOUS
 10
4.402640
 20
2.567400
  0
VERTEX
  8
0
  6
CONTINUOUS
 10
4.407920
 20
1.822480
  0
VERTEX
  8
0
  6
CONTINUOUS
 10
4.378000
 20
1.813680
  0
SEQEND
  8
0
  0
SOLID
  8
0
 62
    15
 10
4.407920
 20
1.822480
 11
4.402640
 21
2.567400
 12
4.438720
 22
1.825560
 13
4.433440
 23
2.570920
  0
POLYLINE
  8
0
  6
CONTINUOUS
 66
     1
 40
0.000000
 41
0.000000
  0
VERTEX
  8
0
  6
CONTINUOUS
 10
4.407920
 20
1.822480
  0
VERTEX
  8
0
  6
CONTINUOUS
 10
4.402640
 20
2.567400
  0
VERTEX
  8
0
  6
CONTINUOUS
 10
4.433440
 20
2.570920
  0
VERTEX
  8
0
  6
CONTINUOUS
 10
4.438720
 20
1.825560
  0
VERTEX
  8
0
  6
CONTINUOUS
 10
4.407920
 20
1.822480
  0
SEQEND
  8
0
  0
SOLID
  8
0
 62
    15
 10
4.446640
 20
1.134320
 11
4.441360
 21
1.879680
 12
5.508360
 22
1.134320
 13
5.502640
 23
1.879680
  0
POLYLINE
  8
0
  6
CONTINUOUS
 66
     1
 40
0.000000
 41
0.000000
  0
VERTEX
  8
0
  6
CONTINUOUS
 10
4.446640
 20
1.134320
  0
VERTEX
  8
0
  6
CONTINUOUS
 10
4.441360
 20
1.879680
  0
VERTEX
  8
0
  6
CONTINUOUS
 10
5.502640
 20
1.879680
  0
VERTEX
  8
0
  6
CONTINUOUS
 10
5.508360
 20
1.134320
  0
VERTEX
  8
0
  6
CONTINUOUS
 10
4.446640
 20
1.134320
  0
SEQEND
  8
0
  0
SOLID
  8
0
 62
    15
 10
4.469520
 20
1.823800
 11
4.464240
 21
2.568720
 12
4.499880
 22
1.815880
 13
4.494600
 23
2.561240
  0
POLYLINE
  8
0
  6
CONTINUOUS
 66
     1
 40
0.000000
 41
0.000000
  0
VERTEX
  8
0
  6
CONTINUOUS
 10
4.469520
 20
1.823800
  0
VERTEX
  8
0
  6
CONTINUOUS
 10
4.464240
 20
2.568720
  0
VERTEX
  8
0
  6
CONTINUOUS
 10
4.494600
 20
2.561240
  0
VERTEX
  8
0
  6
CONTINUOUS
 10
4.499880
 20
1.815880
  0
VERTEX
  8
0
  6
CONTINUOUS
 10
4.469520
 20
1.823800
  0
SEQEND
  8
0
  0
SOLID
  8
0
 62
    15
 10
4.499880
 20
1.815880
 11
4.494600
 21
2.561240
 12
4.528040
 22
1.802680
 13
4.522760
 23
2.547600
  0
POLYLINE
  8
0
  6
CONTINUOUS
 66
     1
 40
0.000000
 41
0.000000
  0
VERTEX
  8
0
  6
CONTINUOUS
 10
4.499880
 20
1.815880
  0
VERTEX
  8
0
  6
CONTINUOUS
 10
4.494600
 20
2.561240
  0
VERTEX
  8
0
  6
CONTINUOUS
 10
4.522760
 20
2.547600
  0
VERTEX
  8
0
  6
CONTINUOUS
 10
4.528040
 20
1.802680
  0
VERTEX
  8
0
  6
CONTINUOUS
 10
4.499880
 20
1.815880
  0
SEQEND
  8
0
  0
SOLID
  8
0
 62
    15
 10
4.528040
 20
1.802680
 11
4.522760
 21
2.547600
 12
4.553560
 22
1.783760
 13
4.547840
 23
2.528680
  0
POLYLINE
  8
0
  6
CONTINUOUS
 66
     1
 40
0.000000
 41
0.000000
  0
VERTEX
  8
0
  6
CONTINUOUS
 10
4.528040
 20
1.802680
  0
VERTEX
  8
0
  6
CONTINUOUS
 10
4.522760
 20
2.547600
  0
VERTEX
  8
0
  6
CONTINUOUS
 10
4.547840
 20
2.528680
  0
VERTEX
  8
0
  6
CONTINUOUS
 10
4.553560
 20
1.783760
  0
VERTEX
  8
0
  6
CONTINUOUS
 10
4.528040
 20
1.802680
  0
SEQEND
  8
0
  0
SOLID
  8
0
 62
    15
 10
4.553560
 20
1.783760
 11
4.547840
 21
2.528680
 12
4.575120
 22
1.758680
 13
4.569840
 23
2.503600
  0
POLYLINE
  8
0
  6
CONTINUOUS
 66
     1
 40
0.000000
 41
0.000000
  0
VERTEX
  8
0
  6
CONTINUOUS
 10
4.553560
 20
1.783760
  0
VERTEX
  8
0
  6
CONTINUOUS
 10
4.547840
 20
2.528680
  0
VERTEX
  8
0
  6
CONTINUOUS
 10
4.569840
 20
2.503600
  0
VERTEX
  8
0
  6
CONTINUOUS
 10
4.575120
 20
1.758680
  0
VERTEX
  8
0
  6
CONTINUOUS
 10
4.553560
 20
1.783760
  0
SEQEND
  8
0
  0
SOLID
  8
0
 62
    15
 10
4.575120
 20
1.758680
 11
4.569840
 21
2.503600
 12
4.591840
 22
1.727880
 13
4.586560
 23
2.472800
  0
POLYLINE
  8
0
  6
CONTINUOUS
 66
     1
 40
0.000000
 41
0.000000
  0
VERTEX
  8
0
  6
CONTINUOUS
 10
4.575120
 20
1.758680
  0
VERTEX
  8
0
  6
CONTINUOUS
 10
4.569840
 20
2.503600
  0
VERTEX
  8
0
  6
CONTINUOUS
 10
4.586560
 20
2.472800
  0
VERTEX
  8
0
  6
CONTINUOUS
 10
4.591840
 20
1.727880
  0
VERTEX
  8
0
  6
CONTINUOUS
 10
4.575120
 20
1.758680
  0
SEQEND
  8
0
  0
SOLID
  8
0
 62
    15
 10
4.591840
 20
1.727880
 11
4.586560
 21
2.472800
 12
4.603280
 22
1.690920
 13
4.598000
 23
2.435840
  0
POLYLINE
  8
0
  6
CONTINUOUS
 66
     1
 40
0.000000
 41
0.000000
  0
VERTEX
  8
0
  6
CONTINUOUS
 10
4.591840
 20
1.727880
  0
VERTEX
  8
0
  6
CONTINUOUS
 10
4.586560
 20
2.472800
  0
VERTEX
  8
0
  6
CONTINUOUS
 10
4.598000
 20
2.435840
  0
VERTEX
  8
0
  6
CONTINUOUS
 10
4.603280
 20
1.690920
  0
VERTEX
  8
0
  6
CONTINUOUS
 10
4.591840
 20
1.727880
  0
SEQEND
  8
0
  0
SOLID
  8
0
 62
    15
 10
4.603280
 20
1.690920
 11
4.598000
 21
2.435840
 12
4.607680
 22
1.647800
 13
4.602400
 23
2.393160
  0
POLYLINE
  8
0
  6
CONTINUOUS
 66
     1
 40
0.000000
 41
0.000000
  0
VERTEX
  8
0
  6
CONTINUOUS
 10
4.603280
 20
1.690920
  0
VERTEX
  8
0
  6
CONTINUOUS
 10
4.598000
 20
2.435840
  0
VERTEX
  8
0
  6
CONTINUOUS
 10
4.602400
 20
2.393160
  0
VERTEX
  8
0
  6
CONTINUOUS
 10
4.607680
 20
1.647800
  0
VERTEX
  8
0
  6
CONTINUOUS
 10
4.603280
 20
1.690920
  0
SEQEND
  8
0
  0
SOLID
  8
0
 62
    15
 10
4.438720
 20
1.825560
 11
4.433440
 21
2.570920
 12
4.469520
 22
1.823800
 13
4.464240
 23
2.568720
  0
POLYLINE
  8
0
  6
CONTINUOUS
 66
     1
 40
0.000000
 41
0.000000
  0
VERTEX
  8
0
  6
CONTINUOUS
 10
4.438720
 20
1.825560
  0
VERTEX
  8
0
  6
CONTINUOUS
 10
4.433440
 20
2.570920
  0
VERTEX
  8
0
  6
CONTINUOUS
 10
4.464240
 20
2.568720
  0
VERTEX
  8
0
  6
CONTINUOUS
 10
4.469520
 20
1.823800
  0
VERTEX
  8
0
  6
CONTINUOUS
 10
4.438720
 20
1.825560
  0
SEQEND
  8
0
  0
SOLID
  8
0
 62
    15
 10
3.387560
 20
0.907720
 11
3.382280
 21
1.652640
 12
3.387560
 22
1.697080
 13
3.382280
 23
2.442000
  0
POLYLINE
  8
0
  6
CONTINUOUS
 66
     1
 40
0.000000
 41
0.000000
  0
VERTEX
  8
0
  6
CONTINUOUS
 10
3.387560
 20
0.907720
  0
VERTEX
  8
0
  6
CONTINUOUS
 10
3.382280
 20
1.652640
  0
VERTEX
  8
0
  6
CONTINUOUS
 10
3.382280
 20
2.442000
  0
VERTEX
  8
0
  6
CONTINUOUS
 10
3.387560
 20
1.697080
  0
VERTEX
  8
0
  6
CONTINUOUS
 10
3.387560
 20
0.907720
  0
SEQEND
  8
0
  0
SOLID
  8
0
 62
    15
 10
3.387560
 20
1.697080
 11
3.382280
 21
2.442000
 12
3.389320
 22
1.697080
 13
3.384040
 23
2.442000
  0
POLYLINE
  8
0
  6
CONTINUOUS
 66
     1
 40
0.000000
 41
0.000000
  0
VERTEX
  8
0
  6
CONTINUOUS
 10
3.387560
 20
1.697080
  0
VERTEX
  8
0
  6
CONTINUOUS
 10
3.382280
 20
2.442000
  0
VERTEX
  8
0
  6
CONTINUOUS
 10
3.384040
 20
2.442000
  0
VERTEX
  8
0
  6
CONTINUOUS
 10
3.389320
 20
1.697080
  0
VERTEX
  8
0
  6
CONTINUOUS
 10
3.387560
 20
1.697080
  0
SEQEND
  8
0
  0
POLYLINE
  8
0
  6
CONTINUOUS
 66
     1
 40
0.000000
 41
0.000000
  0
VERTEX
  8
0
  6
CONTINUOUS
 10
3.389320
 20
1.697080
  0
VERTEX
  8
0
  6
CONTINUOUS
 10
3.397240
 20
1.763520
  0
VERTEX
  8
0
  6
CONTINUOUS
 10
3.419240
 20
1.823800
  0
VERTEX
  8
0
  6
CONTINUOUS
 10
3.452680
 20
1.877480
  0
VERTEX
  8
0
  6
CONTINUOUS
 10
3.495800
 20
1.924120
  0
VERTEX
  8
0
  6
CONTINUOUS
 10
3.547720
 20
1.962400
  0
VERTEX
  8
0
  6
CONTINUOUS
 10
3.605360
 20
1.992320
  0
VERTEX
  8
0
  6
CONTINUOUS
 10
3.667400
 20
2.012560
  0
VERTEX
  8
0
  6
CONTINUOUS
 10
3.732080
 20
2.022240
  0
VERTEX
  8
0
  6
CONTINUOUS
 10
3.797200
 20
2.021800
  0
VERTEX
  8
0
  6
CONTINUOUS
 10
3.861000
 20
2.009040
  0
VERTEX
  8
0
  6
CONTINUOUS
 10
3.921720
 20
1.984840
  0
VERTEX
  8
0
  6
CONTINUOUS
 10
3.977600
 20
1.947000
  0
VERTEX
  8
0
  6
CONTINUOUS
 10
4.026440
 20
1.895960
  0
VERTEX
  8
0
  6
CONTINUOUS
 10
4.066480
 20
1.830400
  0
VERTEX
  8
0
  6
CONTINUOUS
 10
4.096400
 20
1.749880
  0
VERTEX
  8
0
  6
CONTINUOUS
 10
4.113120
 20
1.653520
  0
VERTEX
  8
0
  6
CONTINUOUS
 10
4.271960
 20
1.653520
  0
VERTEX
  8
0
  6
CONTINUOUS
 10
4.275920
 20
1.692240
  0
VERTEX
  8
0
  6
CONTINUOUS
 10
4.286920
 20
1.726560
  0
VERTEX
  8
0
  6
CONTINUOUS
 10
4.303200
 20
1.756040
  0
VERTEX
  8
0
  6
CONTINUOUS
 10
4.324760
 20
1.780240
  0
VERTEX
  8
0
  6
CONTINUOUS
 10
4.349840
 20
1.799600
  0
VERTEX
  8
0
  6
CONTINUOUS
 10
4.378000
 20
1.813680
  0
VERTEX
  8
0
  6
CONTINUOUS
 10
4.407920
 20
1.822480
  0
VERTEX
  8
0
  6
CONTINUOUS
 10
4.438720
 20
1.825560
  0
VERTEX
  8
0
  6
CONTINUOUS
 10
4.469520
 20
1.823800
  0
VERTEX
  8
0
  6
CONTINUOUS
 10
4.499880
 20
1.815880
  0
VERTEX
  8
0
  6
CONTINUOUS
 10
4.528040
 20
1.802680
  0
VERTEX
  8
0
  6
CONTINUOUS
 10
4.553560
 20
1.783760
  0
VERTEX
  8
0
  6
CONTINUOUS
 10
4.575120
 20
1.758680
  0
VERTEX
  8
0
  6
CONTINUOUS
 10
4.591840
 20
1.727880
  0
VERTEX
  8
0
  6
CONTINUOUS
 10
4.603280
 20
1.690920
  0
VERTEX
  8
0
  6
CONTINUOUS
 10
4.607680
 20
1.647800
  0
VERTEX
  8
0
  6
CONTINUOUS
 10
4.446640
 20
1.647800
  0
VERTEX
  8
0
  6
CONTINUOUS
 10
4.446640
 20
1.134320
  0
VERTEX
  8
0
  6
CONTINUOUS
 10
5.508360
 20
1.134320
  0
VERTEX
  8
0
  6
CONTINUOUS
 10
5.508360
 20
0.907720
  0
VERTEX
  8
0
  6
CONTINUOUS
 10
3.387560
 20
0.907720
  0
VERTEX
  8
0
  6
CONTINUOUS
 10
3.387560
 20
1.697080
  0
VERTEX
  8
0
  6
CONTINUOUS
 10
3.389320
 20
1.697080
  0
SEQEND
  8
0
  0
TEXT
  8
0
 10
4.150080
 20
0.679360
 40
0.138158
  1
BA  706
 41
1.000000
  7
SN0
 71
     0
 72
     5
 11
4.741115
 21
0.679360
  0
TEXT
  8
0
 10
3.920400
 20
0.487960
 40
0.138158
  1
1-1/8" x 2-1/8"
 41
1.000000
  7
SN0
 71
     0
 72
     5
 11
4.970485
 21
0.487960
  0
ENDSEC
  0
EOF
