  0
SECTION
  2
HEADER
  9
$ACADVER
  1
AC1006
  9
$EXTMIN
 10
6.397160
 20
0.388960
  9
$EXTMAX
 10
7.590440
 20
1.304600
  9
$LTSCALE
 40
0.044000
  9
$PDMODE
 70
    35
  9
$PDSIZE
 40
0.035200
  0
ENDSEC
  0
SECTION
  2
TABLES
  0
TABLE
  2
LTYPE
 70
     9
  0
LTYPE
  2
CONTINUOUS
 70
    64
  3
Solid line
 72
    65
 73
     0
 40
0.000000
  0
LTYPE
  2
DASHED
 70
    64
  3
__ __ __ __ __ __ __ __ __ __ __ __ __ __ __
 72
    65
 73
     2
 40
0.000330
 49
0.000220
 49
-0.000110
  0
LTYPE
  2
HIDDEN
 70
    64
  3
 _ _ _ _ _ _ _ _ _ _ _ _ _ _ _ _ _ _ _ _ _ _
 72
    65
 73
     2
 40
0.000165
 49
0.000110
 49
-0.000055
  0
LTYPE
  2
CENTER
 70
    64
  3
____ _ ____ _ ____ _ ____ _ ____ _ ____ _ ____
 72
    65
 73
     4
 40
0.000880
 49
0.000550
 49
-0.000110
 49
0.000110
 49
-0.000110
  0
LTYPE
  2
PHANTOM
 70
    64
  3
_____ _ _ _____ _ _ _____ _ _ _____ _ _ ____
 72
    65
 73
     6
 40
0.001100
 49
0.000550
 49
-0.000110
 49
0.000110
 49
-0.000110
 49
0.000110
 49
-0.000110
  0
LTYPE
  2
DOT
 70
    64
  3
...............................................
 72
    65
 73
     2
 40
0.000110
 49
0.000000
 49
-0.000110
  0
LTYPE
  2
DASHDOT
 70
    64
  3
__ . __ . __ . __ . __ . __ . __ . __ . __ . __
 72
    65
 73
     4
 40
0.000440
 49
0.000220
 49
-0.000110
 49
0.000000
 49
-0.000110
  0
LTYPE
  2
BORDER
 70
    64
  3
__ __ . __ __ . __ __ . __ __ . __ __ . __ __
 72
    65
 73
     6
 40
0.000770
 49
0.000220
 49
-0.000110
 49
0.000220
 49
-0.000110
 49
0.000000
 49
-0.000110
  0
LTYPE
  2
DIVIDE
 70
    64
  3
__ . . __ . . __ . . __ . . __ . . __ . . __
 72
    65
 73
     6
 40
0.000550
 49
0.000220
 49
-0.000110
 49
0.000000
 49
-0.000110
 49
0.000000
 49
-0.000110
  0
LTYPE
  2
DOTDOT
 70
    64
  3
 . .  . .  . .  . .  . .  . . 
 72
    65
 73
     5
 40
0.000242
 49
-0.000110
 49
0.000000
 49
-0.000110
 49
0.000000
 49
-0.000110
  0
ENDTAB
  0
TABLE
  2
STYLE
 70
     2
  0
STYLE
 70
     0
  2
SN0
 40
0.000000
 41
0.000440
 50
0.000000
 71
     0
 42
0.000000
  3
ROMAND
  0
STYLE
 70
    68
  2
SV0
 40
0.000000
 41
0.000440
 50
0.000000
 71
     0
 42
0.000000
  3
ROMAND
  0
ENDTAB
  0
TABLE
  2
LAYER
 70
     3
  0
LAYER
  2
FOREGROUND
 70
    64
 62
     7
  6
CONTINUOUS
  0
LAYER
  2
BACKGROUND
 70
    65
 62
    -7
  6
CONTINUOUS
  0
LAYER
  2
0
 70
    64
 62
     7
  6
CONTINUOUS
  0
ENDTAB
  0
ENDSEC
  0
SECTION
  2
ENTITIES
  0
POLYLINE
  8
FOREGROUND
  6
CONTINUOUS
 66
     1
 40
0.000000
 41
0.000000
  0
VERTEX
  8
FOREGROUND
  6
CONTINUOUS
 10
0.000000
 20
1.693560
  0
VERTEX
  8
FOREGROUND
  6
CONTINUOUS
 10
8.499920
 20
1.693560
  0
VERTEX
  8
FOREGROUND
  6
CONTINUOUS
 10
8.499920
 20
-9.306440
  0
VERTEX
  8
FOREGROUND
  6
CONTINUOUS
 10
0.000000
 20
-9.306440
  0
VERTEX
  8
FOREGROUND
  6
CONTINUOUS
 10
0.000000
 20
1.693560
  0
SEQEND
  8
0
  0
POLYLINE
  8
FOREGROUND
  6
CONTINUOUS
 66
     1
 40
0.000000
 41
0.000000
  0
VERTEX
  8
FOREGROUND
  6
CONTINUOUS
 10
0.000000
 20
1.693560
  0
VERTEX
  8
FOREGROUND
  6
CONTINUOUS
 10
8.499920
 20
1.693560
  0
VERTEX
  8
FOREGROUND
  6
CONTINUOUS
 10
8.499920
 20
-9.306440
  0
VERTEX
  8
FOREGROUND
  6
CONTINUOUS
 10
0.000000
 20
-9.306440
  0
VERTEX
  8
FOREGROUND
  6
CONTINUOUS
 10
0.000000
 20
1.693560
  0
SEQEND
  8
0
  0
POLYLINE
  8
0
  6
CONTINUOUS
 66
     1
 40
0.014080
 41
0.014080
  0
VERTEX
  8
0
  6
CONTINUOUS
 10
7.582960
 20
0.844800
  0
VERTEX
  8
0
  6
CONTINUOUS
 10
7.582520
 20
0.855800
  0
VERTEX
  8
0
  6
CONTINUOUS
 10
7.580760
 20
0.866800
  0
VERTEX
  8
0
  6
CONTINUOUS
 10
7.578120
 20
0.876920
  0
VERTEX
  8
0
  6
CONTINUOUS
 10
7.574600
 20
0.887040
  0
VERTEX
  8
0
  6
CONTINUOUS
 10
7.569760
 20
0.896280
  0
VERTEX
  8
0
  6
CONTINUOUS
 10
7.564480
 20
0.905520
  0
VERTEX
  8
0
  6
CONTINUOUS
 10
7.558320
 20
0.913880
  0
VERTEX
  8
0
  6
CONTINUOUS
 10
7.551280
 20
0.921360
  0
VERTEX
  8
0
  6
CONTINUOUS
 10
7.543800
 20
0.928400
  0
VERTEX
  8
0
  6
CONTINUOUS
 10
7.535440
 20
0.934560
  0
VERTEX
  8
0
  6
CONTINUOUS
 10
7.526200
 20
0.939840
  0
VERTEX
  8
0
  6
CONTINUOUS
 10
7.516960
 20
0.944680
  0
VERTEX
  8
0
  6
CONTINUOUS
 10
7.506840
 20
0.948200
  0
VERTEX
  8
0
  6
CONTINUOUS
 10
7.496720
 20
0.950840
  0
VERTEX
  8
0
  6
CONTINUOUS
 10
7.485720
 20
0.952600
  0
VERTEX
  8
0
  6
CONTINUOUS
 10
7.474720
 20
0.953040
  0
VERTEX
  8
0
  6
CONTINUOUS
 10
7.463720
 20
0.952600
  0
VERTEX
  8
0
  6
CONTINUOUS
 10
7.452720
 20
0.950840
  0
VERTEX
  8
0
  6
CONTINUOUS
 10
7.442600
 20
0.948200
  0
VERTEX
  8
0
  6
CONTINUOUS
 10
7.432480
 20
0.944680
  0
VERTEX
  8
0
  6
CONTINUOUS
 10
7.423240
 20
0.939840
  0
VERTEX
  8
0
  6
CONTINUOUS
 10
7.414000
 20
0.934560
  0
VERTEX
  8
0
  6
CONTINUOUS
 10
7.405640
 20
0.928400
  0
VERTEX
  8
0
  6
CONTINUOUS
 10
7.398160
 20
0.921360
  0
VERTEX
  8
0
  6
CONTINUOUS
 10
7.391120
 20
0.913880
  0
VERTEX
  8
0
  6
CONTINUOUS
 10
7.384960
 20
0.905520
  0
VERTEX
  8
0
  6
CONTINUOUS
 10
7.379680
 20
0.896280
  0
VERTEX
  8
0
  6
CONTINUOUS
 10
7.374840
 20
0.887040
  0
VERTEX
  8
0
  6
CONTINUOUS
 10
7.371320
 20
0.876920
  0
VERTEX
  8
0
  6
CONTINUOUS
 10
7.368680
 20
0.866800
  0
VERTEX
  8
0
  6
CONTINUOUS
 10
7.366920
 20
0.855800
  0
VERTEX
  8
0
  6
CONTINUOUS
 10
7.366480
 20
0.844800
  0
VERTEX
  8
0
  6
CONTINUOUS
 10
7.582960
 20
0.844800
  0
SEQEND
  8
0
  0
SOLID
  8
0
 62
    15
 10
6.557760
 20
0.925760
 11
7.199280
 21
1.290960
 12
6.566560
 22
0.920480
 13
7.208520
 23
1.285240
  0
POLYLINE
  8
0
  6
CONTINUOUS
 66
     1
 40
0.000000
 41
0.000000
  0
VERTEX
  8
0
  6
CONTINUOUS
 10
6.557760
 20
0.925760
  0
VERTEX
  8
0
  6
CONTINUOUS
 10
7.199280
 20
1.290960
  0
VERTEX
  8
0
  6
CONTINUOUS
 10
7.208520
 20
1.285240
  0
VERTEX
  8
0
  6
CONTINUOUS
 10
6.566560
 20
0.920480
  0
VERTEX
  8
0
  6
CONTINUOUS
 10
6.557760
 20
0.925760
  0
SEQEND
  8
0
  0
SOLID
  8
0
 62
    15
 10
6.464040
 20
0.930600
 11
7.105560
 21
1.295360
 12
6.473720
 22
0.934120
 13
7.115680
 23
1.298880
  0
POLYLINE
  8
0
  6
CONTINUOUS
 66
     1
 40
0.000000
 41
0.000000
  0
VERTEX
  8
0
  6
CONTINUOUS
 10
6.464040
 20
0.930600
  0
VERTEX
  8
0
  6
CONTINUOUS
 10
7.105560
 20
1.295360
  0
VERTEX
  8
0
  6
CONTINUOUS
 10
7.115680
 20
1.298880
  0
VERTEX
  8
0
  6
CONTINUOUS
 10
6.473720
 20
0.934120
  0
VERTEX
  8
0
  6
CONTINUOUS
 10
6.464040
 20
0.930600
  0
SEQEND
  8
0
  0
SOLID
  8
0
 62
    15
 10
6.473720
 20
0.934120
 11
7.115680
 21
1.298880
 12
6.484280
 22
0.936760
 13
7.126240
 23
1.301960
  0
POLYLINE
  8
0
  6
CONTINUOUS
 66
     1
 40
0.000000
 41
0.000000
  0
VERTEX
  8
0
  6
CONTINUOUS
 10
6.473720
 20
0.934120
  0
VERTEX
  8
0
  6
CONTINUOUS
 10
7.115680
 20
1.298880
  0
VERTEX
  8
0
  6
CONTINUOUS
 10
7.126240
 20
1.301960
  0
VERTEX
  8
0
  6
CONTINUOUS
 10
6.484280
 20
0.936760
  0
VERTEX
  8
0
  6
CONTINUOUS
 10
6.473720
 20
0.934120
  0
SEQEND
  8
0
  0
SOLID
  8
0
 62
    15
 10
6.484280
 20
0.936760
 11
7.126240
 21
1.301960
 12
6.494840
 22
0.938520
 13
7.136800
 23
1.303280
  0
POLYLINE
  8
0
  6
CONTINUOUS
 66
     1
 40
0.000000
 41
0.000000
  0
VERTEX
  8
0
  6
CONTINUOUS
 10
6.484280
 20
0.936760
  0
VERTEX
  8
0
  6
CONTINUOUS
 10
7.126240
 20
1.301960
  0
VERTEX
  8
0
  6
CONTINUOUS
 10
7.136800
 20
1.303280
  0
VERTEX
  8
0
  6
CONTINUOUS
 10
6.494840
 20
0.938520
  0
VERTEX
  8
0
  6
CONTINUOUS
 10
6.484280
 20
0.936760
  0
SEQEND
  8
0
  0
SOLID
  8
0
 62
    15
 10
6.494840
 20
0.938520
 11
7.136800
 21
1.303280
 12
6.506280
 22
0.938960
 13
7.147800
 23
1.304160
  0
POLYLINE
  8
0
  6
CONTINUOUS
 66
     1
 40
0.000000
 41
0.000000
  0
VERTEX
  8
0
  6
CONTINUOUS
 10
6.494840
 20
0.938520
  0
VERTEX
  8
0
  6
CONTINUOUS
 10
7.136800
 20
1.303280
  0
VERTEX
  8
0
  6
CONTINUOUS
 10
7.147800
 20
1.304160
  0
VERTEX
  8
0
  6
CONTINUOUS
 10
6.506280
 20
0.938960
  0
VERTEX
  8
0
  6
CONTINUOUS
 10
6.494840
 20
0.938520
  0
SEQEND
  8
0
  0
SOLID
  8
0
 62
    15
 10
6.506280
 20
0.938960
 11
7.147800
 21
1.304160
 12
6.517280
 22
0.938520
 13
7.158800
 23
1.303280
  0
POLYLINE
  8
0
  6
CONTINUOUS
 66
     1
 40
0.000000
 41
0.000000
  0
VERTEX
  8
0
  6
CONTINUOUS
 10
6.506280
 20
0.938960
  0
VERTEX
  8
0
  6
CONTINUOUS
 10
7.147800
 20
1.304160
  0
VERTEX
  8
0
  6
CONTINUOUS
 10
7.158800
 20
1.303280
  0
VERTEX
  8
0
  6
CONTINUOUS
 10
6.517280
 20
0.938520
  0
VERTEX
  8
0
  6
CONTINUOUS
 10
6.506280
 20
0.938960
  0
SEQEND
  8
0
  0
SOLID
  8
0
 62
    15
 10
6.517280
 20
0.938520
 11
7.158800
 21
1.303280
 12
6.527840
 22
0.936760
 13
7.169800
 23
1.301960
  0
POLYLINE
  8
0
  6
CONTINUOUS
 66
     1
 40
0.000000
 41
0.000000
  0
VERTEX
  8
0
  6
CONTINUOUS
 10
6.517280
 20
0.938520
  0
VERTEX
  8
0
  6
CONTINUOUS
 10
7.158800
 20
1.303280
  0
VERTEX
  8
0
  6
CONTINUOUS
 10
7.169800
 20
1.301960
  0
VERTEX
  8
0
  6
CONTINUOUS
 10
6.527840
 20
0.936760
  0
VERTEX
  8
0
  6
CONTINUOUS
 10
6.517280
 20
0.938520
  0
SEQEND
  8
0
  0
SOLID
  8
0
 62
    15
 10
6.527840
 20
0.936760
 11
7.169800
 21
1.301960
 12
6.538400
 22
0.934120
 13
7.179920
 23
1.298880
  0
POLYLINE
  8
0
  6
CONTINUOUS
 66
     1
 40
0.000000
 41
0.000000
  0
VERTEX
  8
0
  6
CONTINUOUS
 10
6.527840
 20
0.936760
  0
VERTEX
  8
0
  6
CONTINUOUS
 10
7.169800
 20
1.301960
  0
VERTEX
  8
0
  6
CONTINUOUS
 10
7.179920
 20
1.298880
  0
VERTEX
  8
0
  6
CONTINUOUS
 10
6.538400
 20
0.934120
  0
VERTEX
  8
0
  6
CONTINUOUS
 10
6.527840
 20
0.936760
  0
SEQEND
  8
0
  0
SOLID
  8
0
 62
    15
 10
6.538400
 20
0.934120
 11
7.179920
 21
1.298880
 12
6.548080
 22
0.930600
 13
7.190040
 23
1.295360
  0
POLYLINE
  8
0
  6
CONTINUOUS
 66
     1
 40
0.000000
 41
0.000000
  0
VERTEX
  8
0
  6
CONTINUOUS
 10
6.538400
 20
0.934120
  0
VERTEX
  8
0
  6
CONTINUOUS
 10
7.179920
 20
1.298880
  0
VERTEX
  8
0
  6
CONTINUOUS
 10
7.190040
 20
1.295360
  0
VERTEX
  8
0
  6
CONTINUOUS
 10
6.548080
 20
0.930600
  0
VERTEX
  8
0
  6
CONTINUOUS
 10
6.538400
 20
0.934120
  0
SEQEND
  8
0
  0
SOLID
  8
0
 62
    15
 10
6.548080
 20
0.930600
 11
7.190040
 21
1.295360
 12
6.557760
 22
0.925760
 13
7.199280
 23
1.290960
  0
POLYLINE
  8
0
  6
CONTINUOUS
 66
     1
 40
0.000000
 41
0.000000
  0
VERTEX
  8
0
  6
CONTINUOUS
 10
6.548080
 20
0.930600
  0
VERTEX
  8
0
  6
CONTINUOUS
 10
7.190040
 20
1.295360
  0
VERTEX
  8
0
  6
CONTINUOUS
 10
7.199280
 20
1.290960
  0
VERTEX
  8
0
  6
CONTINUOUS
 10
6.557760
 20
0.925760
  0
VERTEX
  8
0
  6
CONTINUOUS
 10
6.548080
 20
0.930600
  0
SEQEND
  8
0
  0
SOLID
  8
0
 62
    15
 10
6.454360
 20
0.925760
 11
7.096320
 21
1.290960
 12
6.464040
 22
0.930600
 13
7.105560
 23
1.295360
  0
POLYLINE
  8
0
  6
CONTINUOUS
 66
     1
 40
0.000000
 41
0.000000
  0
VERTEX
  8
0
  6
CONTINUOUS
 10
6.454360
 20
0.925760
  0
VERTEX
  8
0
  6
CONTINUOUS
 10
7.096320
 20
1.290960
  0
VERTEX
  8
0
  6
CONTINUOUS
 10
7.105560
 20
1.295360
  0
VERTEX
  8
0
  6
CONTINUOUS
 10
6.464040
 20
0.930600
  0
VERTEX
  8
0
  6
CONTINUOUS
 10
6.454360
 20
0.925760
  0
SEQEND
  8
0
  0
SOLID
  8
0
 62
    15
 10
6.566560
 20
0.920480
 11
7.208520
 21
1.285240
 12
6.574920
 22
0.914320
 13
7.216880
 23
1.279080
  0
POLYLINE
  8
0
  6
CONTINUOUS
 66
     1
 40
0.000000
 41
0.000000
  0
VERTEX
  8
0
  6
CONTINUOUS
 10
6.566560
 20
0.920480
  0
VERTEX
  8
0
  6
CONTINUOUS
 10
7.208520
 20
1.285240
  0
VERTEX
  8
0
  6
CONTINUOUS
 10
7.216880
 20
1.279080
  0
VERTEX
  8
0
  6
CONTINUOUS
 10
6.574920
 20
0.914320
  0
VERTEX
  8
0
  6
CONTINUOUS
 10
6.566560
 20
0.920480
  0
SEQEND
  8
0
  0
SOLID
  8
0
 62
    15
 10
6.574920
 20
0.914320
 11
7.216880
 21
1.279080
 12
6.582840
 22
0.907280
 13
7.224360
 23
1.272040
  0
POLYLINE
  8
0
  6
CONTINUOUS
 66
     1
 40
0.000000
 41
0.000000
  0
VERTEX
  8
0
  6
CONTINUOUS
 10
6.574920
 20
0.914320
  0
VERTEX
  8
0
  6
CONTINUOUS
 10
7.216880
 20
1.279080
  0
VERTEX
  8
0
  6
CONTINUOUS
 10
7.224360
 20
1.272040
  0
VERTEX
  8
0
  6
CONTINUOUS
 10
6.582840
 20
0.907280
  0
VERTEX
  8
0
  6
CONTINUOUS
 10
6.574920
 20
0.914320
  0
SEQEND
  8
0
  0
SOLID
  8
0
 62
     7
 10
6.582840
 20
0.907280
 11
7.224360
 21
1.272040
 12
6.589440
 22
0.899360
 13
7.231400
 23
1.264560
  0
POLYLINE
  8
0
  6
CONTINUOUS
 66
     1
 40
0.000000
 41
0.000000
  0
VERTEX
  8
0
  6
CONTINUOUS
 10
6.582840
 20
0.907280
  0
VERTEX
  8
0
  6
CONTINUOUS
 10
7.224360
 20
1.272040
  0
VERTEX
  8
0
  6
CONTINUOUS
 10
7.231400
 20
1.264560
  0
VERTEX
  8
0
  6
CONTINUOUS
 10
6.589440
 20
0.899360
  0
VERTEX
  8
0
  6
CONTINUOUS
 10
6.582840
 20
0.907280
  0
SEQEND
  8
0
  0
SOLID
  8
0
 62
     7
 10
6.589440
 20
0.899360
 11
7.231400
 21
1.264560
 12
6.596040
 22
0.891000
 13
7.237560
 23
1.256200
  0
POLYLINE
  8
0
  6
CONTINUOUS
 66
     1
 40
0.000000
 41
0.000000
  0
VERTEX
  8
0
  6
CONTINUOUS
 10
6.589440
 20
0.899360
  0
VERTEX
  8
0
  6
CONTINUOUS
 10
7.231400
 20
1.264560
  0
VERTEX
  8
0
  6
CONTINUOUS
 10
7.237560
 20
1.256200
  0
VERTEX
  8
0
  6
CONTINUOUS
 10
6.596040
 20
0.891000
  0
VERTEX
  8
0
  6
CONTINUOUS
 10
6.589440
 20
0.899360
  0
SEQEND
  8
0
  0
SOLID
  8
0
 62
     7
 10
6.596040
 20
0.891000
 11
7.237560
 21
1.256200
 12
6.601320
 22
0.882200
 13
7.243280
 23
1.247400
  0
POLYLINE
  8
0
  6
CONTINUOUS
 66
     1
 40
0.000000
 41
0.000000
  0
VERTEX
  8
0
  6
CONTINUOUS
 10
6.596040
 20
0.891000
  0
VERTEX
  8
0
  6
CONTINUOUS
 10
7.237560
 20
1.256200
  0
VERTEX
  8
0
  6
CONTINUOUS
 10
7.243280
 20
1.247400
  0
VERTEX
  8
0
  6
CONTINUOUS
 10
6.601320
 20
0.882200
  0
VERTEX
  8
0
  6
CONTINUOUS
 10
6.596040
 20
0.891000
  0
SEQEND
  8
0
  0
SOLID
  8
0
 62
     7
 10
6.601320
 20
0.882200
 11
7.243280
 21
1.247400
 12
6.605720
 22
0.872960
 13
7.247680
 23
1.237720
  0
POLYLINE
  8
0
  6
CONTINUOUS
 66
     1
 40
0.000000
 41
0.000000
  0
VERTEX
  8
0
  6
CONTINUOUS
 10
6.601320
 20
0.882200
  0
VERTEX
  8
0
  6
CONTINUOUS
 10
7.243280
 20
1.247400
  0
VERTEX
  8
0
  6
CONTINUOUS
 10
7.247680
 20
1.237720
  0
VERTEX
  8
0
  6
CONTINUOUS
 10
6.605720
 20
0.872960
  0
VERTEX
  8
0
  6
CONTINUOUS
 10
6.601320
 20
0.882200
  0
SEQEND
  8
0
  0
SOLID
  8
0
 62
     7
 10
6.605720
 20
0.872960
 11
7.247680
 21
1.237720
 12
6.609680
 22
0.862840
 13
7.251200
 23
1.228040
  0
POLYLINE
  8
0
  6
CONTINUOUS
 66
     1
 40
0.000000
 41
0.000000
  0
VERTEX
  8
0
  6
CONTINUOUS
 10
6.605720
 20
0.872960
  0
VERTEX
  8
0
  6
CONTINUOUS
 10
7.247680
 20
1.237720
  0
VERTEX
  8
0
  6
CONTINUOUS
 10
7.251200
 20
1.228040
  0
VERTEX
  8
0
  6
CONTINUOUS
 10
6.609680
 20
0.862840
  0
VERTEX
  8
0
  6
CONTINUOUS
 10
6.605720
 20
0.872960
  0
SEQEND
  8
0
  0
SOLID
  8
0
 62
     7
 10
6.609680
 20
0.862840
 11
7.251200
 21
1.228040
 12
6.612320
 22
0.852280
 13
7.253840
 23
1.217480
  0
POLYLINE
  8
0
  6
CONTINUOUS
 66
     1
 40
0.000000
 41
0.000000
  0
VERTEX
  8
0
  6
CONTINUOUS
 10
6.609680
 20
0.862840
  0
VERTEX
  8
0
  6
CONTINUOUS
 10
7.251200
 20
1.228040
  0
VERTEX
  8
0
  6
CONTINUOUS
 10
7.253840
 20
1.217480
  0
VERTEX
  8
0
  6
CONTINUOUS
 10
6.612320
 20
0.852280
  0
VERTEX
  8
0
  6
CONTINUOUS
 10
6.609680
 20
0.862840
  0
SEQEND
  8
0
  0
SOLID
  8
0
 62
     7
 10
6.612320
 20
0.852280
 11
7.253840
 21
1.217480
 12
6.613640
 22
0.841720
 13
7.255600
 23
1.206920
  0
POLYLINE
  8
0
  6
CONTINUOUS
 66
     1
 40
0.000000
 41
0.000000
  0
VERTEX
  8
0
  6
CONTINUOUS
 10
6.612320
 20
0.852280
  0
VERTEX
  8
0
  6
CONTINUOUS
 10
7.253840
 20
1.217480
  0
VERTEX
  8
0
  6
CONTINUOUS
 10
7.255600
 20
1.206920
  0
VERTEX
  8
0
  6
CONTINUOUS
 10
6.613640
 20
0.841720
  0
VERTEX
  8
0
  6
CONTINUOUS
 10
6.612320
 20
0.852280
  0
SEQEND
  8
0
  0
SOLID
  8
0
 62
     7
 10
6.613640
 20
0.841720
 11
7.255600
 21
1.206920
 12
6.614520
 22
0.830720
 13
7.256040
 23
1.195480
  0
POLYLINE
  8
0
  6
CONTINUOUS
 66
     1
 40
0.000000
 41
0.000000
  0
VERTEX
  8
0
  6
CONTINUOUS
 10
6.613640
 20
0.841720
  0
VERTEX
  8
0
  6
CONTINUOUS
 10
7.255600
 20
1.206920
  0
VERTEX
  8
0
  6
CONTINUOUS
 10
7.256040
 20
1.195480
  0
VERTEX
  8
0
  6
CONTINUOUS
 10
6.614520
 20
0.830720
  0
VERTEX
  8
0
  6
CONTINUOUS
 10
6.613640
 20
0.841720
  0
SEQEND
  8
0
  0
POLYLINE
  8
0
  6
CONTINUOUS
 66
     1
 40
0.000000
 41
0.000000
  0
VERTEX
  8
0
  6
CONTINUOUS
 10
6.397600
 20
0.830720
  0
VERTEX
  8
0
  6
CONTINUOUS
 10
6.398480
 20
0.841720
  0
VERTEX
  8
0
  6
CONTINUOUS
 10
6.399800
 20
0.852280
  0
VERTEX
  8
0
  6
CONTINUOUS
 10
6.402880
 20
0.862840
  0
VERTEX
  8
0
  6
CONTINUOUS
 10
6.406400
 20
0.872960
  0
VERTEX
  8
0
  6
CONTINUOUS
 10
6.410800
 20
0.882200
  0
VERTEX
  8
0
  6
CONTINUOUS
 10
6.416080
 20
0.891000
  0
VERTEX
  8
0
  6
CONTINUOUS
 10
6.422680
 20
0.899360
  0
VERTEX
  8
0
  6
CONTINUOUS
 10
6.429720
 20
0.907280
  0
VERTEX
  8
0
  6
CONTINUOUS
 10
6.437200
 20
0.914320
  0
VERTEX
  8
0
  6
CONTINUOUS
 10
6.445560
 20
0.920480
  0
VERTEX
  8
0
  6
CONTINUOUS
 10
6.454360
 20
0.925760
  0
VERTEX
  8
0
  6
CONTINUOUS
 10
6.464040
 20
0.930600
  0
VERTEX
  8
0
  6
CONTINUOUS
 10
6.473720
 20
0.934120
  0
VERTEX
  8
0
  6
CONTINUOUS
 10
6.484280
 20
0.936760
  0
VERTEX
  8
0
  6
CONTINUOUS
 10
6.494840
 20
0.938520
  0
VERTEX
  8
0
  6
CONTINUOUS
 10
6.506280
 20
0.938960
  0
VERTEX
  8
0
  6
CONTINUOUS
 10
6.517280
 20
0.938520
  0
VERTEX
  8
0
  6
CONTINUOUS
 10
6.527840
 20
0.936760
  0
VERTEX
  8
0
  6
CONTINUOUS
 10
6.538400
 20
0.934120
  0
VERTEX
  8
0
  6
CONTINUOUS
 10
6.548080
 20
0.930600
  0
VERTEX
  8
0
  6
CONTINUOUS
 10
6.557760
 20
0.925760
  0
VERTEX
  8
0
  6
CONTINUOUS
 10
6.566560
 20
0.920480
  0
VERTEX
  8
0
  6
CONTINUOUS
 10
6.574920
 20
0.914320
  0
VERTEX
  8
0
  6
CONTINUOUS
 10
6.582840
 20
0.907280
  0
VERTEX
  8
0
  6
CONTINUOUS
 10
6.589440
 20
0.899360
  0
VERTEX
  8
0
  6
CONTINUOUS
 10
6.596040
 20
0.891000
  0
VERTEX
  8
0
  6
CONTINUOUS
 10
6.601320
 20
0.882200
  0
VERTEX
  8
0
  6
CONTINUOUS
 10
6.605720
 20
0.872960
  0
VERTEX
  8
0
  6
CONTINUOUS
 10
6.609680
 20
0.862840
  0
VERTEX
  8
0
  6
CONTINUOUS
 10
6.612320
 20
0.852280
  0
VERTEX
  8
0
  6
CONTINUOUS
 10
6.613640
 20
0.841720
  0
VERTEX
  8
0
  6
CONTINUOUS
 10
6.614520
 20
0.830720
  0
VERTEX
  8
0
  6
CONTINUOUS
 10
6.397600
 20
0.830720
  0
SEQEND
  8
0
  0
TEXT
  8
0
 10
6.532240
 20
0.623920
 40
0.138157
  1
BA  704
 41
1.000000
  7
SN0
 71
     0
 72
     5
 11
7.122078
 21
0.623920
  0
TEXT
  8
0
 10
6.636520
 20
0.432520
 40
0.138157
  1
7/32"
 41
1.000000
  7
SN0
 71
     0
 72
     5
 11
7.017952
 21
0.432520
  0
ENDSEC
  0
EOF
