  0
SECTION
  2
HEADER
  9
$ACADVER
  1
AC1006
  9
$EXTMIN
 10
1.309000
 20
4.477000
  9
$EXTMAX
 10
7.169360
 20
6.524320
  9
$LTSCALE
 40
0.044000
  9
$PDMODE
 70
    35
  9
$PDSIZE
 40
0.035200
  0
ENDSEC
  0
SECTION
  2
TABLES
  0
TABLE
  2
LTYPE
 70
     9
  0
LTYPE
  2
CONTINUOUS
 70
    64
  3
Solid line
 72
    65
 73
     0
 40
0.000000
  0
LTYPE
  2
DASHED
 70
    64
  3
__ __ __ __ __ __ __ __ __ __ __ __ __ __ __
 72
    65
 73
     2
 40
0.000330
 49
0.000220
 49
-0.000110
  0
LTYPE
  2
HIDDEN
 70
    64
  3
 _ _ _ _ _ _ _ _ _ _ _ _ _ _ _ _ _ _ _ _ _ _
 72
    65
 73
     2
 40
0.000165
 49
0.000110
 49
-0.000055
  0
LTYPE
  2
CENTER
 70
    64
  3
____ _ ____ _ ____ _ ____ _ ____ _ ____ _ ____
 72
    65
 73
     4
 40
0.000880
 49
0.000550
 49
-0.000110
 49
0.000110
 49
-0.000110
  0
LTYPE
  2
PHANTOM
 70
    64
  3
_____ _ _ _____ _ _ _____ _ _ _____ _ _ ____
 72
    65
 73
     6
 40
0.001100
 49
0.000550
 49
-0.000110
 49
0.000110
 49
-0.000110
 49
0.000110
 49
-0.000110
  0
LTYPE
  2
DOT
 70
    64
  3
...............................................
 72
    65
 73
     2
 40
0.000110
 49
0.000000
 49
-0.000110
  0
LTYPE
  2
DASHDOT
 70
    64
  3
__ . __ . __ . __ . __ . __ . __ . __ . __ . __
 72
    65
 73
     4
 40
0.000440
 49
0.000220
 49
-0.000110
 49
0.000000
 49
-0.000110
  0
LTYPE
  2
BORDER
 70
    64
  3
__ __ . __ __ . __ __ . __ __ . __ __ . __ __
 72
    65
 73
     6
 40
0.000770
 49
0.000220
 49
-0.000110
 49
0.000220
 49
-0.000110
 49
0.000000
 49
-0.000110
  0
LTYPE
  2
DIVIDE
 70
    64
  3
__ . . __ . . __ . . __ . . __ . . __ . . __
 72
    65
 73
     6
 40
0.000550
 49
0.000220
 49
-0.000110
 49
0.000000
 49
-0.000110
 49
0.000000
 49
-0.000110
  0
LTYPE
  2
DOTDOT
 70
    64
  3
 . .  . .  . .  . .  . .  . . 
 72
    65
 73
     5
 40
0.000242
 49
-0.000110
 49
0.000000
 49
-0.000110
 49
0.000000
 49
-0.000110
  0
ENDTAB
  0
TABLE
  2
STYLE
 70
     2
  0
STYLE
 70
     0
  2
SN0
 40
0.000000
 41
0.000440
 50
0.000000
 71
     0
 42
0.000000
  3
ROMAND
  0
STYLE
 70
    68
  2
SV0
 40
0.000000
 41
0.000440
 50
0.000000
 71
     0
 42
0.000000
  3
ROMAND
  0
ENDTAB
  0
TABLE
  2
LAYER
 70
     3
  0
LAYER
  2
FOREGROUND
 70
    64
 62
     7
  6
CONTINUOUS
  0
LAYER
  2
BACKGROUND
 70
    65
 62
    -7
  6
CONTINUOUS
  0
LAYER
  2
0
 70
    64
 62
     7
  6
CONTINUOUS
  0
ENDTAB
  0
ENDSEC
  0
SECTION
  2
ENTITIES
  0
POLYLINE
  8
FOREGROUND
  6
CONTINUOUS
 66
     1
 40
0.000000
 41
0.000000
  0
VERTEX
  8
FOREGROUND
  6
CONTINUOUS
 10
0.000000
 20
11.001320
  0
VERTEX
  8
FOREGROUND
  6
CONTINUOUS
 10
8.499920
 20
11.001320
  0
VERTEX
  8
FOREGROUND
  6
CONTINUOUS
 10
8.499920
 20
0.001320
  0
VERTEX
  8
FOREGROUND
  6
CONTINUOUS
 10
0.000000
 20
0.001320
  0
VERTEX
  8
FOREGROUND
  6
CONTINUOUS
 10
0.000000
 20
11.001320
  0
SEQEND
  8
0
  0
POLYLINE
  8
FOREGROUND
  6
CONTINUOUS
 66
     1
 40
0.000000
 41
0.000000
  0
VERTEX
  8
FOREGROUND
  6
CONTINUOUS
 10
0.000000
 20
11.001320
  0
VERTEX
  8
FOREGROUND
  6
CONTINUOUS
 10
8.499920
 20
11.001320
  0
VERTEX
  8
FOREGROUND
  6
CONTINUOUS
 10
8.499920
 20
0.001320
  0
VERTEX
  8
FOREGROUND
  6
CONTINUOUS
 10
0.000000
 20
0.001320
  0
VERTEX
  8
FOREGROUND
  6
CONTINUOUS
 10
0.000000
 20
11.001320
  0
SEQEND
  8
0
  0
POLYLINE
  8
0
  6
CONTINUOUS
 66
     1
 40
0.014080
 41
0.014080
  0
VERTEX
  8
0
  6
CONTINUOUS
 10
4.383720
 20
6.071560
  0
VERTEX
  8
0
  6
CONTINUOUS
 10
4.813600
 20
6.071560
  0
VERTEX
  8
0
  6
CONTINUOUS
 10
4.813600
 20
5.944840
  0
VERTEX
  8
0
  6
CONTINUOUS
 10
4.951320
 20
5.944840
  0
VERTEX
  8
0
  6
CONTINUOUS
 10
4.951320
 20
6.071560
  0
VERTEX
  8
0
  6
CONTINUOUS
 10
5.800080
 20
6.071560
  0
VERTEX
  8
0
  6
CONTINUOUS
 10
5.800080
 20
5.944840
  0
VERTEX
  8
0
  6
CONTINUOUS
 10
5.937800
 20
5.944840
  0
VERTEX
  8
0
  6
CONTINUOUS
 10
5.937800
 20
6.071560
  0
VERTEX
  8
0
  6
CONTINUOUS
 10
6.372960
 20
6.071560
  0
VERTEX
  8
0
  6
CONTINUOUS
 10
6.372960
 20
5.327520
  0
VERTEX
  8
0
  6
CONTINUOUS
 10
4.372720
 20
5.327520
  0
VERTEX
  8
0
  6
CONTINUOUS
 10
4.372720
 20
6.071560
  0
VERTEX
  8
0
  6
CONTINUOUS
 10
4.383720
 20
6.071560
  0
SEQEND
  8
0
  0
SOLID
  8
0
 62
    15
 10
2.736800
 20
5.688760
 11
3.387120
 21
6.065840
 12
2.736800
 22
5.562040
 13
3.387120
 23
5.939120
  0
POLYLINE
  8
0
  6
CONTINUOUS
 66
     1
 40
0.000000
 41
0.000000
  0
VERTEX
  8
0
  6
CONTINUOUS
 10
2.736800
 20
5.688760
  0
VERTEX
  8
0
  6
CONTINUOUS
 10
3.387120
 20
6.065840
  0
VERTEX
  8
0
  6
CONTINUOUS
 10
3.387120
 20
5.939120
  0
VERTEX
  8
0
  6
CONTINUOUS
 10
2.736800
 20
5.562040
  0
VERTEX
  8
0
  6
CONTINUOUS
 10
2.736800
 20
5.688760
  0
SEQEND
  8
0
  0
SOLID
  8
0
 62
    15
 10
1.750320
 20
5.688760
 11
2.400640
 21
6.065840
 12
1.750320
 22
5.562040
 13
2.400640
 23
5.939120
  0
POLYLINE
  8
0
  6
CONTINUOUS
 66
     1
 40
0.000000
 41
0.000000
  0
VERTEX
  8
0
  6
CONTINUOUS
 10
1.750320
 20
5.688760
  0
VERTEX
  8
0
  6
CONTINUOUS
 10
2.400640
 20
6.065840
  0
VERTEX
  8
0
  6
CONTINUOUS
 10
2.400640
 20
5.939120
  0
VERTEX
  8
0
  6
CONTINUOUS
 10
1.750320
 20
5.562040
  0
VERTEX
  8
0
  6
CONTINUOUS
 10
1.750320
 20
5.688760
  0
SEQEND
  8
0
  0
SOLID
  8
0
 62
     7
 10
1.750320
 20
5.562040
 11
2.400640
 21
5.939120
 12
1.888040
 22
5.562040
 13
2.538800
 23
5.939120
  0
POLYLINE
  8
0
  6
CONTINUOUS
 66
     1
 40
0.000000
 41
0.000000
  0
VERTEX
  8
0
  6
CONTINUOUS
 10
1.750320
 20
5.562040
  0
VERTEX
  8
0
  6
CONTINUOUS
 10
2.400640
 20
5.939120
  0
VERTEX
  8
0
  6
CONTINUOUS
 10
2.538800
 20
5.939120
  0
VERTEX
  8
0
  6
CONTINUOUS
 10
1.888040
 20
5.562040
  0
VERTEX
  8
0
  6
CONTINUOUS
 10
1.750320
 20
5.562040
  0
SEQEND
  8
0
  0
SOLID
  8
0
 62
     7
 10
1.888040
 20
5.688760
 11
2.538800
 21
6.065840
 12
2.736800
 22
5.688760
 13
3.387120
 23
6.065840
  0
POLYLINE
  8
0
  6
CONTINUOUS
 66
     1
 40
0.000000
 41
0.000000
  0
VERTEX
  8
0
  6
CONTINUOUS
 10
1.888040
 20
5.688760
  0
VERTEX
  8
0
  6
CONTINUOUS
 10
2.538800
 20
6.065840
  0
VERTEX
  8
0
  6
CONTINUOUS
 10
3.387120
 20
6.065840
  0
VERTEX
  8
0
  6
CONTINUOUS
 10
2.736800
 20
5.688760
  0
VERTEX
  8
0
  6
CONTINUOUS
 10
1.888040
 20
5.688760
  0
SEQEND
  8
0
  0
SOLID
  8
0
 62
     7
 10
1.320440
 20
5.688760
 11
1.971200
 21
6.065840
 12
1.750320
 22
5.688760
 13
2.400640
 23
6.065840
  0
POLYLINE
  8
0
  6
CONTINUOUS
 66
     1
 40
0.000000
 41
0.000000
  0
VERTEX
  8
0
  6
CONTINUOUS
 10
1.320440
 20
5.688760
  0
VERTEX
  8
0
  6
CONTINUOUS
 10
1.971200
 20
6.065840
  0
VERTEX
  8
0
  6
CONTINUOUS
 10
2.400640
 20
6.065840
  0
VERTEX
  8
0
  6
CONTINUOUS
 10
1.750320
 20
5.688760
  0
VERTEX
  8
0
  6
CONTINUOUS
 10
1.320440
 20
5.688760
  0
SEQEND
  8
0
  0
SOLID
  8
0
 62
     7
 10
2.736800
 20
5.562040
 11
3.387120
 21
5.939120
 12
2.874520
 22
5.562040
 13
3.524840
 23
5.939120
  0
POLYLINE
  8
0
  6
CONTINUOUS
 66
     1
 40
0.000000
 41
0.000000
  0
VERTEX
  8
0
  6
CONTINUOUS
 10
2.736800
 20
5.562040
  0
VERTEX
  8
0
  6
CONTINUOUS
 10
3.387120
 20
5.939120
  0
VERTEX
  8
0
  6
CONTINUOUS
 10
3.524840
 20
5.939120
  0
VERTEX
  8
0
  6
CONTINUOUS
 10
2.874520
 20
5.562040
  0
VERTEX
  8
0
  6
CONTINUOUS
 10
2.736800
 20
5.562040
  0
SEQEND
  8
0
  0
SOLID
  8
0
 62
     7
 10
2.874520
 20
5.688760
 11
3.524840
 21
6.065840
 12
3.309680
 22
5.688760
 13
3.960440
 23
6.065840
  0
POLYLINE
  8
0
  6
CONTINUOUS
 66
     1
 40
0.000000
 41
0.000000
  0
VERTEX
  8
0
  6
CONTINUOUS
 10
2.874520
 20
5.688760
  0
VERTEX
  8
0
  6
CONTINUOUS
 10
3.524840
 20
6.065840
  0
VERTEX
  8
0
  6
CONTINUOUS
 10
3.960440
 20
6.065840
  0
VERTEX
  8
0
  6
CONTINUOUS
 10
3.309680
 20
5.688760
  0
VERTEX
  8
0
  6
CONTINUOUS
 10
2.874520
 20
5.688760
  0
SEQEND
  8
0
  0
SOLID
  8
0
 62
    15
 10
3.309680
 20
5.688760
 11
3.960440
 21
6.065840
 12
3.309680
 22
4.944720
 13
3.960440
 23
5.321800
  0
POLYLINE
  8
0
  6
CONTINUOUS
 66
     1
 40
0.000000
 41
0.000000
  0
VERTEX
  8
0
  6
CONTINUOUS
 10
3.309680
 20
5.688760
  0
VERTEX
  8
0
  6
CONTINUOUS
 10
3.960440
 20
6.065840
  0
VERTEX
  8
0
  6
CONTINUOUS
 10
3.960440
 20
5.321800
  0
VERTEX
  8
0
  6
CONTINUOUS
 10
3.309680
 20
4.944720
  0
VERTEX
  8
0
  6
CONTINUOUS
 10
3.309680
 20
5.688760
  0
SEQEND
  8
0
  0
SOLID
  8
0
 62
     7
 10
1.309440
 20
5.688760
 11
1.959760
 21
6.065840
 12
1.320440
 22
5.688760
 13
1.971200
 23
6.065840
  0
POLYLINE
  8
0
  6
CONTINUOUS
 66
     1
 40
0.000000
 41
0.000000
  0
VERTEX
  8
0
  6
CONTINUOUS
 10
1.309440
 20
5.688760
  0
VERTEX
  8
0
  6
CONTINUOUS
 10
1.959760
 20
6.065840
  0
VERTEX
  8
0
  6
CONTINUOUS
 10
1.971200
 20
6.065840
  0
VERTEX
  8
0
  6
CONTINUOUS
 10
1.320440
 20
5.688760
  0
VERTEX
  8
0
  6
CONTINUOUS
 10
1.309440
 20
5.688760
  0
SEQEND
  8
0
  0
POLYLINE
  8
0
  6
CONTINUOUS
 66
     1
 40
0.000000
 41
0.000000
  0
VERTEX
  8
0
  6
CONTINUOUS
 10
1.320440
 20
5.688760
  0
VERTEX
  8
0
  6
CONTINUOUS
 10
1.750320
 20
5.688760
  0
VERTEX
  8
0
  6
CONTINUOUS
 10
1.750320
 20
5.562040
  0
VERTEX
  8
0
  6
CONTINUOUS
 10
1.888040
 20
5.562040
  0
VERTEX
  8
0
  6
CONTINUOUS
 10
1.888040
 20
5.688760
  0
VERTEX
  8
0
  6
CONTINUOUS
 10
2.736800
 20
5.688760
  0
VERTEX
  8
0
  6
CONTINUOUS
 10
2.736800
 20
5.562040
  0
VERTEX
  8
0
  6
CONTINUOUS
 10
2.874520
 20
5.562040
  0
VERTEX
  8
0
  6
CONTINUOUS
 10
2.874520
 20
5.688760
  0
VERTEX
  8
0
  6
CONTINUOUS
 10
3.309680
 20
5.688760
  0
VERTEX
  8
0
  6
CONTINUOUS
 10
3.309680
 20
4.944720
  0
VERTEX
  8
0
  6
CONTINUOUS
 10
1.309440
 20
4.944720
  0
VERTEX
  8
0
  6
CONTINUOUS
 10
1.309440
 20
5.688760
  0
VERTEX
  8
0
  6
CONTINUOUS
 10
1.320440
 20
5.688760
  0
SEQEND
  8
0
  0
TEXT
  8
0
 10
2.441120
 20
4.715920
 40
0.138065
  1
703B
 41
1.000000
  7
SN0
 71
     0
 72
     5
 11
2.829076
 21
4.715920
  0
TEXT
  8
0
 10
2.326720
 20
4.524080
 40
0.138065
  1
1/2" x 2"
 41
1.000000
  7
SN0
 71
     0
 72
     5
 11
2.942644
 21
4.524080
  0
TEXT
  8
0
 10
6.835400
 20
6.373400
 40
0.138065
  1
trim
 41
1.000000
  7
SN0
 71
     0
 72
     5
 11
7.112595
 21
6.373400
  0
TEXT
  8
0
 10
6.779960
 20
6.182000
 40
0.138065
  1
703B
 41
1.000000
  7
SN0
 71
     0
 72
     5
 11
7.167916
 21
6.182000
  0
ENDSEC
  0
EOF
