  0
SECTION
  2
HEADER
  9
$ACADVER
  1
AC1006
  9
$EXTMIN
 10
2.639560
 20
0.611160
  9
$EXTMAX
 10
7.862360
 20
3.206280
  9
$LTSCALE
 40
0.044000
  9
$PDMODE
 70
    35
  9
$PDSIZE
 40
0.035200
  0
ENDSEC
  0
SECTION
  2
TABLES
  0
TABLE
  2
LTYPE
 70
     9
  0
LTYPE
  2
CONTINUOUS
 70
    64
  3
Solid line
 72
    65
 73
     0
 40
0.000000
  0
LTYPE
  2
DASHED
 70
    64
  3
__ __ __ __ __ __ __ __ __ __ __ __ __ __ __
 72
    65
 73
     2
 40
0.000330
 49
0.000220
 49
-0.000110
  0
LTYPE
  2
HIDDEN
 70
    64
  3
 _ _ _ _ _ _ _ _ _ _ _ _ _ _ _ _ _ _ _ _ _ _
 72
    65
 73
     2
 40
0.000165
 49
0.000110
 49
-0.000055
  0
LTYPE
  2
CENTER
 70
    64
  3
____ _ ____ _ ____ _ ____ _ ____ _ ____ _ ____
 72
    65
 73
     4
 40
0.000880
 49
0.000550
 49
-0.000110
 49
0.000110
 49
-0.000110
  0
LTYPE
  2
PHANTOM
 70
    64
  3
_____ _ _ _____ _ _ _____ _ _ _____ _ _ ____
 72
    65
 73
     6
 40
0.001100
 49
0.000550
 49
-0.000110
 49
0.000110
 49
-0.000110
 49
0.000110
 49
-0.000110
  0
LTYPE
  2
DOT
 70
    64
  3
...............................................
 72
    65
 73
     2
 40
0.000110
 49
0.000000
 49
-0.000110
  0
LTYPE
  2
DASHDOT
 70
    64
  3
__ . __ . __ . __ . __ . __ . __ . __ . __ . __
 72
    65
 73
     4
 40
0.000440
 49
0.000220
 49
-0.000110
 49
0.000000
 49
-0.000110
  0
LTYPE
  2
BORDER
 70
    64
  3
__ __ . __ __ . __ __ . __ __ . __ __ . __ __
 72
    65
 73
     6
 40
0.000770
 49
0.000220
 49
-0.000110
 49
0.000220
 49
-0.000110
 49
0.000000
 49
-0.000110
  0
LTYPE
  2
DIVIDE
 70
    64
  3
__ . . __ . . __ . . __ . . __ . . __ . . __
 72
    65
 73
     6
 40
0.000550
 49
0.000220
 49
-0.000110
 49
0.000000
 49
-0.000110
 49
0.000000
 49
-0.000110
  0
LTYPE
  2
DOTDOT
 70
    64
  3
 . .  . .  . .  . .  . .  . . 
 72
    65
 73
     5
 40
0.000242
 49
-0.000110
 49
0.000000
 49
-0.000110
 49
0.000000
 49
-0.000110
  0
ENDTAB
  0
TABLE
  2
STYLE
 70
     2
  0
STYLE
 70
     0
  2
SN0
 40
0.000000
 41
0.000440
 50
0.000000
 71
     0
 42
0.000000
  3
ROMAND
  0
STYLE
 70
    68
  2
SV0
 40
0.000000
 41
0.000440
 50
0.000000
 71
     0
 42
0.000000
  3
ROMAND
  0
ENDTAB
  0
TABLE
  2
LAYER
 70
     3
  0
LAYER
  2
FOREGROUND
 70
    64
 62
     7
  6
CONTINUOUS
  0
LAYER
  2
BACKGROUND
 70
    65
 62
    -7
  6
CONTINUOUS
  0
LAYER
  2
0
 70
    64
 62
     7
  6
CONTINUOUS
  0
ENDTAB
  0
ENDSEC
  0
SECTION
  2
ENTITIES
  0
POLYLINE
  8
FOREGROUND
  6
CONTINUOUS
 66
     1
 40
0.000000
 41
0.000000
  0
VERTEX
  8
FOREGROUND
  6
CONTINUOUS
 10
0.000000
 20
3.817440
  0
VERTEX
  8
FOREGROUND
  6
CONTINUOUS
 10
8.499920
 20
3.817440
  0
VERTEX
  8
FOREGROUND
  6
CONTINUOUS
 10
8.499920
 20
-7.182560
  0
VERTEX
  8
FOREGROUND
  6
CONTINUOUS
 10
0.000000
 20
-7.182560
  0
VERTEX
  8
FOREGROUND
  6
CONTINUOUS
 10
0.000000
 20
3.817440
  0
SEQEND
  8
0
  0
POLYLINE
  8
FOREGROUND
  6
CONTINUOUS
 66
     1
 40
0.000000
 41
0.000000
  0
VERTEX
  8
FOREGROUND
  6
CONTINUOUS
 10
0.000000
 20
3.817440
  0
VERTEX
  8
FOREGROUND
  6
CONTINUOUS
 10
8.499920
 20
3.817440
  0
VERTEX
  8
FOREGROUND
  6
CONTINUOUS
 10
8.499920
 20
-7.182560
  0
VERTEX
  8
FOREGROUND
  6
CONTINUOUS
 10
0.000000
 20
-7.182560
  0
VERTEX
  8
FOREGROUND
  6
CONTINUOUS
 10
0.000000
 20
3.817440
  0
SEQEND
  8
0
  0
POLYLINE
  8
0
  6
CONTINUOUS
 66
     1
 40
0.014080
 41
0.014080
  0
VERTEX
  8
0
  6
CONTINUOUS
 10
7.854880
 20
1.859880
  0
VERTEX
  8
0
  6
CONTINUOUS
 10
7.854880
 20
3.006960
  0
VERTEX
  8
0
  6
CONTINUOUS
 10
7.665240
 20
3.006960
  0
VERTEX
  8
0
  6
CONTINUOUS
 10
7.665240
 20
3.197040
  0
VERTEX
  8
0
  6
CONTINUOUS
 10
7.219520
 20
3.197040
  0
VERTEX
  8
0
  6
CONTINUOUS
 10
7.219520
 20
3.065480
  0
VERTEX
  8
0
  6
CONTINUOUS
 10
7.080920
 20
3.065480
  0
VERTEX
  8
0
  6
CONTINUOUS
 10
7.080920
 20
3.197040
  0
VERTEX
  8
0
  6
CONTINUOUS
 10
6.233920
 20
3.197040
  0
VERTEX
  8
0
  6
CONTINUOUS
 10
6.233920
 20
3.065480
  0
VERTEX
  8
0
  6
CONTINUOUS
 10
6.102360
 20
3.065480
  0
VERTEX
  8
0
  6
CONTINUOUS
 10
6.102360
 20
3.198800
  0
VERTEX
  8
0
  6
CONTINUOUS
 10
5.664560
 20
3.198800
  0
VERTEX
  8
0
  6
CONTINUOUS
 10
5.664560
 20
1.678160
  0
VERTEX
  8
0
  6
CONTINUOUS
 10
6.104120
 20
1.677720
  0
VERTEX
  8
0
  6
CONTINUOUS
 10
6.104120
 20
1.800920
  0
VERTEX
  8
0
  6
CONTINUOUS
 10
6.233040
 20
1.800920
  0
VERTEX
  8
0
  6
CONTINUOUS
 10
6.233040
 20
1.677720
  0
VERTEX
  8
0
  6
CONTINUOUS
 10
7.080480
 20
1.677720
  0
VERTEX
  8
0
  6
CONTINUOUS
 10
7.080480
 20
1.800920
  0
VERTEX
  8
0
  6
CONTINUOUS
 10
7.219960
 20
1.800920
  0
VERTEX
  8
0
  6
CONTINUOUS
 10
7.219960
 20
1.677720
  0
VERTEX
  8
0
  6
CONTINUOUS
 10
7.665240
 20
1.677720
  0
VERTEX
  8
0
  6
CONTINUOUS
 10
7.665240
 20
1.859880
  0
VERTEX
  8
0
  6
CONTINUOUS
 10
7.851360
 20
1.861640
  0
VERTEX
  8
0
  6
CONTINUOUS
 10
7.854880
 20
1.859880
  0
SEQEND
  8
0
  0
SOLID
  8
0
 62
    15
 10
3.078240
 20
2.587200
 11
3.713160
 21
2.958560
 12
3.078240
 22
2.453880
 13
3.713160
 23
2.825240
  0
POLYLINE
  8
0
  6
CONTINUOUS
 66
     1
 40
0.000000
 41
0.000000
  0
VERTEX
  8
0
  6
CONTINUOUS
 10
3.078240
 20
2.587200
  0
VERTEX
  8
0
  6
CONTINUOUS
 10
3.713160
 20
2.958560
  0
VERTEX
  8
0
  6
CONTINUOUS
 10
3.713160
 20
2.825240
  0
VERTEX
  8
0
  6
CONTINUOUS
 10
3.078240
 20
2.453880
  0
VERTEX
  8
0
  6
CONTINUOUS
 10
3.078240
 20
2.587200
  0
SEQEND
  8
0
  0
SOLID
  8
0
 62
    15
 10
4.056360
 20
1.189320
 11
4.691280
 21
1.560680
 12
4.056360
 22
1.065680
 13
4.691280
 23
1.437480
  0
POLYLINE
  8
0
  6
CONTINUOUS
 66
     1
 40
0.000000
 41
0.000000
  0
VERTEX
  8
0
  6
CONTINUOUS
 10
4.056360
 20
1.189320
  0
VERTEX
  8
0
  6
CONTINUOUS
 10
4.691280
 20
1.560680
  0
VERTEX
  8
0
  6
CONTINUOUS
 10
4.691280
 20
1.437480
  0
VERTEX
  8
0
  6
CONTINUOUS
 10
4.056360
 20
1.065680
  0
VERTEX
  8
0
  6
CONTINUOUS
 10
4.056360
 20
1.189320
  0
SEQEND
  8
0
  0
SOLID
  8
0
 62
    15
 10
3.080000
 20
1.189320
 11
3.714920
 21
1.560680
 12
3.080000
 22
1.065680
 13
3.714920
 23
1.437480
  0
POLYLINE
  8
0
  6
CONTINUOUS
 66
     1
 40
0.000000
 41
0.000000
  0
VERTEX
  8
0
  6
CONTINUOUS
 10
3.080000
 20
1.189320
  0
VERTEX
  8
0
  6
CONTINUOUS
 10
3.714920
 20
1.560680
  0
VERTEX
  8
0
  6
CONTINUOUS
 10
3.714920
 20
1.437480
  0
VERTEX
  8
0
  6
CONTINUOUS
 10
3.080000
 20
1.065680
  0
VERTEX
  8
0
  6
CONTINUOUS
 10
3.080000
 20
1.189320
  0
SEQEND
  8
0
  0
SOLID
  8
0
 62
    15
 10
2.640440
 20
2.587200
 11
3.275360
 21
2.958560
 12
3.078240
 22
2.587200
 13
3.713160
 23
2.958560
  0
POLYLINE
  8
0
  6
CONTINUOUS
 66
     1
 40
0.000000
 41
0.000000
  0
VERTEX
  8
0
  6
CONTINUOUS
 10
2.640440
 20
2.587200
  0
VERTEX
  8
0
  6
CONTINUOUS
 10
3.275360
 20
2.958560
  0
VERTEX
  8
0
  6
CONTINUOUS
 10
3.713160
 20
2.958560
  0
VERTEX
  8
0
  6
CONTINUOUS
 10
3.078240
 20
2.587200
  0
VERTEX
  8
0
  6
CONTINUOUS
 10
2.640440
 20
2.587200
  0
SEQEND
  8
0
  0
SOLID
  8
0
 62
    15
 10
3.078240
 20
2.453880
 11
3.713160
 21
2.825240
 12
3.209800
 22
2.453880
 13
3.844720
 23
2.825240
  0
POLYLINE
  8
0
  6
CONTINUOUS
 66
     1
 40
0.000000
 41
0.000000
  0
VERTEX
  8
0
  6
CONTINUOUS
 10
3.078240
 20
2.453880
  0
VERTEX
  8
0
  6
CONTINUOUS
 10
3.713160
 20
2.825240
  0
VERTEX
  8
0
  6
CONTINUOUS
 10
3.844720
 20
2.825240
  0
VERTEX
  8
0
  6
CONTINUOUS
 10
3.209800
 20
2.453880
  0
VERTEX
  8
0
  6
CONTINUOUS
 10
3.078240
 20
2.453880
  0
SEQEND
  8
0
  0
SOLID
  8
0
 62
    15
 10
3.209800
 20
2.585440
 11
3.844720
 21
2.956800
 12
4.056800
 22
2.585440
 13
4.691720
 23
2.956800
  0
POLYLINE
  8
0
  6
CONTINUOUS
 66
     1
 40
0.000000
 41
0.000000
  0
VERTEX
  8
0
  6
CONTINUOUS
 10
3.209800
 20
2.585440
  0
VERTEX
  8
0
  6
CONTINUOUS
 10
3.844720
 20
2.956800
  0
VERTEX
  8
0
  6
CONTINUOUS
 10
4.691720
 20
2.956800
  0
VERTEX
  8
0
  6
CONTINUOUS
 10
4.056800
 20
2.585440
  0
VERTEX
  8
0
  6
CONTINUOUS
 10
3.209800
 20
2.585440
  0
SEQEND
  8
0
  0
SOLID
  8
0
 62
    15
 10
4.641120
 20
1.248280
 11
5.276040
 21
1.619640
 12
4.641120
 22
1.065680
 13
5.276040
 23
1.437480
  0
POLYLINE
  8
0
  6
CONTINUOUS
 66
     1
 40
0.000000
 41
0.000000
  0
VERTEX
  8
0
  6
CONTINUOUS
 10
4.641120
 20
1.248280
  0
VERTEX
  8
0
  6
CONTINUOUS
 10
5.276040
 20
1.619640
  0
VERTEX
  8
0
  6
CONTINUOUS
 10
5.276040
 20
1.437480
  0
VERTEX
  8
0
  6
CONTINUOUS
 10
4.641120
 20
1.065680
  0
VERTEX
  8
0
  6
CONTINUOUS
 10
4.641120
 20
1.248280
  0
SEQEND
  8
0
  0
SOLID
  8
0
 62
    15
 10
4.056800
 20
2.585440
 11
4.691720
 21
2.956800
 12
4.056800
 22
2.453880
 13
4.691720
 23
2.825240
  0
POLYLINE
  8
0
  6
CONTINUOUS
 66
     1
 40
0.000000
 41
0.000000
  0
VERTEX
  8
0
  6
CONTINUOUS
 10
4.056800
 20
2.585440
  0
VERTEX
  8
0
  6
CONTINUOUS
 10
4.691720
 20
2.956800
  0
VERTEX
  8
0
  6
CONTINUOUS
 10
4.691720
 20
2.825240
  0
VERTEX
  8
0
  6
CONTINUOUS
 10
4.056800
 20
2.453880
  0
VERTEX
  8
0
  6
CONTINUOUS
 10
4.056800
 20
2.585440
  0
SEQEND
  8
0
  0
SOLID
  8
0
 62
    15
 10
4.056800
 20
2.453880
 11
4.691720
 21
2.825240
 12
4.195400
 22
2.453880
 13
4.830320
 23
2.825240
  0
POLYLINE
  8
0
  6
CONTINUOUS
 66
     1
 40
0.000000
 41
0.000000
  0
VERTEX
  8
0
  6
CONTINUOUS
 10
4.056800
 20
2.453880
  0
VERTEX
  8
0
  6
CONTINUOUS
 10
4.691720
 20
2.825240
  0
VERTEX
  8
0
  6
CONTINUOUS
 10
4.830320
 20
2.825240
  0
VERTEX
  8
0
  6
CONTINUOUS
 10
4.195400
 20
2.453880
  0
VERTEX
  8
0
  6
CONTINUOUS
 10
4.056800
 20
2.453880
  0
SEQEND
  8
0
  0
SOLID
  8
0
 62
    15
 10
4.195400
 20
2.585440
 11
4.830320
 21
2.956800
 12
4.641120
 22
2.585440
 13
5.276040
 23
2.956800
  0
POLYLINE
  8
0
  6
CONTINUOUS
 66
     1
 40
0.000000
 41
0.000000
  0
VERTEX
  8
0
  6
CONTINUOUS
 10
4.195400
 20
2.585440
  0
VERTEX
  8
0
  6
CONTINUOUS
 10
4.830320
 20
2.956800
  0
VERTEX
  8
0
  6
CONTINUOUS
 10
5.276040
 20
2.956800
  0
VERTEX
  8
0
  6
CONTINUOUS
 10
4.641120
 20
2.585440
  0
VERTEX
  8
0
  6
CONTINUOUS
 10
4.195400
 20
2.585440
  0
SEQEND
  8
0
  0
SOLID
  8
0
 62
    15
 10
4.641120
 20
2.585440
 11
5.276040
 21
2.956800
 12
4.641120
 22
2.395360
 13
5.276040
 23
2.767160
  0
POLYLINE
  8
0
  6
CONTINUOUS
 66
     1
 40
0.000000
 41
0.000000
  0
VERTEX
  8
0
  6
CONTINUOUS
 10
4.641120
 20
2.585440
  0
VERTEX
  8
0
  6
CONTINUOUS
 10
5.276040
 20
2.956800
  0
VERTEX
  8
0
  6
CONTINUOUS
 10
5.276040
 20
2.767160
  0
VERTEX
  8
0
  6
CONTINUOUS
 10
4.641120
 20
2.395360
  0
VERTEX
  8
0
  6
CONTINUOUS
 10
4.641120
 20
2.585440
  0
SEQEND
  8
0
  0
SOLID
  8
0
 62
    15
 10
4.641120
 20
2.395360
 11
5.276040
 21
2.767160
 12
4.830760
 22
2.395360
 13
5.465680
 23
2.767160
  0
POLYLINE
  8
0
  6
CONTINUOUS
 66
     1
 40
0.000000
 41
0.000000
  0
VERTEX
  8
0
  6
CONTINUOUS
 10
4.641120
 20
2.395360
  0
VERTEX
  8
0
  6
CONTINUOUS
 10
5.276040
 20
2.767160
  0
VERTEX
  8
0
  6
CONTINUOUS
 10
5.465680
 20
2.767160
  0
VERTEX
  8
0
  6
CONTINUOUS
 10
4.830760
 20
2.395360
  0
VERTEX
  8
0
  6
CONTINUOUS
 10
4.641120
 20
2.395360
  0
SEQEND
  8
0
  0
SOLID
  8
0
 62
    15
 10
4.830760
 20
2.395360
 11
5.465680
 21
2.767160
 12
4.830760
 22
1.248280
 13
5.465680
 23
1.619640
  0
POLYLINE
  8
0
  6
CONTINUOUS
 66
     1
 40
0.000000
 41
0.000000
  0
VERTEX
  8
0
  6
CONTINUOUS
 10
4.830760
 20
2.395360
  0
VERTEX
  8
0
  6
CONTINUOUS
 10
5.465680
 20
2.767160
  0
VERTEX
  8
0
  6
CONTINUOUS
 10
5.465680
 20
1.619640
  0
VERTEX
  8
0
  6
CONTINUOUS
 10
4.830760
 20
1.248280
  0
VERTEX
  8
0
  6
CONTINUOUS
 10
4.830760
 20
2.395360
  0
SEQEND
  8
0
  0
POLYLINE
  8
0
  6
CONTINUOUS
 66
     1
 40
0.000000
 41
0.000000
  0
VERTEX
  8
0
  6
CONTINUOUS
 10
4.827240
 20
1.250040
  0
VERTEX
  8
0
  6
CONTINUOUS
 10
4.641120
 20
1.248280
  0
VERTEX
  8
0
  6
CONTINUOUS
 10
4.641120
 20
1.065680
  0
VERTEX
  8
0
  6
CONTINUOUS
 10
4.195840
 20
1.065680
  0
VERTEX
  8
0
  6
CONTINUOUS
 10
4.195840
 20
1.189320
  0
VERTEX
  8
0
  6
CONTINUOUS
 10
4.056360
 20
1.189320
  0
VERTEX
  8
0
  6
CONTINUOUS
 10
4.056360
 20
1.065680
  0
VERTEX
  8
0
  6
CONTINUOUS
 10
3.208920
 20
1.065680
  0
VERTEX
  8
0
  6
CONTINUOUS
 10
3.208920
 20
1.189320
  0
VERTEX
  8
0
  6
CONTINUOUS
 10
3.080000
 20
1.189320
  0
VERTEX
  8
0
  6
CONTINUOUS
 10
3.080000
 20
1.065680
  0
VERTEX
  8
0
  6
CONTINUOUS
 10
2.640440
 20
1.066560
  0
VERTEX
  8
0
  6
CONTINUOUS
 10
2.640440
 20
2.587200
  0
VERTEX
  8
0
  6
CONTINUOUS
 10
3.078240
 20
2.587200
  0
VERTEX
  8
0
  6
CONTINUOUS
 10
3.078240
 20
2.453880
  0
VERTEX
  8
0
  6
CONTINUOUS
 10
3.209800
 20
2.453880
  0
VERTEX
  8
0
  6
CONTINUOUS
 10
3.209800
 20
2.585440
  0
VERTEX
  8
0
  6
CONTINUOUS
 10
4.056800
 20
2.585440
  0
VERTEX
  8
0
  6
CONTINUOUS
 10
4.056800
 20
2.453880
  0
VERTEX
  8
0
  6
CONTINUOUS
 10
4.195400
 20
2.453880
  0
VERTEX
  8
0
  6
CONTINUOUS
 10
4.195400
 20
2.585440
  0
VERTEX
  8
0
  6
CONTINUOUS
 10
4.641120
 20
2.585440
  0
VERTEX
  8
0
  6
CONTINUOUS
 10
4.641120
 20
2.395360
  0
VERTEX
  8
0
  6
CONTINUOUS
 10
4.830760
 20
2.395360
  0
VERTEX
  8
0
  6
CONTINUOUS
 10
4.830760
 20
1.248280
  0
VERTEX
  8
0
  6
CONTINUOUS
 10
4.827240
 20
1.250040
  0
SEQEND
  8
0
  0
TEXT
  8
0
 10
3.703040
 20
0.846560
 40
0.138126
  1
BA  703A
 41
1.000000
  7
SN0
 71
     0
 72
     5
 11
4.403940
 21
0.846560
  0
TEXT
  8
0
 10
3.482600
 20
0.654720
 40
0.138126
  1
1-1/2" x 2-3/16"
 41
1.000000
  7
SN0
 71
     0
 72
     5
 11
4.622737
 21
0.654720
  0
ENDSEC
  0
EOF
