  0
SECTION
  2
HEADER
  9
$ACADVER
  1
AC1006
  9
$EXTMIN
 10
6.030640
 20
0.541200
  9
$EXTMAX
 10
7.709240
 20
2.061400
  9
$LTSCALE
 40
0.044000
  9
$PDMODE
 70
    35
  9
$PDSIZE
 40
0.035200
  0
ENDSEC
  0
SECTION
  2
TABLES
  0
TABLE
  2
LTYPE
 70
     9
  0
LTYPE
  2
CONTINUOUS
 70
    64
  3
Solid line
 72
    65
 73
     0
 40
0.000000
  0
LTYPE
  2
DASHED
 70
    64
  3
__ __ __ __ __ __ __ __ __ __ __ __ __ __ __
 72
    65
 73
     2
 40
0.000330
 49
0.000220
 49
-0.000110
  0
LTYPE
  2
HIDDEN
 70
    64
  3
 _ _ _ _ _ _ _ _ _ _ _ _ _ _ _ _ _ _ _ _ _ _
 72
    65
 73
     2
 40
0.000165
 49
0.000110
 49
-0.000055
  0
LTYPE
  2
CENTER
 70
    64
  3
____ _ ____ _ ____ _ ____ _ ____ _ ____ _ ____
 72
    65
 73
     4
 40
0.000880
 49
0.000550
 49
-0.000110
 49
0.000110
 49
-0.000110
  0
LTYPE
  2
PHANTOM
 70
    64
  3
_____ _ _ _____ _ _ _____ _ _ _____ _ _ ____
 72
    65
 73
     6
 40
0.001100
 49
0.000550
 49
-0.000110
 49
0.000110
 49
-0.000110
 49
0.000110
 49
-0.000110
  0
LTYPE
  2
DOT
 70
    64
  3
...............................................
 72
    65
 73
     2
 40
0.000110
 49
0.000000
 49
-0.000110
  0
LTYPE
  2
DASHDOT
 70
    64
  3
__ . __ . __ . __ . __ . __ . __ . __ . __ . __
 72
    65
 73
     4
 40
0.000440
 49
0.000220
 49
-0.000110
 49
0.000000
 49
-0.000110
  0
LTYPE
  2
BORDER
 70
    64
  3
__ __ . __ __ . __ __ . __ __ . __ __ . __ __
 72
    65
 73
     6
 40
0.000770
 49
0.000220
 49
-0.000110
 49
0.000220
 49
-0.000110
 49
0.000000
 49
-0.000110
  0
LTYPE
  2
DIVIDE
 70
    64
  3
__ . . __ . . __ . . __ . . __ . . __ . . __
 72
    65
 73
     6
 40
0.000550
 49
0.000220
 49
-0.000110
 49
0.000000
 49
-0.000110
 49
0.000000
 49
-0.000110
  0
LTYPE
  2
DOTDOT
 70
    64
  3
 . .  . .  . .  . .  . .  . . 
 72
    65
 73
     5
 40
0.000242
 49
-0.000110
 49
0.000000
 49
-0.000110
 49
0.000000
 49
-0.000110
  0
ENDTAB
  0
TABLE
  2
STYLE
 70
     2
  0
STYLE
 70
     0
  2
SN0
 40
0.000000
 41
0.000440
 50
0.000000
 71
     0
 42
0.000000
  3
ROMAND
  0
STYLE
 70
    68
  2
SV0
 40
0.000000
 41
0.000440
 50
0.000000
 71
     0
 42
0.000000
  3
ROMAND
  0
ENDTAB
  0
TABLE
  2
LAYER
 70
     3
  0
LAYER
  2
FOREGROUND
 70
    64
 62
     7
  6
CONTINUOUS
  0
LAYER
  2
BACKGROUND
 70
    65
 62
    -7
  6
CONTINUOUS
  0
LAYER
  2
0
 70
    64
 62
     7
  6
CONTINUOUS
  0
ENDTAB
  0
ENDSEC
  0
SECTION
  2
ENTITIES
  0
POLYLINE
  8
FOREGROUND
  6
CONTINUOUS
 66
     1
 40
0.000000
 41
0.000000
  0
VERTEX
  8
FOREGROUND
  6
CONTINUOUS
 10
0.000000
 20
2.602600
  0
VERTEX
  8
FOREGROUND
  6
CONTINUOUS
 10
8.499920
 20
2.602600
  0
VERTEX
  8
FOREGROUND
  6
CONTINUOUS
 10
8.499920
 20
-8.397400
  0
VERTEX
  8
FOREGROUND
  6
CONTINUOUS
 10
0.000000
 20
-8.397400
  0
VERTEX
  8
FOREGROUND
  6
CONTINUOUS
 10
0.000000
 20
2.602600
  0
SEQEND
  8
0
  0
POLYLINE
  8
FOREGROUND
  6
CONTINUOUS
 66
     1
 40
0.000000
 41
0.000000
  0
VERTEX
  8
FOREGROUND
  6
CONTINUOUS
 10
0.000000
 20
2.602600
  0
VERTEX
  8
FOREGROUND
  6
CONTINUOUS
 10
8.499920
 20
2.602600
  0
VERTEX
  8
FOREGROUND
  6
CONTINUOUS
 10
8.499920
 20
-8.397400
  0
VERTEX
  8
FOREGROUND
  6
CONTINUOUS
 10
0.000000
 20
-8.397400
  0
VERTEX
  8
FOREGROUND
  6
CONTINUOUS
 10
0.000000
 20
2.602600
  0
SEQEND
  8
0
  0
POLYLINE
  8
0
  6
CONTINUOUS
 66
     1
 40
0.014080
 41
0.014080
  0
VERTEX
  8
0
  6
CONTINUOUS
 10
7.279360
 20
1.935560
  0
VERTEX
  8
0
  6
CONTINUOUS
 10
7.289920
 20
1.954480
  0
VERTEX
  8
0
  6
CONTINUOUS
 10
7.309720
 20
1.976920
  0
VERTEX
  8
0
  6
CONTINUOUS
 10
7.333040
 20
1.992760
  0
VERTEX
  8
0
  6
CONTINUOUS
 10
7.350200
 20
2.000240
  0
VERTEX
  8
0
  6
CONTINUOUS
 10
7.377480
 20
2.005080
  0
VERTEX
  8
0
  6
CONTINUOUS
 10
7.395960
 20
2.005080
  0
VERTEX
  8
0
  6
CONTINUOUS
 10
7.414000
 20
2.002440
  0
VERTEX
  8
0
  6
CONTINUOUS
 10
7.440400
 20
1.993200
  0
VERTEX
  8
0
  6
CONTINUOUS
 10
7.457120
 20
1.983520
  0
VERTEX
  8
0
  6
CONTINUOUS
 10
7.479120
 20
1.963720
  0
VERTEX
  8
0
  6
CONTINUOUS
 10
7.485720
 20
1.956240
  0
VERTEX
  8
0
  6
CONTINUOUS
 10
7.497160
 20
1.938640
  0
VERTEX
  8
0
  6
CONTINUOUS
 10
7.509480
 20
1.907400
  0
VERTEX
  8
0
  6
CONTINUOUS
 10
7.512120
 20
1.895520
  0
VERTEX
  8
0
  6
CONTINUOUS
 10
7.527960
 20
1.893320
  0
VERTEX
  8
0
  6
CONTINUOUS
 10
7.543800
 20
1.887160
  0
VERTEX
  8
0
  6
CONTINUOUS
 10
7.565800
 20
1.871760
  0
VERTEX
  8
0
  6
CONTINUOUS
 10
7.578120
 20
1.859000
  0
VERTEX
  8
0
  6
CONTINUOUS
 10
7.592200
 20
1.836560
  0
VERTEX
  8
0
  6
CONTINUOUS
 10
7.597040
 20
1.821160
  0
VERTEX
  8
0
  6
CONTINUOUS
 10
7.597920
 20
1.806200
  0
VERTEX
  8
0
  6
CONTINUOUS
 10
7.702200
 20
1.797840
  0
VERTEX
  8
0
  6
CONTINUOUS
 10
7.702200
 20
1.686960
  0
VERTEX
  8
0
  6
CONTINUOUS
 10
7.278920
 20
1.686960
  0
VERTEX
  8
0
  6
CONTINUOUS
 10
7.279360
 20
1.935560
  0
SEQEND
  8
0
  0
SOLID
  8
0
 62
    15
 10
6.612760
 20
1.238160
 11
6.607920
 21
1.993200
 12
6.622000
 22
1.217920
 13
6.617160
 23
1.973400
  0
POLYLINE
  8
0
  6
CONTINUOUS
 66
     1
 40
0.000000
 41
0.000000
  0
VERTEX
  8
0
  6
CONTINUOUS
 10
6.612760
 20
1.238160
  0
VERTEX
  8
0
  6
CONTINUOUS
 10
6.607920
 20
1.993200
  0
VERTEX
  8
0
  6
CONTINUOUS
 10
6.617160
 20
1.973400
  0
VERTEX
  8
0
  6
CONTINUOUS
 10
6.622000
 20
1.217920
  0
VERTEX
  8
0
  6
CONTINUOUS
 10
6.612760
 20
1.238160
  0
SEQEND
  8
0
  0
SOLID
  8
0
 62
     7
 10
6.405520
 20
1.254000
 11
6.400680
 21
2.009480
 12
6.418280
 22
1.269840
 13
6.413440
 23
2.025320
  0
POLYLINE
  8
0
  6
CONTINUOUS
 66
     1
 40
0.000000
 41
0.000000
  0
VERTEX
  8
0
  6
CONTINUOUS
 10
6.405520
 20
1.254000
  0
VERTEX
  8
0
  6
CONTINUOUS
 10
6.400680
 20
2.009480
  0
VERTEX
  8
0
  6
CONTINUOUS
 10
6.413440
 20
2.025320
  0
VERTEX
  8
0
  6
CONTINUOUS
 10
6.418280
 20
1.269840
  0
VERTEX
  8
0
  6
CONTINUOUS
 10
6.405520
 20
1.254000
  0
SEQEND
  8
0
  0
SOLID
  8
0
 62
     7
 10
6.418280
 20
1.269840
 11
6.413440
 21
2.025320
 12
6.432800
 22
1.283040
 13
6.427960
 23
2.038080
  0
POLYLINE
  8
0
  6
CONTINUOUS
 66
     1
 40
0.000000
 41
0.000000
  0
VERTEX
  8
0
  6
CONTINUOUS
 10
6.418280
 20
1.269840
  0
VERTEX
  8
0
  6
CONTINUOUS
 10
6.413440
 20
2.025320
  0
VERTEX
  8
0
  6
CONTINUOUS
 10
6.427960
 20
2.038080
  0
VERTEX
  8
0
  6
CONTINUOUS
 10
6.432800
 20
1.283040
  0
VERTEX
  8
0
  6
CONTINUOUS
 10
6.418280
 20
1.269840
  0
SEQEND
  8
0
  0
SOLID
  8
0
 62
     7
 10
6.432800
 20
1.283040
 11
6.427960
 21
2.038080
 12
6.449080
 22
1.292720
 13
6.443800
 23
2.048200
  0
POLYLINE
  8
0
  6
CONTINUOUS
 66
     1
 40
0.000000
 41
0.000000
  0
VERTEX
  8
0
  6
CONTINUOUS
 10
6.432800
 20
1.283040
  0
VERTEX
  8
0
  6
CONTINUOUS
 10
6.427960
 20
2.038080
  0
VERTEX
  8
0
  6
CONTINUOUS
 10
6.443800
 20
2.048200
  0
VERTEX
  8
0
  6
CONTINUOUS
 10
6.449080
 20
1.292720
  0
VERTEX
  8
0
  6
CONTINUOUS
 10
6.432800
 20
1.283040
  0
SEQEND
  8
0
  0
SOLID
  8
0
 62
     7
 10
6.449080
 20
1.292720
 11
6.443800
 21
2.048200
 12
6.466240
 22
1.299760
 13
6.461400
 23
2.055240
  0
POLYLINE
  8
0
  6
CONTINUOUS
 66
     1
 40
0.000000
 41
0.000000
  0
VERTEX
  8
0
  6
CONTINUOUS
 10
6.449080
 20
1.292720
  0
VERTEX
  8
0
  6
CONTINUOUS
 10
6.443800
 20
2.048200
  0
VERTEX
  8
0
  6
CONTINUOUS
 10
6.461400
 20
2.055240
  0
VERTEX
  8
0
  6
CONTINUOUS
 10
6.466240
 20
1.299760
  0
VERTEX
  8
0
  6
CONTINUOUS
 10
6.449080
 20
1.292720
  0
SEQEND
  8
0
  0
SOLID
  8
0
 62
    15
 10
6.466240
 20
1.299760
 11
6.461400
 21
2.055240
 12
6.484280
 22
1.303720
 13
6.479000
 23
2.059200
  0
POLYLINE
  8
0
  6
CONTINUOUS
 66
     1
 40
0.000000
 41
0.000000
  0
VERTEX
  8
0
  6
CONTINUOUS
 10
6.466240
 20
1.299760
  0
VERTEX
  8
0
  6
CONTINUOUS
 10
6.461400
 20
2.055240
  0
VERTEX
  8
0
  6
CONTINUOUS
 10
6.479000
 20
2.059200
  0
VERTEX
  8
0
  6
CONTINUOUS
 10
6.484280
 20
1.303720
  0
VERTEX
  8
0
  6
CONTINUOUS
 10
6.466240
 20
1.299760
  0
SEQEND
  8
0
  0
SOLID
  8
0
 62
    15
 10
6.484280
 20
1.303720
 11
6.479000
 21
2.059200
 12
6.502320
 22
1.305480
 13
6.497480
 23
2.060520
  0
POLYLINE
  8
0
  6
CONTINUOUS
 66
     1
 40
0.000000
 41
0.000000
  0
VERTEX
  8
0
  6
CONTINUOUS
 10
6.484280
 20
1.303720
  0
VERTEX
  8
0
  6
CONTINUOUS
 10
6.479000
 20
2.059200
  0
VERTEX
  8
0
  6
CONTINUOUS
 10
6.497480
 20
2.060520
  0
VERTEX
  8
0
  6
CONTINUOUS
 10
6.502320
 20
1.305480
  0
VERTEX
  8
0
  6
CONTINUOUS
 10
6.484280
 20
1.303720
  0
SEQEND
  8
0
  0
SOLID
  8
0
 62
    15
 10
6.502320
 20
1.305480
 11
6.497480
 21
2.060520
 12
6.520800
 22
1.303720
 13
6.515960
 23
2.059200
  0
POLYLINE
  8
0
  6
CONTINUOUS
 66
     1
 40
0.000000
 41
0.000000
  0
VERTEX
  8
0
  6
CONTINUOUS
 10
6.502320
 20
1.305480
  0
VERTEX
  8
0
  6
CONTINUOUS
 10
6.497480
 20
2.060520
  0
VERTEX
  8
0
  6
CONTINUOUS
 10
6.515960
 20
2.059200
  0
VERTEX
  8
0
  6
CONTINUOUS
 10
6.520800
 20
1.303720
  0
VERTEX
  8
0
  6
CONTINUOUS
 10
6.502320
 20
1.305480
  0
SEQEND
  8
0
  0
SOLID
  8
0
 62
    15
 10
6.520800
 20
1.303720
 11
6.515960
 21
2.059200
 12
6.538840
 22
1.299760
 13
6.534000
 23
2.054800
  0
POLYLINE
  8
0
  6
CONTINUOUS
 66
     1
 40
0.000000
 41
0.000000
  0
VERTEX
  8
0
  6
CONTINUOUS
 10
6.520800
 20
1.303720
  0
VERTEX
  8
0
  6
CONTINUOUS
 10
6.515960
 20
2.059200
  0
VERTEX
  8
0
  6
CONTINUOUS
 10
6.534000
 20
2.054800
  0
VERTEX
  8
0
  6
CONTINUOUS
 10
6.538840
 20
1.299760
  0
VERTEX
  8
0
  6
CONTINUOUS
 10
6.520800
 20
1.303720
  0
SEQEND
  8
0
  0
SOLID
  8
0
 62
    15
 10
6.538840
 20
1.299760
 11
6.534000
 21
2.054800
 12
6.556440
 22
1.292720
 13
6.551600
 23
2.048200
  0
POLYLINE
  8
0
  6
CONTINUOUS
 66
     1
 40
0.000000
 41
0.000000
  0
VERTEX
  8
0
  6
CONTINUOUS
 10
6.538840
 20
1.299760
  0
VERTEX
  8
0
  6
CONTINUOUS
 10
6.534000
 20
2.054800
  0
VERTEX
  8
0
  6
CONTINUOUS
 10
6.551600
 20
2.048200
  0
VERTEX
  8
0
  6
CONTINUOUS
 10
6.556440
 20
1.292720
  0
VERTEX
  8
0
  6
CONTINUOUS
 10
6.538840
 20
1.299760
  0
SEQEND
  8
0
  0
SOLID
  8
0
 62
    15
 10
6.556440
 20
1.292720
 11
6.551600
 21
2.048200
 12
6.573160
 22
1.283040
 13
6.567880
 23
2.038520
  0
POLYLINE
  8
0
  6
CONTINUOUS
 66
     1
 40
0.000000
 41
0.000000
  0
VERTEX
  8
0
  6
CONTINUOUS
 10
6.556440
 20
1.292720
  0
VERTEX
  8
0
  6
CONTINUOUS
 10
6.551600
 20
2.048200
  0
VERTEX
  8
0
  6
CONTINUOUS
 10
6.567880
 20
2.038520
  0
VERTEX
  8
0
  6
CONTINUOUS
 10
6.573160
 20
1.283040
  0
VERTEX
  8
0
  6
CONTINUOUS
 10
6.556440
 20
1.292720
  0
SEQEND
  8
0
  0
SOLID
  8
0
 62
    15
 10
6.573160
 20
1.283040
 11
6.567880
 21
2.038520
 12
6.588120
 22
1.270720
 13
6.583280
 23
2.026200
  0
POLYLINE
  8
0
  6
CONTINUOUS
 66
     1
 40
0.000000
 41
0.000000
  0
VERTEX
  8
0
  6
CONTINUOUS
 10
6.573160
 20
1.283040
  0
VERTEX
  8
0
  6
CONTINUOUS
 10
6.567880
 20
2.038520
  0
VERTEX
  8
0
  6
CONTINUOUS
 10
6.583280
 20
2.026200
  0
VERTEX
  8
0
  6
CONTINUOUS
 10
6.588120
 20
1.270720
  0
VERTEX
  8
0
  6
CONTINUOUS
 10
6.573160
 20
1.283040
  0
SEQEND
  8
0
  0
SOLID
  8
0
 62
    15
 10
6.588120
 20
1.270720
 11
6.583280
 21
2.026200
 12
6.601760
 22
1.255760
 13
6.596480
 23
2.010800
  0
POLYLINE
  8
0
  6
CONTINUOUS
 66
     1
 40
0.000000
 41
0.000000
  0
VERTEX
  8
0
  6
CONTINUOUS
 10
6.588120
 20
1.270720
  0
VERTEX
  8
0
  6
CONTINUOUS
 10
6.583280
 20
2.026200
  0
VERTEX
  8
0
  6
CONTINUOUS
 10
6.596480
 20
2.010800
  0
VERTEX
  8
0
  6
CONTINUOUS
 10
6.601760
 20
1.255760
  0
VERTEX
  8
0
  6
CONTINUOUS
 10
6.588120
 20
1.270720
  0
SEQEND
  8
0
  0
SOLID
  8
0
 62
    15
 10
6.601760
 20
1.255760
 11
6.596480
 21
2.010800
 12
6.612760
 22
1.238160
 13
6.607920
 23
1.993200
  0
POLYLINE
  8
0
  6
CONTINUOUS
 66
     1
 40
0.000000
 41
0.000000
  0
VERTEX
  8
0
  6
CONTINUOUS
 10
6.601760
 20
1.255760
  0
VERTEX
  8
0
  6
CONTINUOUS
 10
6.596480
 20
2.010800
  0
VERTEX
  8
0
  6
CONTINUOUS
 10
6.607920
 20
1.993200
  0
VERTEX
  8
0
  6
CONTINUOUS
 10
6.612760
 20
1.238160
  0
VERTEX
  8
0
  6
CONTINUOUS
 10
6.601760
 20
1.255760
  0
SEQEND
  8
0
  0
SOLID
  8
0
 62
     7
 10
6.394960
 20
1.235520
 11
6.390120
 21
1.991000
 12
6.405520
 22
1.254000
 13
6.400680
 23
2.009480
  0
POLYLINE
  8
0
  6
CONTINUOUS
 66
     1
 40
0.000000
 41
0.000000
  0
VERTEX
  8
0
  6
CONTINUOUS
 10
6.394960
 20
1.235520
  0
VERTEX
  8
0
  6
CONTINUOUS
 10
6.390120
 20
1.991000
  0
VERTEX
  8
0
  6
CONTINUOUS
 10
6.400680
 20
2.009480
  0
VERTEX
  8
0
  6
CONTINUOUS
 10
6.405520
 20
1.254000
  0
VERTEX
  8
0
  6
CONTINUOUS
 10
6.394960
 20
1.235520
  0
SEQEND
  8
0
  0
SOLID
  8
0
 62
    15
 10
6.622000
 20
1.217920
 11
6.617160
 21
1.973400
 12
6.628160
 22
1.195040
 13
6.623320
 23
1.950520
  0
POLYLINE
  8
0
  6
CONTINUOUS
 66
     1
 40
0.000000
 41
0.000000
  0
VERTEX
  8
0
  6
CONTINUOUS
 10
6.622000
 20
1.217920
  0
VERTEX
  8
0
  6
CONTINUOUS
 10
6.617160
 20
1.973400
  0
VERTEX
  8
0
  6
CONTINUOUS
 10
6.623320
 20
1.950520
  0
VERTEX
  8
0
  6
CONTINUOUS
 10
6.628160
 20
1.195040
  0
VERTEX
  8
0
  6
CONTINUOUS
 10
6.622000
 20
1.217920
  0
SEQEND
  8
0
  0
SOLID
  8
0
 62
    15
 10
6.628160
 20
1.195040
 11
6.623320
 21
1.950520
 12
6.644000
 22
1.192840
 13
6.638720
 23
1.948320
  0
POLYLINE
  8
0
  6
CONTINUOUS
 66
     1
 40
0.000000
 41
0.000000
  0
VERTEX
  8
0
  6
CONTINUOUS
 10
6.628160
 20
1.195040
  0
VERTEX
  8
0
  6
CONTINUOUS
 10
6.623320
 20
1.950520
  0
VERTEX
  8
0
  6
CONTINUOUS
 10
6.638720
 20
1.948320
  0
VERTEX
  8
0
  6
CONTINUOUS
 10
6.644000
 20
1.192840
  0
VERTEX
  8
0
  6
CONTINUOUS
 10
6.628160
 20
1.195040
  0
SEQEND
  8
0
  0
SOLID
  8
0
 62
    15
 10
6.644000
 20
1.192840
 11
6.638720
 21
1.948320
 12
6.659400
 22
1.186680
 13
6.654560
 23
1.942160
  0
POLYLINE
  8
0
  6
CONTINUOUS
 66
     1
 40
0.000000
 41
0.000000
  0
VERTEX
  8
0
  6
CONTINUOUS
 10
6.644000
 20
1.192840
  0
VERTEX
  8
0
  6
CONTINUOUS
 10
6.638720
 20
1.948320
  0
VERTEX
  8
0
  6
CONTINUOUS
 10
6.654560
 20
1.942160
  0
VERTEX
  8
0
  6
CONTINUOUS
 10
6.659400
 20
1.186680
  0
VERTEX
  8
0
  6
CONTINUOUS
 10
6.644000
 20
1.192840
  0
SEQEND
  8
0
  0
SOLID
  8
0
 62
    15
 10
6.659400
 20
1.186680
 11
6.654560
 21
1.942160
 12
6.674360
 22
1.177000
 13
6.669520
 23
1.932480
  0
POLYLINE
  8
0
  6
CONTINUOUS
 66
     1
 40
0.000000
 41
0.000000
  0
VERTEX
  8
0
  6
CONTINUOUS
 10
6.659400
 20
1.186680
  0
VERTEX
  8
0
  6
CONTINUOUS
 10
6.654560
 20
1.942160
  0
VERTEX
  8
0
  6
CONTINUOUS
 10
6.669520
 20
1.932480
  0
VERTEX
  8
0
  6
CONTINUOUS
 10
6.674360
 20
1.177000
  0
VERTEX
  8
0
  6
CONTINUOUS
 10
6.659400
 20
1.186680
  0
SEQEND
  8
0
  0
SOLID
  8
0
 62
    15
 10
6.674360
 20
1.177000
 11
6.669520
 21
1.932480
 12
6.688000
 22
1.165120
 13
6.683160
 23
1.920600
  0
POLYLINE
  8
0
  6
CONTINUOUS
 66
     1
 40
0.000000
 41
0.000000
  0
VERTEX
  8
0
  6
CONTINUOUS
 10
6.674360
 20
1.177000
  0
VERTEX
  8
0
  6
CONTINUOUS
 10
6.669520
 20
1.932480
  0
VERTEX
  8
0
  6
CONTINUOUS
 10
6.683160
 20
1.920600
  0
VERTEX
  8
0
  6
CONTINUOUS
 10
6.688000
 20
1.165120
  0
VERTEX
  8
0
  6
CONTINUOUS
 10
6.674360
 20
1.177000
  0
SEQEND
  8
0
  0
SOLID
  8
0
 62
    15
 10
6.688000
 20
1.165120
 11
6.683160
 21
1.920600
 12
6.699440
 22
1.151480
 13
6.694600
 23
1.906960
  0
POLYLINE
  8
0
  6
CONTINUOUS
 66
     1
 40
0.000000
 41
0.000000
  0
VERTEX
  8
0
  6
CONTINUOUS
 10
6.688000
 20
1.165120
  0
VERTEX
  8
0
  6
CONTINUOUS
 10
6.683160
 20
1.920600
  0
VERTEX
  8
0
  6
CONTINUOUS
 10
6.694600
 20
1.906960
  0
VERTEX
  8
0
  6
CONTINUOUS
 10
6.699440
 20
1.151480
  0
VERTEX
  8
0
  6
CONTINUOUS
 10
6.688000
 20
1.165120
  0
SEQEND
  8
0
  0
SOLID
  8
0
 62
    15
 10
6.699440
 20
1.151480
 11
6.694600
 21
1.906960
 12
6.708240
 22
1.136520
 13
6.702960
 23
1.892000
  0
POLYLINE
  8
0
  6
CONTINUOUS
 66
     1
 40
0.000000
 41
0.000000
  0
VERTEX
  8
0
  6
CONTINUOUS
 10
6.699440
 20
1.151480
  0
VERTEX
  8
0
  6
CONTINUOUS
 10
6.694600
 20
1.906960
  0
VERTEX
  8
0
  6
CONTINUOUS
 10
6.702960
 20
1.892000
  0
VERTEX
  8
0
  6
CONTINUOUS
 10
6.708240
 20
1.136520
  0
VERTEX
  8
0
  6
CONTINUOUS
 10
6.699440
 20
1.151480
  0
SEQEND
  8
0
  0
SOLID
  8
0
 62
    15
 10
6.708240
 20
1.136520
 11
6.702960
 21
1.892000
 12
6.713080
 22
1.121120
 13
6.708240
 23
1.876600
  0
POLYLINE
  8
0
  6
CONTINUOUS
 66
     1
 40
0.000000
 41
0.000000
  0
VERTEX
  8
0
  6
CONTINUOUS
 10
6.708240
 20
1.136520
  0
VERTEX
  8
0
  6
CONTINUOUS
 10
6.702960
 20
1.892000
  0
VERTEX
  8
0
  6
CONTINUOUS
 10
6.708240
 20
1.876600
  0
VERTEX
  8
0
  6
CONTINUOUS
 10
6.713080
 20
1.121120
  0
VERTEX
  8
0
  6
CONTINUOUS
 10
6.708240
 20
1.136520
  0
SEQEND
  8
0
  0
SOLID
  8
0
 62
    15
 10
6.713080
 20
1.121120
 11
6.708240
 21
1.876600
 12
6.713960
 22
1.106160
 13
6.708680
 23
1.861640
  0
POLYLINE
  8
0
  6
CONTINUOUS
 66
     1
 40
0.000000
 41
0.000000
  0
VERTEX
  8
0
  6
CONTINUOUS
 10
6.713080
 20
1.121120
  0
VERTEX
  8
0
  6
CONTINUOUS
 10
6.708240
 20
1.876600
  0
VERTEX
  8
0
  6
CONTINUOUS
 10
6.708680
 20
1.861640
  0
VERTEX
  8
0
  6
CONTINUOUS
 10
6.713960
 20
1.106160
  0
VERTEX
  8
0
  6
CONTINUOUS
 10
6.713080
 20
1.121120
  0
SEQEND
  8
0
  0
SOLID
  8
0
 62
    15
 10
6.713960
 20
1.106160
 11
6.708680
 21
1.861640
 12
6.781280
 22
1.100000
 13
6.776440
 23
1.855480
  0
POLYLINE
  8
0
  6
CONTINUOUS
 66
     1
 40
0.000000
 41
0.000000
  0
VERTEX
  8
0
  6
CONTINUOUS
 10
6.713960
 20
1.106160
  0
VERTEX
  8
0
  6
CONTINUOUS
 10
6.708680
 20
1.861640
  0
VERTEX
  8
0
  6
CONTINUOUS
 10
6.776440
 20
1.855480
  0
VERTEX
  8
0
  6
CONTINUOUS
 10
6.781280
 20
1.100000
  0
VERTEX
  8
0
  6
CONTINUOUS
 10
6.713960
 20
1.106160
  0
SEQEND
  8
0
  0
SOLID
  8
0
 62
    15
 10
6.781280
 20
1.100000
 11
6.776440
 21
1.855480
 12
6.817800
 22
1.097360
 13
6.812960
 23
1.852840
  0
POLYLINE
  8
0
  6
CONTINUOUS
 66
     1
 40
0.000000
 41
0.000000
  0
VERTEX
  8
0
  6
CONTINUOUS
 10
6.781280
 20
1.100000
  0
VERTEX
  8
0
  6
CONTINUOUS
 10
6.776440
 20
1.855480
  0
VERTEX
  8
0
  6
CONTINUOUS
 10
6.812960
 20
1.852840
  0
VERTEX
  8
0
  6
CONTINUOUS
 10
6.817800
 20
1.097360
  0
VERTEX
  8
0
  6
CONTINUOUS
 10
6.781280
 20
1.100000
  0
SEQEND
  8
0
  0
SOLID
  8
0
 62
    15
 10
6.394960
 20
0.986920
 11
6.390120
 21
1.742400
 12
6.394960
 22
1.235520
 13
6.390120
 23
1.991000
  0
POLYLINE
  8
0
  6
CONTINUOUS
 66
     1
 40
0.000000
 41
0.000000
  0
VERTEX
  8
0
  6
CONTINUOUS
 10
6.394960
 20
0.986920
  0
VERTEX
  8
0
  6
CONTINUOUS
 10
6.390120
 20
1.742400
  0
VERTEX
  8
0
  6
CONTINUOUS
 10
6.390120
 20
1.991000
  0
VERTEX
  8
0
  6
CONTINUOUS
 10
6.394960
 20
1.235520
  0
VERTEX
  8
0
  6
CONTINUOUS
 10
6.394960
 20
0.986920
  0
SEQEND
  8
0
  0
POLYLINE
  8
0
  6
CONTINUOUS
 66
     1
 40
0.000000
 41
0.000000
  0
VERTEX
  8
0
  6
CONTINUOUS
 10
6.394960
 20
1.235520
  0
VERTEX
  8
0
  6
CONTINUOUS
 10
6.390120
 20
1.991000
  0
VERTEX
  8
0
  6
CONTINUOUS
 10
6.394960
 20
1.235520
  0
SEQEND
  8
0
  0
POLYLINE
  8
0
  6
CONTINUOUS
 66
     1
 40
0.000000
 41
0.000000
  0
VERTEX
  8
0
  6
CONTINUOUS
 10
6.394960
 20
1.235520
  0
VERTEX
  8
0
  6
CONTINUOUS
 10
6.405520
 20
1.254000
  0
VERTEX
  8
0
  6
CONTINUOUS
 10
6.418280
 20
1.269840
  0
VERTEX
  8
0
  6
CONTINUOUS
 10
6.432800
 20
1.283040
  0
VERTEX
  8
0
  6
CONTINUOUS
 10
6.449080
 20
1.292720
  0
VERTEX
  8
0
  6
CONTINUOUS
 10
6.466240
 20
1.299760
  0
VERTEX
  8
0
  6
CONTINUOUS
 10
6.484280
 20
1.303720
  0
VERTEX
  8
0
  6
CONTINUOUS
 10
6.502320
 20
1.305480
  0
VERTEX
  8
0
  6
CONTINUOUS
 10
6.520800
 20
1.303720
  0
VERTEX
  8
0
  6
CONTINUOUS
 10
6.538840
 20
1.299760
  0
VERTEX
  8
0
  6
CONTINUOUS
 10
6.556440
 20
1.292720
  0
VERTEX
  8
0
  6
CONTINUOUS
 10
6.573160
 20
1.283040
  0
VERTEX
  8
0
  6
CONTINUOUS
 10
6.588120
 20
1.270720
  0
VERTEX
  8
0
  6
CONTINUOUS
 10
6.601760
 20
1.255760
  0
VERTEX
  8
0
  6
CONTINUOUS
 10
6.612760
 20
1.238160
  0
VERTEX
  8
0
  6
CONTINUOUS
 10
6.622000
 20
1.217920
  0
VERTEX
  8
0
  6
CONTINUOUS
 10
6.628160
 20
1.195040
  0
VERTEX
  8
0
  6
CONTINUOUS
 10
6.644000
 20
1.192840
  0
VERTEX
  8
0
  6
CONTINUOUS
 10
6.659400
 20
1.186680
  0
VERTEX
  8
0
  6
CONTINUOUS
 10
6.674360
 20
1.177000
  0
VERTEX
  8
0
  6
CONTINUOUS
 10
6.688000
 20
1.165120
  0
VERTEX
  8
0
  6
CONTINUOUS
 10
6.699440
 20
1.151480
  0
VERTEX
  8
0
  6
CONTINUOUS
 10
6.708240
 20
1.136520
  0
VERTEX
  8
0
  6
CONTINUOUS
 10
6.713080
 20
1.121120
  0
VERTEX
  8
0
  6
CONTINUOUS
 10
6.713960
 20
1.106160
  0
VERTEX
  8
0
  6
CONTINUOUS
 10
6.781280
 20
1.100000
  0
VERTEX
  8
0
  6
CONTINUOUS
 10
6.817800
 20
1.097360
  0
VERTEX
  8
0
  6
CONTINUOUS
 10
6.817800
 20
0.986920
  0
VERTEX
  8
0
  6
CONTINUOUS
 10
6.394960
 20
0.986920
  0
VERTEX
  8
0
  6
CONTINUOUS
 10
6.394960
 20
1.235520
  0
SEQEND
  8
0
  0
TEXT
  8
0
 10
6.308720
 20
0.776160
 40
0.138105
  1
BA  702
 41
1.000000
  7
SN0
 71
     0
 72
     5
 11
6.898496
 21
0.776160
  0
TEXT
  8
0
 10
6.134480
 20
0.584760
 40
0.138105
  1
5/16" x 7/16"
 41
1.000000
  7
SN0
 71
     0
 72
     5
 11
7.071307
 21
0.584760
  0
ENDSEC
  0
EOF
