  0
SECTION
  2
HEADER
  9
$ACADVER
  1
AC1006
  9
$EXTMIN
 10
2.203080
 20
0.686840
  9
$EXTMAX
 10
7.346680
 20
6.471520
  9
$LTSCALE
 40
0.044000
  9
$PDMODE
 70
    35
  9
$PDSIZE
 40
0.035200
  0
ENDSEC
  0
SECTION
  2
TABLES
  0
TABLE
  2
LTYPE
 70
     9
  0
LTYPE
  2
CONTINUOUS
 70
    64
  3
Solid line
 72
    65
 73
     0
 40
0.000000
  0
LTYPE
  2
DASHED
 70
    64
  3
__ __ __ __ __ __ __ __ __ __ __ __ __ __ __
 72
    65
 73
     2
 40
0.000330
 49
0.000220
 49
-0.000110
  0
LTYPE
  2
HIDDEN
 70
    64
  3
 _ _ _ _ _ _ _ _ _ _ _ _ _ _ _ _ _ _ _ _ _ _
 72
    65
 73
     2
 40
0.000165
 49
0.000110
 49
-0.000055
  0
LTYPE
  2
CENTER
 70
    64
  3
____ _ ____ _ ____ _ ____ _ ____ _ ____ _ ____
 72
    65
 73
     4
 40
0.000880
 49
0.000550
 49
-0.000110
 49
0.000110
 49
-0.000110
  0
LTYPE
  2
PHANTOM
 70
    64
  3
_____ _ _ _____ _ _ _____ _ _ _____ _ _ ____
 72
    65
 73
     6
 40
0.001100
 49
0.000550
 49
-0.000110
 49
0.000110
 49
-0.000110
 49
0.000110
 49
-0.000110
  0
LTYPE
  2
DOT
 70
    64
  3
...............................................
 72
    65
 73
     2
 40
0.000110
 49
0.000000
 49
-0.000110
  0
LTYPE
  2
DASHDOT
 70
    64
  3
__ . __ . __ . __ . __ . __ . __ . __ . __ . __
 72
    65
 73
     4
 40
0.000440
 49
0.000220
 49
-0.000110
 49
0.000000
 49
-0.000110
  0
LTYPE
  2
BORDER
 70
    64
  3
__ __ . __ __ . __ __ . __ __ . __ __ . __ __
 72
    65
 73
     6
 40
0.000770
 49
0.000220
 49
-0.000110
 49
0.000220
 49
-0.000110
 49
0.000000
 49
-0.000110
  0
LTYPE
  2
DIVIDE
 70
    64
  3
__ . . __ . . __ . . __ . . __ . . __ . . __
 72
    65
 73
     6
 40
0.000550
 49
0.000220
 49
-0.000110
 49
0.000000
 49
-0.000110
 49
0.000000
 49
-0.000110
  0
LTYPE
  2
DOTDOT
 70
    64
  3
 . .  . .  . .  . .  . .  . . 
 72
    65
 73
     5
 40
0.000242
 49
-0.000110
 49
0.000000
 49
-0.000110
 49
0.000000
 49
-0.000110
  0
ENDTAB
  0
TABLE
  2
STYLE
 70
     2
  0
STYLE
 70
     0
  2
SN0
 40
0.000000
 41
0.000440
 50
0.000000
 71
     0
 42
0.000000
  3
ROMAND
  0
STYLE
 70
    68
  2
SV0
 40
0.000000
 41
0.000440
 50
0.000000
 71
     0
 42
0.000000
  3
ROMAND
  0
ENDTAB
  0
TABLE
  2
LAYER
 70
     3
  0
LAYER
  2
FOREGROUND
 70
    64
 62
     7
  6
CONTINUOUS
  0
LAYER
  2
BACKGROUND
 70
    65
 62
    -7
  6
CONTINUOUS
  0
LAYER
  2
0
 70
    64
 62
     7
  6
CONTINUOUS
  0
ENDTAB
  0
ENDSEC
  0
SECTION
  2
ENTITIES
  0
POLYLINE
  8
FOREGROUND
  6
CONTINUOUS
 66
     1
 40
0.000000
 41
0.000000
  0
VERTEX
  8
FOREGROUND
  6
CONTINUOUS
 10
0.000000
 20
7.158360
  0
VERTEX
  8
FOREGROUND
  6
CONTINUOUS
 10
8.499920
 20
7.158360
  0
VERTEX
  8
FOREGROUND
  6
CONTINUOUS
 10
8.499920
 20
-3.841640
  0
VERTEX
  8
FOREGROUND
  6
CONTINUOUS
 10
0.000000
 20
-3.841640
  0
VERTEX
  8
FOREGROUND
  6
CONTINUOUS
 10
0.000000
 20
7.158360
  0
SEQEND
  8
0
  0
POLYLINE
  8
FOREGROUND
  6
CONTINUOUS
 66
     1
 40
0.000000
 41
0.000000
  0
VERTEX
  8
FOREGROUND
  6
CONTINUOUS
 10
0.000000
 20
7.158360
  0
VERTEX
  8
FOREGROUND
  6
CONTINUOUS
 10
8.499920
 20
7.158360
  0
VERTEX
  8
FOREGROUND
  6
CONTINUOUS
 10
8.499920
 20
-3.841640
  0
VERTEX
  8
FOREGROUND
  6
CONTINUOUS
 10
0.000000
 20
-3.841640
  0
VERTEX
  8
FOREGROUND
  6
CONTINUOUS
 10
0.000000
 20
7.158360
  0
SEQEND
  8
0
  0
POLYLINE
  8
0
  6
CONTINUOUS
 66
     1
 40
0.014080
 41
0.014080
  0
VERTEX
  8
0
  6
CONTINUOUS
 10
6.868400
 20
6.151200
  0
VERTEX
  8
0
  6
CONTINUOUS
 10
6.785240
 20
6.211040
  0
VERTEX
  8
0
  6
CONTINUOUS
 10
6.698120
 20
6.264280
  0
VERTEX
  8
0
  6
CONTINUOUS
 10
6.607480
 20
6.311360
  0
VERTEX
  8
0
  6
CONTINUOUS
 10
6.513760
 20
6.351840
  0
VERTEX
  8
0
  6
CONTINUOUS
 10
6.416960
 20
6.386160
  0
VERTEX
  8
0
  6
CONTINUOUS
 10
6.351400
 20
6.405520
  0
VERTEX
  8
0
  6
CONTINUOUS
 10
6.251520
 20
6.429280
  0
VERTEX
  8
0
  6
CONTINUOUS
 10
6.184200
 20
6.441600
  0
VERTEX
  8
0
  6
CONTINUOUS
 10
6.116000
 20
6.451280
  0
VERTEX
  8
0
  6
CONTINUOUS
 10
6.047360
 20
6.458320
  0
VERTEX
  8
0
  6
CONTINUOUS
 10
5.978280
 20
6.462720
  0
VERTEX
  8
0
  6
CONTINUOUS
 10
5.909200
 20
6.464040
  0
VERTEX
  8
0
  6
CONTINUOUS
 10
5.805360
 20
6.461400
  0
VERTEX
  8
0
  6
CONTINUOUS
 10
5.736280
 20
6.456120
  0
VERTEX
  8
0
  6
CONTINUOUS
 10
5.632880
 20
6.443360
  0
VERTEX
  8
0
  6
CONTINUOUS
 10
5.530800
 20
6.424440
  0
VERTEX
  8
0
  6
CONTINUOUS
 10
5.429600
 20
6.399800
  0
VERTEX
  8
0
  6
CONTINUOUS
 10
5.330160
 20
6.369000
  0
VERTEX
  8
0
  6
CONTINUOUS
 10
5.232920
 20
6.332920
  0
VERTEX
  8
0
  6
CONTINUOUS
 10
5.137880
 20
6.290680
  0
VERTEX
  8
0
  6
CONTINUOUS
 10
5.045920
 20
6.242280
  0
VERTEX
  8
0
  6
CONTINUOUS
 10
4.957480
 20
6.188600
  0
VERTEX
  8
0
  6
CONTINUOUS
 10
4.872560
 20
6.129200
  0
VERTEX
  8
0
  6
CONTINUOUS
 10
4.818440
 20
6.086520
  0
VERTEX
  8
0
  6
CONTINUOUS
 10
4.562800
 20
6.431040
  0
VERTEX
  8
0
  6
CONTINUOUS
 10
4.476120
 20
6.365920
  0
VERTEX
  8
0
  6
CONTINUOUS
 10
4.417160
 20
6.325880
  0
VERTEX
  8
0
  6
CONTINUOUS
 10
4.326080
 20
6.270440
  0
VERTEX
  8
0
  6
CONTINUOUS
 10
4.232800
 20
6.221160
  0
VERTEX
  8
0
  6
CONTINUOUS
 10
4.137760
 20
6.177160
  0
VERTEX
  8
0
  6
CONTINUOUS
 10
4.040960
 20
6.139320
  0
VERTEX
  8
0
  6
CONTINUOUS
 10
3.943280
 20
6.107200
  0
VERTEX
  8
0
  6
CONTINUOUS
 10
3.844280
 20
6.080800
  0
VERTEX
  8
0
  6
CONTINUOUS
 10
3.744400
 20
6.060560
  0
VERTEX
  8
0
  6
CONTINUOUS
 10
3.644080
 20
6.046040
  0
VERTEX
  8
0
  6
CONTINUOUS
 10
3.577640
 20
6.039880
  0
VERTEX
  8
0
  6
CONTINUOUS
 10
3.510760
 20
6.035920
  0
VERTEX
  8
0
  6
CONTINUOUS
 10
3.443880
 20
6.035040
  0
VERTEX
  8
0
  6
CONTINUOUS
 10
3.377440
 20
6.036360
  0
VERTEX
  8
0
  6
CONTINUOUS
 10
3.311440
 20
6.040760
  0
VERTEX
  8
0
  6
CONTINUOUS
 10
3.245880
 20
6.047360
  0
VERTEX
  8
0
  6
CONTINUOUS
 10
3.148200
 20
6.062760
  0
VERTEX
  8
0
  6
CONTINUOUS
 10
3.052280
 20
6.084320
  0
VERTEX
  8
0
  6
CONTINUOUS
 10
2.988920
 20
6.101480
  0
VERTEX
  8
0
  6
CONTINUOUS
 10
2.926880
 20
6.121720
  0
VERTEX
  8
0
  6
CONTINUOUS
 10
2.835360
 20
6.157360
  0
VERTEX
  8
0
  6
CONTINUOUS
 10
2.746040
 20
6.198720
  0
VERTEX
  8
0
  6
CONTINUOUS
 10
2.659800
 20
6.246240
  0
VERTEX
  8
0
  6
CONTINUOUS
 10
2.576200
 20
6.299920
  0
VERTEX
  8
0
  6
CONTINUOUS
 10
2.549360
 20
6.319280
  0
VERTEX
  8
0
  6
CONTINUOUS
 10
2.213640
 20
6.112480
  0
VERTEX
  8
0
  6
CONTINUOUS
 10
2.609640
 20
5.522440
  0
VERTEX
  8
0
  6
CONTINUOUS
 10
6.528720
 20
5.522440
  0
VERTEX
  8
0
  6
CONTINUOUS
 10
7.337000
 20
6.052200
  0
VERTEX
  8
0
  6
CONTINUOUS
 10
7.156160
 20
6.335120
  0
VERTEX
  8
0
  6
CONTINUOUS
 10
6.868400
 20
6.151200
  0
SEQEND
  8
0
  0
SOLID
  8
0
 62
    15
 10
5.198160
 20
3.207600
 11
5.850240
 21
2.828760
 12
4.770040
 22
3.185160
 13
5.421680
 23
2.806760
  0
POLYLINE
  8
0
  6
CONTINUOUS
 66
     1
 40
0.000000
 41
0.000000
  0
VERTEX
  8
0
  6
CONTINUOUS
 10
5.198160
 20
3.207600
  0
VERTEX
  8
0
  6
CONTINUOUS
 10
5.850240
 20
2.828760
  0
VERTEX
  8
0
  6
CONTINUOUS
 10
5.421680
 20
2.806760
  0
VERTEX
  8
0
  6
CONTINUOUS
 10
4.770040
 20
3.185160
  0
VERTEX
  8
0
  6
CONTINUOUS
 10
5.198160
 20
3.207600
  0
SEQEND
  8
0
  0
SOLID
  8
0
 62
    15
 10
6.233040
 20
5.340720
 11
6.885120
 21
4.961880
 12
6.219400
 22
4.946480
 13
6.871040
 23
4.567640
  0
POLYLINE
  8
0
  6
CONTINUOUS
 66
     1
 40
0.000000
 41
0.000000
  0
VERTEX
  8
0
  6
CONTINUOUS
 10
6.233040
 20
5.340720
  0
VERTEX
  8
0
  6
CONTINUOUS
 10
6.885120
 20
4.961880
  0
VERTEX
  8
0
  6
CONTINUOUS
 10
6.871040
 20
4.567640
  0
VERTEX
  8
0
  6
CONTINUOUS
 10
6.219400
 20
4.946480
  0
VERTEX
  8
0
  6
CONTINUOUS
 10
6.233040
 20
5.340720
  0
SEQEND
  8
0
  0
SOLID
  8
0
 62
    15
 10
6.219400
 20
4.946480
 11
6.871040
 21
4.567640
 12
5.981800
 22
4.832520
 13
6.633440
 23
4.454120
  0
POLYLINE
  8
0
  6
CONTINUOUS
 66
     1
 40
0.000000
 41
0.000000
  0
VERTEX
  8
0
  6
CONTINUOUS
 10
6.219400
 20
4.946480
  0
VERTEX
  8
0
  6
CONTINUOUS
 10
6.871040
 20
4.567640
  0
VERTEX
  8
0
  6
CONTINUOUS
 10
6.633440
 20
4.454120
  0
VERTEX
  8
0
  6
CONTINUOUS
 10
5.981800
 20
4.832520
  0
VERTEX
  8
0
  6
CONTINUOUS
 10
6.219400
 20
4.946480
  0
SEQEND
  8
0
  0
SOLID
  8
0
 62
    15
 10
5.981800
 20
4.832520
 11
6.633440
 21
4.454120
 12
5.769720
 22
4.679400
 13
6.421800
 23
4.300560
  0
POLYLINE
  8
0
  6
CONTINUOUS
 66
     1
 40
0.000000
 41
0.000000
  0
VERTEX
  8
0
  6
CONTINUOUS
 10
5.981800
 20
4.832520
  0
VERTEX
  8
0
  6
CONTINUOUS
 10
6.633440
 20
4.454120
  0
VERTEX
  8
0
  6
CONTINUOUS
 10
6.421800
 20
4.300560
  0
VERTEX
  8
0
  6
CONTINUOUS
 10
5.769720
 20
4.679400
  0
VERTEX
  8
0
  6
CONTINUOUS
 10
5.981800
 20
4.832520
  0
SEQEND
  8
0
  0
SOLID
  8
0
 62
    15
 10
5.769720
 20
4.679400
 11
6.421800
 21
4.300560
 12
5.586240
 22
4.491520
 13
6.238320
 23
4.112680
  0
POLYLINE
  8
0
  6
CONTINUOUS
 66
     1
 40
0.000000
 41
0.000000
  0
VERTEX
  8
0
  6
CONTINUOUS
 10
5.769720
 20
4.679400
  0
VERTEX
  8
0
  6
CONTINUOUS
 10
6.421800
 20
4.300560
  0
VERTEX
  8
0
  6
CONTINUOUS
 10
6.238320
 20
4.112680
  0
VERTEX
  8
0
  6
CONTINUOUS
 10
5.586240
 20
4.491520
  0
VERTEX
  8
0
  6
CONTINUOUS
 10
5.769720
 20
4.679400
  0
SEQEND
  8
0
  0
SOLID
  8
0
 62
    15
 10
5.586240
 20
4.491520
 11
6.238320
 21
4.112680
 12
5.434440
 22
4.273720
 13
6.086080
 23
3.894880
  0
POLYLINE
  8
0
  6
CONTINUOUS
 66
     1
 40
0.000000
 41
0.000000
  0
VERTEX
  8
0
  6
CONTINUOUS
 10
5.586240
 20
4.491520
  0
VERTEX
  8
0
  6
CONTINUOUS
 10
6.238320
 20
4.112680
  0
VERTEX
  8
0
  6
CONTINUOUS
 10
6.086080
 20
3.894880
  0
VERTEX
  8
0
  6
CONTINUOUS
 10
5.434440
 20
4.273720
  0
VERTEX
  8
0
  6
CONTINUOUS
 10
5.586240
 20
4.491520
  0
SEQEND
  8
0
  0
SOLID
  8
0
 62
    15
 10
5.434440
 20
4.273720
 11
6.086080
 21
3.894880
 12
5.316520
 22
4.031720
 13
5.968600
 23
3.652880
  0
POLYLINE
  8
0
  6
CONTINUOUS
 66
     1
 40
0.000000
 41
0.000000
  0
VERTEX
  8
0
  6
CONTINUOUS
 10
5.434440
 20
4.273720
  0
VERTEX
  8
0
  6
CONTINUOUS
 10
6.086080
 20
3.894880
  0
VERTEX
  8
0
  6
CONTINUOUS
 10
5.968600
 20
3.652880
  0
VERTEX
  8
0
  6
CONTINUOUS
 10
5.316520
 20
4.031720
  0
VERTEX
  8
0
  6
CONTINUOUS
 10
5.434440
 20
4.273720
  0
SEQEND
  8
0
  0
SOLID
  8
0
 62
    15
 10
5.316520
 20
4.031720
 11
5.968600
 21
3.652880
 12
5.236000
 22
3.769920
 13
5.888080
 23
3.391080
  0
POLYLINE
  8
0
  6
CONTINUOUS
 66
     1
 40
0.000000
 41
0.000000
  0
VERTEX
  8
0
  6
CONTINUOUS
 10
5.316520
 20
4.031720
  0
VERTEX
  8
0
  6
CONTINUOUS
 10
5.968600
 20
3.652880
  0
VERTEX
  8
0
  6
CONTINUOUS
 10
5.888080
 20
3.391080
  0
VERTEX
  8
0
  6
CONTINUOUS
 10
5.236000
 20
3.769920
  0
VERTEX
  8
0
  6
CONTINUOUS
 10
5.316520
 20
4.031720
  0
SEQEND
  8
0
  0
SOLID
  8
0
 62
    15
 10
5.236000
 20
3.769920
 11
5.888080
 21
3.391080
 12
5.195520
 22
3.493600
 13
5.847600
 23
3.114760
  0
POLYLINE
  8
0
  6
CONTINUOUS
 66
     1
 40
0.000000
 41
0.000000
  0
VERTEX
  8
0
  6
CONTINUOUS
 10
5.236000
 20
3.769920
  0
VERTEX
  8
0
  6
CONTINUOUS
 10
5.888080
 20
3.391080
  0
VERTEX
  8
0
  6
CONTINUOUS
 10
5.847600
 20
3.114760
  0
VERTEX
  8
0
  6
CONTINUOUS
 10
5.195520
 20
3.493600
  0
VERTEX
  8
0
  6
CONTINUOUS
 10
5.236000
 20
3.769920
  0
SEQEND
  8
0
  0
SOLID
  8
0
 62
    15
 10
5.195520
 20
3.493600
 11
5.847600
 21
3.114760
 12
5.198160
 22
3.207600
 13
5.850240
 23
2.828760
  0
POLYLINE
  8
0
  6
CONTINUOUS
 66
     1
 40
0.000000
 41
0.000000
  0
VERTEX
  8
0
  6
CONTINUOUS
 10
5.195520
 20
3.493600
  0
VERTEX
  8
0
  6
CONTINUOUS
 10
5.847600
 20
3.114760
  0
VERTEX
  8
0
  6
CONTINUOUS
 10
5.850240
 20
2.828760
  0
VERTEX
  8
0
  6
CONTINUOUS
 10
5.198160
 20
3.207600
  0
VERTEX
  8
0
  6
CONTINUOUS
 10
5.195520
 20
3.493600
  0
SEQEND
  8
0
  0
SOLID
  8
0
 62
    15
 10
3.683240
 20
1.100440
 11
4.335320
 21
0.722040
 12
3.347520
 22
1.106600
 13
3.999600
 23
0.727760
  0
POLYLINE
  8
0
  6
CONTINUOUS
 66
     1
 40
0.000000
 41
0.000000
  0
VERTEX
  8
0
  6
CONTINUOUS
 10
3.683240
 20
1.100440
  0
VERTEX
  8
0
  6
CONTINUOUS
 10
4.335320
 20
0.722040
  0
VERTEX
  8
0
  6
CONTINUOUS
 10
3.999600
 20
0.727760
  0
VERTEX
  8
0
  6
CONTINUOUS
 10
3.347520
 20
1.106600
  0
VERTEX
  8
0
  6
CONTINUOUS
 10
3.683240
 20
1.100440
  0
SEQEND
  8
0
  0
SOLID
  8
0
 62
    15
 10
4.770040
 20
3.185160
 11
5.421680
 21
2.806760
 12
4.773560
 22
2.909280
 13
5.425640
 23
2.530880
  0
POLYLINE
  8
0
  6
CONTINUOUS
 66
     1
 40
0.000000
 41
0.000000
  0
VERTEX
  8
0
  6
CONTINUOUS
 10
4.770040
 20
3.185160
  0
VERTEX
  8
0
  6
CONTINUOUS
 10
5.421680
 20
2.806760
  0
VERTEX
  8
0
  6
CONTINUOUS
 10
5.425640
 20
2.530880
  0
VERTEX
  8
0
  6
CONTINUOUS
 10
4.773560
 20
2.909280
  0
VERTEX
  8
0
  6
CONTINUOUS
 10
4.770040
 20
3.185160
  0
SEQEND
  8
0
  0
SOLID
  8
0
 62
    15
 10
4.773560
 20
2.909280
 11
5.425640
 21
2.530880
 12
4.730440
 22
2.636040
 13
5.382520
 23
2.257640
  0
POLYLINE
  8
0
  6
CONTINUOUS
 66
     1
 40
0.000000
 41
0.000000
  0
VERTEX
  8
0
  6
CONTINUOUS
 10
4.773560
 20
2.909280
  0
VERTEX
  8
0
  6
CONTINUOUS
 10
5.425640
 20
2.530880
  0
VERTEX
  8
0
  6
CONTINUOUS
 10
5.382520
 20
2.257640
  0
VERTEX
  8
0
  6
CONTINUOUS
 10
4.730440
 20
2.636040
  0
VERTEX
  8
0
  6
CONTINUOUS
 10
4.773560
 20
2.909280
  0
SEQEND
  8
0
  0
SOLID
  8
0
 62
    15
 10
4.730440
 20
2.636040
 11
5.382520
 21
2.257640
 12
4.644200
 22
2.372920
 13
5.296280
 23
1.994080
  0
POLYLINE
  8
0
  6
CONTINUOUS
 66
     1
 40
0.000000
 41
0.000000
  0
VERTEX
  8
0
  6
CONTINUOUS
 10
4.730440
 20
2.636040
  0
VERTEX
  8
0
  6
CONTINUOUS
 10
5.382520
 20
2.257640
  0
VERTEX
  8
0
  6
CONTINUOUS
 10
5.296280
 20
1.994080
  0
VERTEX
  8
0
  6
CONTINUOUS
 10
4.644200
 20
2.372920
  0
VERTEX
  8
0
  6
CONTINUOUS
 10
4.730440
 20
2.636040
  0
SEQEND
  8
0
  0
SOLID
  8
0
 62
    15
 10
4.644200
 20
2.372920
 11
5.296280
 21
1.994080
 12
4.517920
 22
2.126080
 13
5.170000
 23
1.747240
  0
POLYLINE
  8
0
  6
CONTINUOUS
 66
     1
 40
0.000000
 41
0.000000
  0
VERTEX
  8
0
  6
CONTINUOUS
 10
4.644200
 20
2.372920
  0
VERTEX
  8
0
  6
CONTINUOUS
 10
5.296280
 20
1.994080
  0
VERTEX
  8
0
  6
CONTINUOUS
 10
5.170000
 20
1.747240
  0
VERTEX
  8
0
  6
CONTINUOUS
 10
4.517920
 20
2.126080
  0
VERTEX
  8
0
  6
CONTINUOUS
 10
4.644200
 20
2.372920
  0
SEQEND
  8
0
  0
SOLID
  8
0
 62
    15
 10
4.517920
 20
2.126080
 11
5.170000
 21
1.747240
 12
4.355560
 22
1.902560
 13
5.007640
 23
1.523720
  0
POLYLINE
  8
0
  6
CONTINUOUS
 66
     1
 40
0.000000
 41
0.000000
  0
VERTEX
  8
0
  6
CONTINUOUS
 10
4.517920
 20
2.126080
  0
VERTEX
  8
0
  6
CONTINUOUS
 10
5.170000
 20
1.747240
  0
VERTEX
  8
0
  6
CONTINUOUS
 10
5.007640
 20
1.523720
  0
VERTEX
  8
0
  6
CONTINUOUS
 10
4.355560
 20
1.902560
  0
VERTEX
  8
0
  6
CONTINUOUS
 10
4.517920
 20
2.126080
  0
SEQEND
  8
0
  0
SOLID
  8
0
 62
    15
 10
4.355560
 20
1.902560
 11
5.007640
 21
1.523720
 12
4.161080
 22
1.709400
 13
4.812720
 23
1.331000
  0
POLYLINE
  8
0
  6
CONTINUOUS
 66
     1
 40
0.000000
 41
0.000000
  0
VERTEX
  8
0
  6
CONTINUOUS
 10
4.355560
 20
1.902560
  0
VERTEX
  8
0
  6
CONTINUOUS
 10
5.007640
 20
1.523720
  0
VERTEX
  8
0
  6
CONTINUOUS
 10
4.812720
 20
1.331000
  0
VERTEX
  8
0
  6
CONTINUOUS
 10
4.161080
 20
1.709400
  0
VERTEX
  8
0
  6
CONTINUOUS
 10
4.355560
 20
1.902560
  0
SEQEND
  8
0
  0
SOLID
  8
0
 62
    15
 10
4.161080
 20
1.709400
 11
4.812720
 21
1.331000
 12
3.937560
 22
1.553640
 13
4.589640
 23
1.174800
  0
POLYLINE
  8
0
  6
CONTINUOUS
 66
     1
 40
0.000000
 41
0.000000
  0
VERTEX
  8
0
  6
CONTINUOUS
 10
4.161080
 20
1.709400
  0
VERTEX
  8
0
  6
CONTINUOUS
 10
4.812720
 20
1.331000
  0
VERTEX
  8
0
  6
CONTINUOUS
 10
4.589640
 20
1.174800
  0
VERTEX
  8
0
  6
CONTINUOUS
 10
3.937560
 20
1.553640
  0
VERTEX
  8
0
  6
CONTINUOUS
 10
4.161080
 20
1.709400
  0
SEQEND
  8
0
  0
SOLID
  8
0
 62
    15
 10
3.937560
 20
1.553640
 11
4.589640
 21
1.174800
 12
3.689400
 22
1.441880
 13
4.341040
 23
1.063480
  0
POLYLINE
  8
0
  6
CONTINUOUS
 66
     1
 40
0.000000
 41
0.000000
  0
VERTEX
  8
0
  6
CONTINUOUS
 10
3.937560
 20
1.553640
  0
VERTEX
  8
0
  6
CONTINUOUS
 10
4.589640
 20
1.174800
  0
VERTEX
  8
0
  6
CONTINUOUS
 10
4.341040
 20
1.063480
  0
VERTEX
  8
0
  6
CONTINUOUS
 10
3.689400
 20
1.441880
  0
VERTEX
  8
0
  6
CONTINUOUS
 10
3.937560
 20
1.553640
  0
SEQEND
  8
0
  0
SOLID
  8
0
 62
    15
 10
3.689400
 20
1.441880
 11
4.341040
 21
1.063480
 12
3.683240
 22
1.100440
 13
4.335320
 23
0.722040
  0
POLYLINE
  8
0
  6
CONTINUOUS
 66
     1
 40
0.000000
 41
0.000000
  0
VERTEX
  8
0
  6
CONTINUOUS
 10
3.689400
 20
1.441880
  0
VERTEX
  8
0
  6
CONTINUOUS
 10
4.341040
 20
1.063480
  0
VERTEX
  8
0
  6
CONTINUOUS
 10
4.335320
 20
0.722040
  0
VERTEX
  8
0
  6
CONTINUOUS
 10
3.683240
 20
1.100440
  0
VERTEX
  8
0
  6
CONTINUOUS
 10
3.689400
 20
1.441880
  0
SEQEND
  8
0
  0
POLYLINE
  8
0
  6
CONTINUOUS
 66
     1
 40
0.000000
 41
0.000000
  0
VERTEX
  8
0
  6
CONTINUOUS
 10
3.683240
 20
1.100440
  0
VERTEX
  8
0
  6
CONTINUOUS
 10
3.347520
 20
1.106600
  0
VERTEX
  8
0
  6
CONTINUOUS
 10
3.353240
 20
2.072840
  0
VERTEX
  8
0
  6
CONTINUOUS
 10
5.522000
 20
5.337200
  0
VERTEX
  8
0
  6
CONTINUOUS
 10
6.233040
 20
5.340720
  0
VERTEX
  8
0
  6
CONTINUOUS
 10
6.219400
 20
4.946480
  0
VERTEX
  8
0
  6
CONTINUOUS
 10
5.981800
 20
4.832520
  0
VERTEX
  8
0
  6
CONTINUOUS
 10
5.769720
 20
4.679400
  0
VERTEX
  8
0
  6
CONTINUOUS
 10
5.586240
 20
4.491520
  0
VERTEX
  8
0
  6
CONTINUOUS
 10
5.434440
 20
4.273720
  0
VERTEX
  8
0
  6
CONTINUOUS
 10
5.316520
 20
4.031720
  0
VERTEX
  8
0
  6
CONTINUOUS
 10
5.236000
 20
3.769920
  0
VERTEX
  8
0
  6
CONTINUOUS
 10
5.195520
 20
3.493600
  0
VERTEX
  8
0
  6
CONTINUOUS
 10
5.198160
 20
3.207600
  0
VERTEX
  8
0
  6
CONTINUOUS
 10
4.770040
 20
3.185160
  0
VERTEX
  8
0
  6
CONTINUOUS
 10
4.773560
 20
2.909280
  0
VERTEX
  8
0
  6
CONTINUOUS
 10
4.730440
 20
2.636040
  0
VERTEX
  8
0
  6
CONTINUOUS
 10
4.644200
 20
2.372920
  0
VERTEX
  8
0
  6
CONTINUOUS
 10
4.517920
 20
2.126080
  0
VERTEX
  8
0
  6
CONTINUOUS
 10
4.355560
 20
1.902560
  0
VERTEX
  8
0
  6
CONTINUOUS
 10
4.161080
 20
1.709400
  0
VERTEX
  8
0
  6
CONTINUOUS
 10
3.937560
 20
1.553640
  0
VERTEX
  8
0
  6
CONTINUOUS
 10
3.689400
 20
1.441880
  0
VERTEX
  8
0
  6
CONTINUOUS
 10
3.683240
 20
1.100440
  0
SEQEND
  8
0
  0
TEXT
  8
0
 10
5.241280
 20
0.921800
 40
0.138138
  1
BA  696
 41
1.000000
  7
SN0
 71
     0
 72
     5
 11
5.831896
 21
0.921800
  0
TEXT
  8
0
 10
4.993120
 20
0.729960
 40
0.138138
  1
15/16" x 5-1/8"
 41
1.000000
  7
SN0
 71
     0
 72
     5
 11
6.078615
 21
0.729960
  0
ENDSEC
  0
EOF
