  0
SECTION
  2
HEADER
  9
$ACADVER
  1
AC1006
  9
$EXTMIN
 10
1.609520
 20
0.574640
  9
$EXTMAX
 10
7.713640
 20
3.706120
  9
$LTSCALE
 40
0.044000
  9
$PDMODE
 70
    35
  9
$PDSIZE
 40
0.035200
  0
ENDSEC
  0
SECTION
  2
TABLES
  0
TABLE
  2
LTYPE
 70
     9
  0
LTYPE
  2
CONTINUOUS
 70
    64
  3
Solid line
 72
    65
 73
     0
 40
0.000000
  0
LTYPE
  2
DASHED
 70
    64
  3
__ __ __ __ __ __ __ __ __ __ __ __ __ __ __
 72
    65
 73
     2
 40
0.000330
 49
0.000220
 49
-0.000110
  0
LTYPE
  2
HIDDEN
 70
    64
  3
 _ _ _ _ _ _ _ _ _ _ _ _ _ _ _ _ _ _ _ _ _ _
 72
    65
 73
     2
 40
0.000165
 49
0.000110
 49
-0.000055
  0
LTYPE
  2
CENTER
 70
    64
  3
____ _ ____ _ ____ _ ____ _ ____ _ ____ _ ____
 72
    65
 73
     4
 40
0.000880
 49
0.000550
 49
-0.000110
 49
0.000110
 49
-0.000110
  0
LTYPE
  2
PHANTOM
 70
    64
  3
_____ _ _ _____ _ _ _____ _ _ _____ _ _ ____
 72
    65
 73
     6
 40
0.001100
 49
0.000550
 49
-0.000110
 49
0.000110
 49
-0.000110
 49
0.000110
 49
-0.000110
  0
LTYPE
  2
DOT
 70
    64
  3
...............................................
 72
    65
 73
     2
 40
0.000110
 49
0.000000
 49
-0.000110
  0
LTYPE
  2
DASHDOT
 70
    64
  3
__ . __ . __ . __ . __ . __ . __ . __ . __ . __
 72
    65
 73
     4
 40
0.000440
 49
0.000220
 49
-0.000110
 49
0.000000
 49
-0.000110
  0
LTYPE
  2
BORDER
 70
    64
  3
__ __ . __ __ . __ __ . __ __ . __ __ . __ __
 72
    65
 73
     6
 40
0.000770
 49
0.000220
 49
-0.000110
 49
0.000220
 49
-0.000110
 49
0.000000
 49
-0.000110
  0
LTYPE
  2
DIVIDE
 70
    64
  3
__ . . __ . . __ . . __ . . __ . . __ . . __
 72
    65
 73
     6
 40
0.000550
 49
0.000220
 49
-0.000110
 49
0.000000
 49
-0.000110
 49
0.000000
 49
-0.000110
  0
LTYPE
  2
DOTDOT
 70
    64
  3
 . .  . .  . .  . .  . .  . . 
 72
    65
 73
     5
 40
0.000242
 49
-0.000110
 49
0.000000
 49
-0.000110
 49
0.000000
 49
-0.000110
  0
ENDTAB
  0
TABLE
  2
STYLE
 70
     2
  0
STYLE
 70
     0
  2
SN0
 40
0.000000
 41
0.000440
 50
0.000000
 71
     0
 42
0.000000
  3
ROMAND
  0
STYLE
 70
    68
  2
SV0
 40
0.000000
 41
0.000440
 50
0.000000
 71
     0
 42
0.000000
  3
ROMAND
  0
ENDTAB
  0
TABLE
  2
LAYER
 70
     3
  0
LAYER
  2
FOREGROUND
 70
    64
 62
     7
  6
CONTINUOUS
  0
LAYER
  2
BACKGROUND
 70
    65
 62
    -7
  6
CONTINUOUS
  0
LAYER
  2
0
 70
    64
 62
     7
  6
CONTINUOUS
  0
ENDTAB
  0
ENDSEC
  0
SECTION
  2
ENTITIES
  0
POLYLINE
  8
FOREGROUND
  6
CONTINUOUS
 66
     1
 40
0.000000
 41
0.000000
  0
VERTEX
  8
FOREGROUND
  6
CONTINUOUS
 10
0.000000
 20
4.280760
  0
VERTEX
  8
FOREGROUND
  6
CONTINUOUS
 10
8.499920
 20
4.280760
  0
VERTEX
  8
FOREGROUND
  6
CONTINUOUS
 10
8.499920
 20
-6.719240
  0
VERTEX
  8
FOREGROUND
  6
CONTINUOUS
 10
0.000000
 20
-6.719240
  0
VERTEX
  8
FOREGROUND
  6
CONTINUOUS
 10
0.000000
 20
4.280760
  0
SEQEND
  8
0
  0
POLYLINE
  8
FOREGROUND
  6
CONTINUOUS
 66
     1
 40
0.000000
 41
0.000000
  0
VERTEX
  8
FOREGROUND
  6
CONTINUOUS
 10
0.000000
 20
4.280760
  0
VERTEX
  8
FOREGROUND
  6
CONTINUOUS
 10
8.499920
 20
4.280760
  0
VERTEX
  8
FOREGROUND
  6
CONTINUOUS
 10
8.499920
 20
-6.719240
  0
VERTEX
  8
FOREGROUND
  6
CONTINUOUS
 10
0.000000
 20
-6.719240
  0
VERTEX
  8
FOREGROUND
  6
CONTINUOUS
 10
0.000000
 20
4.280760
  0
SEQEND
  8
0
  0
POLYLINE
  8
0
  6
CONTINUOUS
 66
     1
 40
0.014080
 41
0.014080
  0
VERTEX
  8
0
  6
CONTINUOUS
 10
7.181240
 20
3.545520
  0
VERTEX
  8
0
  6
CONTINUOUS
 10
7.181240
 20
3.399000
  0
VERTEX
  8
0
  6
CONTINUOUS
 10
7.216880
 20
3.385800
  0
VERTEX
  8
0
  6
CONTINUOUS
 10
7.234480
 20
3.378320
  0
VERTEX
  8
0
  6
CONTINUOUS
 10
7.252520
 20
3.369960
  0
VERTEX
  8
0
  6
CONTINUOUS
 10
7.271000
 20
3.361160
  0
VERTEX
  8
0
  6
CONTINUOUS
 10
7.289040
 20
3.351920
  0
VERTEX
  8
0
  6
CONTINUOUS
 10
7.307080
 20
3.341360
  0
VERTEX
  8
0
  6
CONTINUOUS
 10
7.325120
 20
3.330360
  0
VERTEX
  8
0
  6
CONTINUOUS
 10
7.342720
 20
3.318480
  0
VERTEX
  8
0
  6
CONTINUOUS
 10
7.360320
 20
3.305720
  0
VERTEX
  8
0
  6
CONTINUOUS
 10
7.377920
 20
3.292080
  0
VERTEX
  8
0
  6
CONTINUOUS
 10
7.395080
 20
3.277120
  0
VERTEX
  8
0
  6
CONTINUOUS
 10
7.411800
 20
3.261280
  0
VERTEX
  8
0
  6
CONTINUOUS
 10
7.428080
 20
3.244560
  0
VERTEX
  8
0
  6
CONTINUOUS
 10
7.443920
 20
3.226520
  0
VERTEX
  8
0
  6
CONTINUOUS
 10
7.458880
 20
3.207160
  0
VERTEX
  8
0
  6
CONTINUOUS
 10
7.473840
 20
3.186480
  0
VERTEX
  8
0
  6
CONTINUOUS
 10
7.487920
 20
3.164920
  0
VERTEX
  8
0
  6
CONTINUOUS
 10
7.501560
 20
3.142040
  0
VERTEX
  8
0
  6
CONTINUOUS
 10
7.514320
 20
3.117400
  0
VERTEX
  8
0
  6
CONTINUOUS
 10
7.526200
 20
3.091440
  0
VERTEX
  8
0
  6
CONTINUOUS
 10
7.537200
 20
3.064160
  0
VERTEX
  8
0
  6
CONTINUOUS
 10
7.547760
 20
3.035560
  0
VERTEX
  8
0
  6
CONTINUOUS
 10
7.557000
 20
3.005200
  0
VERTEX
  8
0
  6
CONTINUOUS
 10
7.565360
 20
2.973080
  0
VERTEX
  8
0
  6
CONTINUOUS
 10
7.572840
 20
2.939640
  0
VERTEX
  8
0
  6
CONTINUOUS
 10
7.579000
 20
2.904440
  0
VERTEX
  8
0
  6
CONTINUOUS
 10
7.584280
 20
2.867040
  0
VERTEX
  8
0
  6
CONTINUOUS
 10
7.588240
 20
2.828320
  0
VERTEX
  8
0
  6
CONTINUOUS
 10
7.590880
 20
2.787840
  0
VERTEX
  8
0
  6
CONTINUOUS
 10
7.592640
 20
2.745160
  0
VERTEX
  8
0
  6
CONTINUOUS
 10
7.592640
 20
2.700720
  0
VERTEX
  8
0
  6
CONTINUOUS
 10
7.706160
 20
2.700720
  0
VERTEX
  8
0
  6
CONTINUOUS
 10
7.706160
 20
2.425720
  0
VERTEX
  8
0
  6
CONTINUOUS
 10
7.184320
 20
2.425720
  0
VERTEX
  8
0
  6
CONTINUOUS
 10
7.184320
 20
1.297560
  0
VERTEX
  8
0
  6
CONTINUOUS
 10
5.155920
 20
1.297560
  0
VERTEX
  8
0
  6
CONTINUOUS
 10
5.155920
 20
3.547280
  0
VERTEX
  8
0
  6
CONTINUOUS
 10
7.181240
 20
3.547280
  0
VERTEX
  8
0
  6
CONTINUOUS
 10
7.181240
 20
3.545520
  0
SEQEND
  8
0
  0
SOLID
  8
0
 62
    15
 10
4.011040
 20
2.798400
 11
4.656960
 21
3.163600
 12
4.038320
 22
2.660240
 13
4.683800
 23
3.025440
  0
POLYLINE
  8
0
  6
CONTINUOUS
 66
     1
 40
0.000000
 41
0.000000
  0
VERTEX
  8
0
  6
CONTINUOUS
 10
4.011040
 20
2.798400
  0
VERTEX
  8
0
  6
CONTINUOUS
 10
4.656960
 20
3.163600
  0
VERTEX
  8
0
  6
CONTINUOUS
 10
4.683800
 20
3.025440
  0
VERTEX
  8
0
  6
CONTINUOUS
 10
4.038320
 20
2.660240
  0
VERTEX
  8
0
  6
CONTINUOUS
 10
4.011040
 20
2.798400
  0
SEQEND
  8
0
  0
SOLID
  8
0
 62
    15
 10
3.635720
 20
3.192200
 11
4.281200
 21
3.557400
 12
3.779160
 22
3.123560
 13
4.425080
 23
3.488760
  0
POLYLINE
  8
0
  6
CONTINUOUS
 66
     1
 40
0.000000
 41
0.000000
  0
VERTEX
  8
0
  6
CONTINUOUS
 10
3.635720
 20
3.192200
  0
VERTEX
  8
0
  6
CONTINUOUS
 10
4.281200
 20
3.557400
  0
VERTEX
  8
0
  6
CONTINUOUS
 10
4.425080
 20
3.488760
  0
VERTEX
  8
0
  6
CONTINUOUS
 10
3.779160
 20
3.123560
  0
VERTEX
  8
0
  6
CONTINUOUS
 10
3.635720
 20
3.192200
  0
SEQEND
  8
0
  0
SOLID
  8
0
 62
    15
 10
3.779160
 20
3.123560
 11
4.425080
 21
3.488760
 12
3.849120
 22
3.070320
 13
4.494600
 23
3.435520
  0
POLYLINE
  8
0
  6
CONTINUOUS
 66
     1
 40
0.000000
 41
0.000000
  0
VERTEX
  8
0
  6
CONTINUOUS
 10
3.779160
 20
3.123560
  0
VERTEX
  8
0
  6
CONTINUOUS
 10
4.425080
 20
3.488760
  0
VERTEX
  8
0
  6
CONTINUOUS
 10
4.494600
 20
3.435520
  0
VERTEX
  8
0
  6
CONTINUOUS
 10
3.849120
 20
3.070320
  0
VERTEX
  8
0
  6
CONTINUOUS
 10
3.779160
 20
3.123560
  0
SEQEND
  8
0
  0
SOLID
  8
0
 62
    15
 10
3.849120
 20
3.070320
 11
4.494600
 21
3.435520
 12
3.913360
 22
3.000360
 13
4.558840
 23
3.365560
  0
POLYLINE
  8
0
  6
CONTINUOUS
 66
     1
 40
0.000000
 41
0.000000
  0
VERTEX
  8
0
  6
CONTINUOUS
 10
3.849120
 20
3.070320
  0
VERTEX
  8
0
  6
CONTINUOUS
 10
4.494600
 20
3.435520
  0
VERTEX
  8
0
  6
CONTINUOUS
 10
4.558840
 20
3.365560
  0
VERTEX
  8
0
  6
CONTINUOUS
 10
3.913360
 20
3.000360
  0
VERTEX
  8
0
  6
CONTINUOUS
 10
3.849120
 20
3.070320
  0
SEQEND
  8
0
  0
SOLID
  8
0
 62
    15
 10
3.913360
 20
3.000360
 11
4.558840
 21
3.365560
 12
3.968360
 22
2.910600
 13
4.613840
 23
3.275800
  0
POLYLINE
  8
0
  6
CONTINUOUS
 66
     1
 40
0.000000
 41
0.000000
  0
VERTEX
  8
0
  6
CONTINUOUS
 10
3.913360
 20
3.000360
  0
VERTEX
  8
0
  6
CONTINUOUS
 10
4.558840
 20
3.365560
  0
VERTEX
  8
0
  6
CONTINUOUS
 10
4.613840
 20
3.275800
  0
VERTEX
  8
0
  6
CONTINUOUS
 10
3.968360
 20
2.910600
  0
VERTEX
  8
0
  6
CONTINUOUS
 10
3.913360
 20
3.000360
  0
SEQEND
  8
0
  0
SOLID
  8
0
 62
    15
 10
3.968360
 20
2.910600
 11
4.613840
 21
3.275800
 12
4.011040
 22
2.798400
 13
4.656960
 23
3.163600
  0
POLYLINE
  8
0
  6
CONTINUOUS
 66
     1
 40
0.000000
 41
0.000000
  0
VERTEX
  8
0
  6
CONTINUOUS
 10
3.968360
 20
2.910600
  0
VERTEX
  8
0
  6
CONTINUOUS
 10
4.613840
 20
3.275800
  0
VERTEX
  8
0
  6
CONTINUOUS
 10
4.656960
 20
3.163600
  0
VERTEX
  8
0
  6
CONTINUOUS
 10
4.011040
 20
2.798400
  0
VERTEX
  8
0
  6
CONTINUOUS
 10
3.968360
 20
2.910600
  0
SEQEND
  8
0
  0
SOLID
  8
0
 62
    15
 10
3.635720
 20
3.339160
 11
4.281200
 21
3.703920
 12
3.635720
 22
3.192200
 13
4.281200
 23
3.557400
  0
POLYLINE
  8
0
  6
CONTINUOUS
 66
     1
 40
0.000000
 41
0.000000
  0
VERTEX
  8
0
  6
CONTINUOUS
 10
3.635720
 20
3.339160
  0
VERTEX
  8
0
  6
CONTINUOUS
 10
4.281200
 20
3.703920
  0
VERTEX
  8
0
  6
CONTINUOUS
 10
4.281200
 20
3.557400
  0
VERTEX
  8
0
  6
CONTINUOUS
 10
3.635720
 20
3.192200
  0
VERTEX
  8
0
  6
CONTINUOUS
 10
3.635720
 20
3.339160
  0
SEQEND
  8
0
  0
SOLID
  8
0
 62
    15
 10
4.038320
 20
2.660240
 11
4.683800
 21
3.025440
 12
4.046680
 22
2.493920
 13
4.692600
 23
2.859120
  0
POLYLINE
  8
0
  6
CONTINUOUS
 66
     1
 40
0.000000
 41
0.000000
  0
VERTEX
  8
0
  6
CONTINUOUS
 10
4.038320
 20
2.660240
  0
VERTEX
  8
0
  6
CONTINUOUS
 10
4.683800
 20
3.025440
  0
VERTEX
  8
0
  6
CONTINUOUS
 10
4.692600
 20
2.859120
  0
VERTEX
  8
0
  6
CONTINUOUS
 10
4.046680
 20
2.493920
  0
VERTEX
  8
0
  6
CONTINUOUS
 10
4.038320
 20
2.660240
  0
SEQEND
  8
0
  0
SOLID
  8
0
 62
    15
 10
3.638360
 20
2.219360
 11
4.283840
 21
2.584120
 12
3.638360
 22
1.090760
 13
4.283840
 23
1.455960
  0
POLYLINE
  8
0
  6
CONTINUOUS
 66
     1
 40
0.000000
 41
0.000000
  0
VERTEX
  8
0
  6
CONTINUOUS
 10
3.638360
 20
2.219360
  0
VERTEX
  8
0
  6
CONTINUOUS
 10
4.283840
 20
2.584120
  0
VERTEX
  8
0
  6
CONTINUOUS
 10
4.283840
 20
1.455960
  0
VERTEX
  8
0
  6
CONTINUOUS
 10
3.638360
 20
1.090760
  0
VERTEX
  8
0
  6
CONTINUOUS
 10
3.638360
 20
2.219360
  0
SEQEND
  8
0
  0
SOLID
  8
0
 62
    15
 10
4.160640
 20
2.493920
 11
4.806120
 21
2.859120
 12
4.160640
 22
2.219360
 13
4.806120
 23
2.584120
  0
POLYLINE
  8
0
  6
CONTINUOUS
 66
     1
 40
0.000000
 41
0.000000
  0
VERTEX
  8
0
  6
CONTINUOUS
 10
4.160640
 20
2.493920
  0
VERTEX
  8
0
  6
CONTINUOUS
 10
4.806120
 20
2.859120
  0
VERTEX
  8
0
  6
CONTINUOUS
 10
4.806120
 20
2.584120
  0
VERTEX
  8
0
  6
CONTINUOUS
 10
4.160640
 20
2.219360
  0
VERTEX
  8
0
  6
CONTINUOUS
 10
4.160640
 20
2.493920
  0
SEQEND
  8
0
  0
SOLID
  8
0
 62
    15
 10
4.046680
 20
2.493920
 11
4.692600
 21
2.859120
 12
4.160640
 22
2.493920
 13
4.806120
 23
2.859120
  0
POLYLINE
  8
0
  6
CONTINUOUS
 66
     1
 40
0.000000
 41
0.000000
  0
VERTEX
  8
0
  6
CONTINUOUS
 10
4.046680
 20
2.493920
  0
VERTEX
  8
0
  6
CONTINUOUS
 10
4.692600
 20
2.859120
  0
VERTEX
  8
0
  6
CONTINUOUS
 10
4.806120
 20
2.859120
  0
VERTEX
  8
0
  6
CONTINUOUS
 10
4.160640
 20
2.493920
  0
VERTEX
  8
0
  6
CONTINUOUS
 10
4.046680
 20
2.493920
  0
SEQEND
  8
0
  0
SOLID
  8
0
 62
    15
 10
1.609960
 20
3.340480
 11
2.255880
 21
3.705680
 12
3.635720
 22
3.340480
 13
4.281200
 23
3.705680
  0
POLYLINE
  8
0
  6
CONTINUOUS
 66
     1
 40
0.000000
 41
0.000000
  0
VERTEX
  8
0
  6
CONTINUOUS
 10
1.609960
 20
3.340480
  0
VERTEX
  8
0
  6
CONTINUOUS
 10
2.255880
 20
3.705680
  0
VERTEX
  8
0
  6
CONTINUOUS
 10
4.281200
 20
3.705680
  0
VERTEX
  8
0
  6
CONTINUOUS
 10
3.635720
 20
3.340480
  0
VERTEX
  8
0
  6
CONTINUOUS
 10
1.609960
 20
3.340480
  0
SEQEND
  8
0
  0
SOLID
  8
0
 62
    15
 10
3.635720
 20
3.340480
 11
4.281200
 21
3.705680
 12
3.635720
 22
3.339160
 13
4.281200
 23
3.703920
  0
POLYLINE
  8
0
  6
CONTINUOUS
 66
     1
 40
0.000000
 41
0.000000
  0
VERTEX
  8
0
  6
CONTINUOUS
 10
3.635720
 20
3.340480
  0
VERTEX
  8
0
  6
CONTINUOUS
 10
4.281200
 20
3.705680
  0
VERTEX
  8
0
  6
CONTINUOUS
 10
4.281200
 20
3.703920
  0
VERTEX
  8
0
  6
CONTINUOUS
 10
3.635720
 20
3.339160
  0
VERTEX
  8
0
  6
CONTINUOUS
 10
3.635720
 20
3.340480
  0
SEQEND
  8
0
  0
POLYLINE
  8
0
  6
CONTINUOUS
 66
     1
 40
0.000000
 41
0.000000
  0
VERTEX
  8
0
  6
CONTINUOUS
 10
3.635720
 20
3.339160
  0
VERTEX
  8
0
  6
CONTINUOUS
 10
3.635720
 20
3.192200
  0
VERTEX
  8
0
  6
CONTINUOUS
 10
3.779160
 20
3.123560
  0
VERTEX
  8
0
  6
CONTINUOUS
 10
3.849120
 20
3.070320
  0
VERTEX
  8
0
  6
CONTINUOUS
 10
3.913360
 20
3.000360
  0
VERTEX
  8
0
  6
CONTINUOUS
 10
3.968360
 20
2.910600
  0
VERTEX
  8
0
  6
CONTINUOUS
 10
4.011040
 20
2.798400
  0
VERTEX
  8
0
  6
CONTINUOUS
 10
4.038320
 20
2.660240
  0
VERTEX
  8
0
  6
CONTINUOUS
 10
4.046680
 20
2.493920
  0
VERTEX
  8
0
  6
CONTINUOUS
 10
4.160640
 20
2.493920
  0
VERTEX
  8
0
  6
CONTINUOUS
 10
4.160640
 20
2.219360
  0
VERTEX
  8
0
  6
CONTINUOUS
 10
3.638360
 20
2.219360
  0
VERTEX
  8
0
  6
CONTINUOUS
 10
3.638360
 20
1.090760
  0
VERTEX
  8
0
  6
CONTINUOUS
 10
1.609960
 20
1.090760
  0
VERTEX
  8
0
  6
CONTINUOUS
 10
1.609960
 20
3.340480
  0
VERTEX
  8
0
  6
CONTINUOUS
 10
3.635720
 20
3.340480
  0
VERTEX
  8
0
  6
CONTINUOUS
 10
3.635720
 20
3.339160
  0
SEQEND
  8
0
  0
TEXT
  8
0
 10
2.911920
 20
0.810480
 40
0.137933
  1
BA  695
 41
1.000000
  7
SN0
 71
     0
 72
     5
 11
3.501883
 21
0.810480
  0
TEXT
  8
0
 10
2.682240
 20
0.619080
 40
0.137933
  1
2-1/4" x 2-1/2"
 41
1.000000
  7
SN0
 71
     0
 72
     5
 11
3.728791
 21
0.619080
  0
ENDSEC
  0
EOF
