  0
SECTION
  2
HEADER
  9
$ACADVER
  1
AC1006
  9
$EXTMIN
 10
3.481720
 20
0.370040
  9
$EXTMAX
 10
7.952120
 20
3.529680
  9
$LTSCALE
 40
0.044000
  9
$PDMODE
 70
    35
  9
$PDSIZE
 40
0.035200
  0
ENDSEC
  0
SECTION
  2
TABLES
  0
TABLE
  2
LTYPE
 70
     9
  0
LTYPE
  2
CONTINUOUS
 70
    64
  3
Solid line
 72
    65
 73
     0
 40
0.000000
  0
LTYPE
  2
DASHED
 70
    64
  3
__ __ __ __ __ __ __ __ __ __ __ __ __ __ __
 72
    65
 73
     2
 40
0.000330
 49
0.000220
 49
-0.000110
  0
LTYPE
  2
HIDDEN
 70
    64
  3
 _ _ _ _ _ _ _ _ _ _ _ _ _ _ _ _ _ _ _ _ _ _
 72
    65
 73
     2
 40
0.000165
 49
0.000110
 49
-0.000055
  0
LTYPE
  2
CENTER
 70
    64
  3
____ _ ____ _ ____ _ ____ _ ____ _ ____ _ ____
 72
    65
 73
     4
 40
0.000880
 49
0.000550
 49
-0.000110
 49
0.000110
 49
-0.000110
  0
LTYPE
  2
PHANTOM
 70
    64
  3
_____ _ _ _____ _ _ _____ _ _ _____ _ _ ____
 72
    65
 73
     6
 40
0.001100
 49
0.000550
 49
-0.000110
 49
0.000110
 49
-0.000110
 49
0.000110
 49
-0.000110
  0
LTYPE
  2
DOT
 70
    64
  3
...............................................
 72
    65
 73
     2
 40
0.000110
 49
0.000000
 49
-0.000110
  0
LTYPE
  2
DASHDOT
 70
    64
  3
__ . __ . __ . __ . __ . __ . __ . __ . __ . __
 72
    65
 73
     4
 40
0.000440
 49
0.000220
 49
-0.000110
 49
0.000000
 49
-0.000110
  0
LTYPE
  2
BORDER
 70
    64
  3
__ __ . __ __ . __ __ . __ __ . __ __ . __ __
 72
    65
 73
     6
 40
0.000770
 49
0.000220
 49
-0.000110
 49
0.000220
 49
-0.000110
 49
0.000000
 49
-0.000110
  0
LTYPE
  2
DIVIDE
 70
    64
  3
__ . . __ . . __ . . __ . . __ . . __ . . __
 72
    65
 73
     6
 40
0.000550
 49
0.000220
 49
-0.000110
 49
0.000000
 49
-0.000110
 49
0.000000
 49
-0.000110
  0
LTYPE
  2
DOTDOT
 70
    64
  3
 . .  . .  . .  . .  . .  . . 
 72
    65
 73
     5
 40
0.000242
 49
-0.000110
 49
0.000000
 49
-0.000110
 49
0.000000
 49
-0.000110
  0
ENDTAB
  0
TABLE
  2
STYLE
 70
     2
  0
STYLE
 70
     0
  2
SN0
 40
0.000000
 41
0.000440
 50
0.000000
 71
     0
 42
0.000000
  3
ROMAND
  0
STYLE
 70
    68
  2
SV0
 40
0.000000
 41
0.000440
 50
0.000000
 71
     0
 42
0.000000
  3
ROMAND
  0
ENDTAB
  0
TABLE
  2
LAYER
 70
     3
  0
LAYER
  2
FOREGROUND
 70
    64
 62
     7
  6
CONTINUOUS
  0
LAYER
  2
BACKGROUND
 70
    65
 62
    -7
  6
CONTINUOUS
  0
LAYER
  2
0
 70
    64
 62
     7
  6
CONTINUOUS
  0
ENDTAB
  0
ENDSEC
  0
SECTION
  2
ENTITIES
  0
POLYLINE
  8
FOREGROUND
  6
CONTINUOUS
 66
     1
 40
0.000000
 41
0.000000
  0
VERTEX
  8
FOREGROUND
  6
CONTINUOUS
 10
0.000000
 20
3.899720
  0
VERTEX
  8
FOREGROUND
  6
CONTINUOUS
 10
8.499920
 20
3.899720
  0
VERTEX
  8
FOREGROUND
  6
CONTINUOUS
 10
8.499920
 20
-7.100280
  0
VERTEX
  8
FOREGROUND
  6
CONTINUOUS
 10
0.000000
 20
-7.100280
  0
VERTEX
  8
FOREGROUND
  6
CONTINUOUS
 10
0.000000
 20
3.899720
  0
SEQEND
  8
0
  0
POLYLINE
  8
FOREGROUND
  6
CONTINUOUS
 66
     1
 40
0.000000
 41
0.000000
  0
VERTEX
  8
FOREGROUND
  6
CONTINUOUS
 10
0.000000
 20
3.899720
  0
VERTEX
  8
FOREGROUND
  6
CONTINUOUS
 10
8.499920
 20
3.899720
  0
VERTEX
  8
FOREGROUND
  6
CONTINUOUS
 10
8.499920
 20
-7.100280
  0
VERTEX
  8
FOREGROUND
  6
CONTINUOUS
 10
0.000000
 20
-7.100280
  0
VERTEX
  8
FOREGROUND
  6
CONTINUOUS
 10
0.000000
 20
3.899720
  0
SEQEND
  8
0
  0
POLYLINE
  8
0
  6
CONTINUOUS
 66
     1
 40
0.014080
 41
0.014080
  0
VERTEX
  8
0
  6
CONTINUOUS
 10
5.937800
 20
3.133680
  0
VERTEX
  8
0
  6
CONTINUOUS
 10
5.973000
 20
3.169760
  0
VERTEX
  8
0
  6
CONTINUOUS
 10
6.035920
 20
3.224320
  0
VERTEX
  8
0
  6
CONTINUOUS
 10
6.108520
 20
3.277120
  0
VERTEX
  8
0
  6
CONTINUOUS
 10
6.161320
 20
3.309680
  0
VERTEX
  8
0
  6
CONTINUOUS
 10
6.216760
 20
3.338720
  0
VERTEX
  8
0
  6
CONTINUOUS
 10
6.274400
 20
3.363800
  0
VERTEX
  8
0
  6
CONTINUOUS
 10
6.332920
 20
3.383600
  0
VERTEX
  8
0
  6
CONTINUOUS
 10
6.362840
 20
3.391520
  0
VERTEX
  8
0
  6
CONTINUOUS
 10
6.392320
 20
3.397680
  0
VERTEX
  8
0
  6
CONTINUOUS
 10
6.422240
 20
3.402080
  0
VERTEX
  8
0
  6
CONTINUOUS
 10
6.452160
 20
3.404720
  0
VERTEX
  8
0
  6
CONTINUOUS
 10
6.481640
 20
3.405160
  0
VERTEX
  8
0
  6
CONTINUOUS
 10
6.511120
 20
3.403840
  0
VERTEX
  8
0
  6
CONTINUOUS
 10
6.540160
 20
3.399880
  0
VERTEX
  8
0
  6
CONTINUOUS
 10
6.582840
 20
3.390200
  0
VERTEX
  8
0
  6
CONTINUOUS
 10
6.610560
 20
3.380520
  0
VERTEX
  8
0
  6
CONTINUOUS
 10
6.651480
 20
3.360720
  0
VERTEX
  8
0
  6
CONTINUOUS
 10
6.677440
 20
3.344440
  0
VERTEX
  8
0
  6
CONTINUOUS
 10
6.715280
 20
3.314080
  0
VERTEX
  8
0
  6
CONTINUOUS
 10
6.750920
 20
3.276680
  0
VERTEX
  8
0
  6
CONTINUOUS
 10
6.838920
 20
3.162280
  0
VERTEX
  8
0
  6
CONTINUOUS
 10
6.882040
 20
3.111240
  0
VERTEX
  8
0
  6
CONTINUOUS
 10
6.947600
 20
3.043040
  0
VERTEX
  8
0
  6
CONTINUOUS
 10
6.991160
 20
3.003440
  0
VERTEX
  8
0
  6
CONTINUOUS
 10
7.057160
 20
2.951960
  0
VERTEX
  8
0
  6
CONTINUOUS
 10
7.124480
 20
2.909720
  0
VERTEX
  8
0
  6
CONTINUOUS
 10
7.192680
 20
2.876280
  0
VERTEX
  8
0
  6
CONTINUOUS
 10
7.238880
 20
2.858680
  0
VERTEX
  8
0
  6
CONTINUOUS
 10
7.285960
 20
2.844160
  0
VERTEX
  8
0
  6
CONTINUOUS
 10
7.333920
 20
2.833160
  0
VERTEX
  8
0
  6
CONTINUOUS
 10
7.383200
 20
2.825240
  0
VERTEX
  8
0
  6
CONTINUOUS
 10
7.432920
 20
2.820400
  0
VERTEX
  8
0
  6
CONTINUOUS
 10
7.484400
 20
2.818640
  0
VERTEX
  8
0
  6
CONTINUOUS
 10
7.510360
 20
2.818640
  0
VERTEX
  8
0
  6
CONTINUOUS
 10
7.510360
 20
2.680480
  0
VERTEX
  8
0
  6
CONTINUOUS
 10
7.564040
 20
2.658920
  0
VERTEX
  8
0
  6
CONTINUOUS
 10
7.614200
 20
2.632960
  0
VERTEX
  8
0
  6
CONTINUOUS
 10
7.637960
 20
2.618440
  0
VERTEX
  8
0
  6
CONTINUOUS
 10
7.682400
 20
2.585880
  0
VERTEX
  8
0
  6
CONTINUOUS
 10
7.723320
 20
2.549800
  0
VERTEX
  8
0
  6
CONTINUOUS
 10
7.742680
 20
2.530880
  0
VERTEX
  8
0
  6
CONTINUOUS
 10
7.777880
 20
2.490400
  0
VERTEX
  8
0
  6
CONTINUOUS
 10
7.810000
 20
2.447280
  0
VERTEX
  8
0
  6
CONTINUOUS
 10
7.838600
 20
2.401960
  0
VERTEX
  8
0
  6
CONTINUOUS
 10
7.863680
 20
2.355320
  0
VERTEX
  8
0
  6
CONTINUOUS
 10
7.885240
 20
2.307800
  0
VERTEX
  8
0
  6
CONTINUOUS
 10
7.911640
 20
2.235200
  0
VERTEX
  8
0
  6
CONTINUOUS
 10
7.924840
 20
2.186800
  0
VERTEX
  8
0
  6
CONTINUOUS
 10
7.934520
 20
2.138840
  0
VERTEX
  8
0
  6
CONTINUOUS
 10
7.941120
 20
2.092200
  0
VERTEX
  8
0
  6
CONTINUOUS
 10
7.944200
 20
2.046440
  0
VERTEX
  8
0
  6
CONTINUOUS
 10
7.944640
 20
2.024440
  0
VERTEX
  8
0
  6
CONTINUOUS
 10
5.634200
 20
2.024440
  0
VERTEX
  8
0
  6
CONTINUOUS
 10
5.634200
 20
2.871880
  0
VERTEX
  8
0
  6
CONTINUOUS
 10
5.910960
 20
2.871880
  0
VERTEX
  8
0
  6
CONTINUOUS
 10
5.937800
 20
3.133680
  0
SEQEND
  8
0
  0
SOLID
  8
0
 62
    15
 10
4.425960
 20
2.239600
 11
5.067480
 21
2.619760
 12
4.501200
 22
2.152040
 13
5.142720
 23
2.531760
  0
POLYLINE
  8
0
  6
CONTINUOUS
 66
     1
 40
0.000000
 41
0.000000
  0
VERTEX
  8
0
  6
CONTINUOUS
 10
4.425960
 20
2.239600
  0
VERTEX
  8
0
  6
CONTINUOUS
 10
5.067480
 20
2.619760
  0
VERTEX
  8
0
  6
CONTINUOUS
 10
5.142720
 20
2.531760
  0
VERTEX
  8
0
  6
CONTINUOUS
 10
4.501200
 20
2.152040
  0
VERTEX
  8
0
  6
CONTINUOUS
 10
4.425960
 20
2.239600
  0
SEQEND
  8
0
  0
SOLID
  8
0
 62
    15
 10
3.482160
 20
3.149080
 11
4.123680
 21
3.529240
 12
3.573240
 22
3.142480
 13
4.214760
 23
3.522640
  0
POLYLINE
  8
0
  6
CONTINUOUS
 66
     1
 40
0.000000
 41
0.000000
  0
VERTEX
  8
0
  6
CONTINUOUS
 10
3.482160
 20
3.149080
  0
VERTEX
  8
0
  6
CONTINUOUS
 10
4.123680
 20
3.529240
  0
VERTEX
  8
0
  6
CONTINUOUS
 10
4.214760
 20
3.522640
  0
VERTEX
  8
0
  6
CONTINUOUS
 10
3.573240
 20
3.142480
  0
VERTEX
  8
0
  6
CONTINUOUS
 10
3.482160
 20
3.149080
  0
SEQEND
  8
0
  0
SOLID
  8
0
 62
    15
 10
3.573240
 20
3.142480
 11
4.214760
 21
3.522640
 12
3.668720
 22
3.122680
 13
4.310240
 23
3.502840
  0
POLYLINE
  8
0
  6
CONTINUOUS
 66
     1
 40
0.000000
 41
0.000000
  0
VERTEX
  8
0
  6
CONTINUOUS
 10
3.573240
 20
3.142480
  0
VERTEX
  8
0
  6
CONTINUOUS
 10
4.214760
 20
3.522640
  0
VERTEX
  8
0
  6
CONTINUOUS
 10
4.310240
 20
3.502840
  0
VERTEX
  8
0
  6
CONTINUOUS
 10
3.668720
 20
3.122680
  0
VERTEX
  8
0
  6
CONTINUOUS
 10
3.573240
 20
3.142480
  0
SEQEND
  8
0
  0
SOLID
  8
0
 62
    15
 10
3.668720
 20
3.122680
 11
4.310240
 21
3.502840
 12
3.765520
 22
3.089680
 13
4.407040
 23
3.469840
  0
POLYLINE
  8
0
  6
CONTINUOUS
 66
     1
 40
0.000000
 41
0.000000
  0
VERTEX
  8
0
  6
CONTINUOUS
 10
3.668720
 20
3.122680
  0
VERTEX
  8
0
  6
CONTINUOUS
 10
4.310240
 20
3.502840
  0
VERTEX
  8
0
  6
CONTINUOUS
 10
4.407040
 20
3.469840
  0
VERTEX
  8
0
  6
CONTINUOUS
 10
3.765520
 20
3.089680
  0
VERTEX
  8
0
  6
CONTINUOUS
 10
3.668720
 20
3.122680
  0
SEQEND
  8
0
  0
SOLID
  8
0
 62
    15
 10
3.765520
 20
3.089680
 11
4.407040
 21
3.469840
 12
3.859680
 22
3.043040
 13
4.501200
 23
3.423200
  0
POLYLINE
  8
0
  6
CONTINUOUS
 66
     1
 40
0.000000
 41
0.000000
  0
VERTEX
  8
0
  6
CONTINUOUS
 10
3.765520
 20
3.089680
  0
VERTEX
  8
0
  6
CONTINUOUS
 10
4.407040
 20
3.469840
  0
VERTEX
  8
0
  6
CONTINUOUS
 10
4.501200
 20
3.423200
  0
VERTEX
  8
0
  6
CONTINUOUS
 10
3.859680
 20
3.043040
  0
VERTEX
  8
0
  6
CONTINUOUS
 10
3.765520
 20
3.089680
  0
SEQEND
  8
0
  0
SOLID
  8
0
 62
    15
 10
3.859680
 20
3.043040
 11
4.501200
 21
3.423200
 12
3.948120
 22
2.982320
 13
4.589640
 23
3.362480
  0
POLYLINE
  8
0
  6
CONTINUOUS
 66
     1
 40
0.000000
 41
0.000000
  0
VERTEX
  8
0
  6
CONTINUOUS
 10
3.859680
 20
3.043040
  0
VERTEX
  8
0
  6
CONTINUOUS
 10
4.501200
 20
3.423200
  0
VERTEX
  8
0
  6
CONTINUOUS
 10
4.589640
 20
3.362480
  0
VERTEX
  8
0
  6
CONTINUOUS
 10
3.948120
 20
2.982320
  0
VERTEX
  8
0
  6
CONTINUOUS
 10
3.859680
 20
3.043040
  0
SEQEND
  8
0
  0
SOLID
  8
0
 62
    15
 10
3.948120
 20
2.982320
 11
4.589640
 21
3.362480
 12
4.026440
 22
2.907520
 13
4.667520
 23
3.287680
  0
POLYLINE
  8
0
  6
CONTINUOUS
 66
     1
 40
0.000000
 41
0.000000
  0
VERTEX
  8
0
  6
CONTINUOUS
 10
3.948120
 20
2.982320
  0
VERTEX
  8
0
  6
CONTINUOUS
 10
4.589640
 20
3.362480
  0
VERTEX
  8
0
  6
CONTINUOUS
 10
4.667520
 20
3.287680
  0
VERTEX
  8
0
  6
CONTINUOUS
 10
4.026440
 20
2.907520
  0
VERTEX
  8
0
  6
CONTINUOUS
 10
3.948120
 20
2.982320
  0
SEQEND
  8
0
  0
SOLID
  8
0
 62
    15
 10
4.026440
 20
2.907520
 11
4.667520
 21
3.287680
 12
4.091120
 22
2.818200
 13
4.732640
 23
3.198360
  0
POLYLINE
  8
0
  6
CONTINUOUS
 66
     1
 40
0.000000
 41
0.000000
  0
VERTEX
  8
0
  6
CONTINUOUS
 10
4.026440
 20
2.907520
  0
VERTEX
  8
0
  6
CONTINUOUS
 10
4.667520
 20
3.287680
  0
VERTEX
  8
0
  6
CONTINUOUS
 10
4.732640
 20
3.198360
  0
VERTEX
  8
0
  6
CONTINUOUS
 10
4.091120
 20
2.818200
  0
VERTEX
  8
0
  6
CONTINUOUS
 10
4.026440
 20
2.907520
  0
SEQEND
  8
0
  0
SOLID
  8
0
 62
    15
 10
4.091120
 20
2.818200
 11
4.732640
 21
3.198360
 12
4.138640
 22
2.714360
 13
4.780160
 23
3.094520
  0
POLYLINE
  8
0
  6
CONTINUOUS
 66
     1
 40
0.000000
 41
0.000000
  0
VERTEX
  8
0
  6
CONTINUOUS
 10
4.091120
 20
2.818200
  0
VERTEX
  8
0
  6
CONTINUOUS
 10
4.732640
 20
3.198360
  0
VERTEX
  8
0
  6
CONTINUOUS
 10
4.780160
 20
3.094520
  0
VERTEX
  8
0
  6
CONTINUOUS
 10
4.138640
 20
2.714360
  0
VERTEX
  8
0
  6
CONTINUOUS
 10
4.091120
 20
2.818200
  0
SEQEND
  8
0
  0
SOLID
  8
0
 62
    15
 10
4.138640
 20
2.714360
 11
4.780160
 21
3.094520
 12
4.276360
 22
2.714360
 13
4.917880
 23
3.094520
  0
POLYLINE
  8
0
  6
CONTINUOUS
 66
     1
 40
0.000000
 41
0.000000
  0
VERTEX
  8
0
  6
CONTINUOUS
 10
4.138640
 20
2.714360
  0
VERTEX
  8
0
  6
CONTINUOUS
 10
4.780160
 20
3.094520
  0
VERTEX
  8
0
  6
CONTINUOUS
 10
4.917880
 20
3.094520
  0
VERTEX
  8
0
  6
CONTINUOUS
 10
4.276360
 20
2.714360
  0
VERTEX
  8
0
  6
CONTINUOUS
 10
4.138640
 20
2.714360
  0
SEQEND
  8
0
  0
SOLID
  8
0
 62
    15
 10
4.276360
 20
2.714360
 11
4.917880
 21
3.094520
 12
4.280320
 22
2.612280
 13
4.921840
 23
2.992000
  0
POLYLINE
  8
0
  6
CONTINUOUS
 66
     1
 40
0.000000
 41
0.000000
  0
VERTEX
  8
0
  6
CONTINUOUS
 10
4.276360
 20
2.714360
  0
VERTEX
  8
0
  6
CONTINUOUS
 10
4.917880
 20
3.094520
  0
VERTEX
  8
0
  6
CONTINUOUS
 10
4.921840
 20
2.992000
  0
VERTEX
  8
0
  6
CONTINUOUS
 10
4.280320
 20
2.612280
  0
VERTEX
  8
0
  6
CONTINUOUS
 10
4.276360
 20
2.714360
  0
SEQEND
  8
0
  0
SOLID
  8
0
 62
    15
 10
4.280320
 20
2.612280
 11
4.921840
 21
2.992000
 12
4.296160
 22
2.514160
 13
4.937680
 23
2.894320
  0
POLYLINE
  8
0
  6
CONTINUOUS
 66
     1
 40
0.000000
 41
0.000000
  0
VERTEX
  8
0
  6
CONTINUOUS
 10
4.280320
 20
2.612280
  0
VERTEX
  8
0
  6
CONTINUOUS
 10
4.921840
 20
2.992000
  0
VERTEX
  8
0
  6
CONTINUOUS
 10
4.937680
 20
2.894320
  0
VERTEX
  8
0
  6
CONTINUOUS
 10
4.296160
 20
2.514160
  0
VERTEX
  8
0
  6
CONTINUOUS
 10
4.280320
 20
2.612280
  0
SEQEND
  8
0
  0
SOLID
  8
0
 62
    15
 10
4.296160
 20
2.514160
 11
4.937680
 21
2.894320
 12
4.324760
 22
2.420000
 13
4.966280
 23
2.800160
  0
POLYLINE
  8
0
  6
CONTINUOUS
 66
     1
 40
0.000000
 41
0.000000
  0
VERTEX
  8
0
  6
CONTINUOUS
 10
4.296160
 20
2.514160
  0
VERTEX
  8
0
  6
CONTINUOUS
 10
4.937680
 20
2.894320
  0
VERTEX
  8
0
  6
CONTINUOUS
 10
4.966280
 20
2.800160
  0
VERTEX
  8
0
  6
CONTINUOUS
 10
4.324760
 20
2.420000
  0
VERTEX
  8
0
  6
CONTINUOUS
 10
4.296160
 20
2.514160
  0
SEQEND
  8
0
  0
SOLID
  8
0
 62
    15
 10
4.324760
 20
2.420000
 11
4.966280
 21
2.800160
 12
4.367880
 22
2.328480
 13
5.009400
 23
2.708640
  0
POLYLINE
  8
0
  6
CONTINUOUS
 66
     1
 40
0.000000
 41
0.000000
  0
VERTEX
  8
0
  6
CONTINUOUS
 10
4.324760
 20
2.420000
  0
VERTEX
  8
0
  6
CONTINUOUS
 10
4.966280
 20
2.800160
  0
VERTEX
  8
0
  6
CONTINUOUS
 10
5.009400
 20
2.708640
  0
VERTEX
  8
0
  6
CONTINUOUS
 10
4.367880
 20
2.328480
  0
VERTEX
  8
0
  6
CONTINUOUS
 10
4.324760
 20
2.420000
  0
SEQEND
  8
0
  0
SOLID
  8
0
 62
    15
 10
4.367880
 20
2.328480
 11
5.009400
 21
2.708640
 12
4.425960
 22
2.239600
 13
5.067480
 23
2.619760
  0
POLYLINE
  8
0
  6
CONTINUOUS
 66
     1
 40
0.000000
 41
0.000000
  0
VERTEX
  8
0
  6
CONTINUOUS
 10
4.367880
 20
2.328480
  0
VERTEX
  8
0
  6
CONTINUOUS
 10
5.009400
 20
2.708640
  0
VERTEX
  8
0
  6
CONTINUOUS
 10
5.067480
 20
2.619760
  0
VERTEX
  8
0
  6
CONTINUOUS
 10
4.425960
 20
2.239600
  0
VERTEX
  8
0
  6
CONTINUOUS
 10
4.367880
 20
2.328480
  0
SEQEND
  8
0
  0
SOLID
  8
0
 62
    15
 10
4.330040
 20
1.114960
 11
4.971560
 21
1.495120
 12
4.330040
 22
0.838640
 13
4.971560
 23
1.218800
  0
POLYLINE
  8
0
  6
CONTINUOUS
 66
     1
 40
0.000000
 41
0.000000
  0
VERTEX
  8
0
  6
CONTINUOUS
 10
4.330040
 20
1.114960
  0
VERTEX
  8
0
  6
CONTINUOUS
 10
4.971560
 20
1.495120
  0
VERTEX
  8
0
  6
CONTINUOUS
 10
4.971560
 20
1.218800
  0
VERTEX
  8
0
  6
CONTINUOUS
 10
4.330040
 20
0.838640
  0
VERTEX
  8
0
  6
CONTINUOUS
 10
4.330040
 20
1.114960
  0
SEQEND
  8
0
  0
SOLID
  8
0
 62
    15
 10
4.501200
 20
2.152040
 11
5.142720
 21
2.531760
 12
4.594040
 22
2.064920
 13
5.235560
 23
2.444640
  0
POLYLINE
  8
0
  6
CONTINUOUS
 66
     1
 40
0.000000
 41
0.000000
  0
VERTEX
  8
0
  6
CONTINUOUS
 10
4.501200
 20
2.152040
  0
VERTEX
  8
0
  6
CONTINUOUS
 10
5.142720
 20
2.531760
  0
VERTEX
  8
0
  6
CONTINUOUS
 10
5.235560
 20
2.444640
  0
VERTEX
  8
0
  6
CONTINUOUS
 10
4.594040
 20
2.064920
  0
VERTEX
  8
0
  6
CONTINUOUS
 10
4.501200
 20
2.152040
  0
SEQEND
  8
0
  0
SOLID
  8
0
 62
    15
 10
4.594040
 20
2.064920
 11
5.235560
 21
2.444640
 12
4.705800
 22
1.977360
 13
5.347320
 23
2.357520
  0
POLYLINE
  8
0
  6
CONTINUOUS
 66
     1
 40
0.000000
 41
0.000000
  0
VERTEX
  8
0
  6
CONTINUOUS
 10
4.594040
 20
2.064920
  0
VERTEX
  8
0
  6
CONTINUOUS
 10
5.235560
 20
2.444640
  0
VERTEX
  8
0
  6
CONTINUOUS
 10
5.347320
 20
2.357520
  0
VERTEX
  8
0
  6
CONTINUOUS
 10
4.705800
 20
1.977360
  0
VERTEX
  8
0
  6
CONTINUOUS
 10
4.594040
 20
2.064920
  0
SEQEND
  8
0
  0
SOLID
  8
0
 62
    15
 10
4.705800
 20
1.977360
 11
5.347320
 21
2.357520
 12
4.760360
 22
1.931600
 13
5.401880
 23
2.311760
  0
POLYLINE
  8
0
  6
CONTINUOUS
 66
     1
 40
0.000000
 41
0.000000
  0
VERTEX
  8
0
  6
CONTINUOUS
 10
4.705800
 20
1.977360
  0
VERTEX
  8
0
  6
CONTINUOUS
 10
5.347320
 20
2.357520
  0
VERTEX
  8
0
  6
CONTINUOUS
 10
5.401880
 20
2.311760
  0
VERTEX
  8
0
  6
CONTINUOUS
 10
4.760360
 20
1.931600
  0
VERTEX
  8
0
  6
CONTINUOUS
 10
4.705800
 20
1.977360
  0
SEQEND
  8
0
  0
SOLID
  8
0
 62
    15
 10
4.760360
 20
1.931600
 11
5.401880
 21
2.311760
 12
4.802160
 22
1.881880
 13
5.443680
 23
2.261600
  0
POLYLINE
  8
0
  6
CONTINUOUS
 66
     1
 40
0.000000
 41
0.000000
  0
VERTEX
  8
0
  6
CONTINUOUS
 10
4.760360
 20
1.931600
  0
VERTEX
  8
0
  6
CONTINUOUS
 10
5.401880
 20
2.311760
  0
VERTEX
  8
0
  6
CONTINUOUS
 10
5.443680
 20
2.261600
  0
VERTEX
  8
0
  6
CONTINUOUS
 10
4.802160
 20
1.881880
  0
VERTEX
  8
0
  6
CONTINUOUS
 10
4.760360
 20
1.931600
  0
SEQEND
  8
0
  0
SOLID
  8
0
 62
    15
 10
4.802160
 20
1.881880
 11
5.443680
 21
2.261600
 12
4.832520
 22
1.828640
 13
5.473600
 23
2.208800
  0
POLYLINE
  8
0
  6
CONTINUOUS
 66
     1
 40
0.000000
 41
0.000000
  0
VERTEX
  8
0
  6
CONTINUOUS
 10
4.802160
 20
1.881880
  0
VERTEX
  8
0
  6
CONTINUOUS
 10
5.443680
 20
2.261600
  0
VERTEX
  8
0
  6
CONTINUOUS
 10
5.473600
 20
2.208800
  0
VERTEX
  8
0
  6
CONTINUOUS
 10
4.832520
 20
1.828640
  0
VERTEX
  8
0
  6
CONTINUOUS
 10
4.802160
 20
1.881880
  0
SEQEND
  8
0
  0
SOLID
  8
0
 62
    15
 10
4.832520
 20
1.828640
 11
5.473600
 21
2.208800
 12
4.851880
 22
1.772760
 13
5.493400
 23
2.152920
  0
POLYLINE
  8
0
  6
CONTINUOUS
 66
     1
 40
0.000000
 41
0.000000
  0
VERTEX
  8
0
  6
CONTINUOUS
 10
4.832520
 20
1.828640
  0
VERTEX
  8
0
  6
CONTINUOUS
 10
5.473600
 20
2.208800
  0
VERTEX
  8
0
  6
CONTINUOUS
 10
5.493400
 20
2.152920
  0
VERTEX
  8
0
  6
CONTINUOUS
 10
4.851880
 20
1.772760
  0
VERTEX
  8
0
  6
CONTINUOUS
 10
4.832520
 20
1.828640
  0
SEQEND
  8
0
  0
SOLID
  8
0
 62
    15
 10
4.851880
 20
1.772760
 11
5.493400
 21
2.152920
 12
4.861560
 22
1.715120
 13
5.503080
 23
2.095280
  0
POLYLINE
  8
0
  6
CONTINUOUS
 66
     1
 40
0.000000
 41
0.000000
  0
VERTEX
  8
0
  6
CONTINUOUS
 10
4.851880
 20
1.772760
  0
VERTEX
  8
0
  6
CONTINUOUS
 10
5.493400
 20
2.152920
  0
VERTEX
  8
0
  6
CONTINUOUS
 10
5.503080
 20
2.095280
  0
VERTEX
  8
0
  6
CONTINUOUS
 10
4.861560
 20
1.715120
  0
VERTEX
  8
0
  6
CONTINUOUS
 10
4.851880
 20
1.772760
  0
SEQEND
  8
0
  0
SOLID
  8
0
 62
    15
 10
4.861560
 20
1.715120
 11
5.503080
 21
2.095280
 12
4.862440
 22
1.656160
 13
5.503960
 23
2.036320
  0
POLYLINE
  8
0
  6
CONTINUOUS
 66
     1
 40
0.000000
 41
0.000000
  0
VERTEX
  8
0
  6
CONTINUOUS
 10
4.861560
 20
1.715120
  0
VERTEX
  8
0
  6
CONTINUOUS
 10
5.503080
 20
2.095280
  0
VERTEX
  8
0
  6
CONTINUOUS
 10
5.503960
 20
2.036320
  0
VERTEX
  8
0
  6
CONTINUOUS
 10
4.862440
 20
1.656160
  0
VERTEX
  8
0
  6
CONTINUOUS
 10
4.861560
 20
1.715120
  0
SEQEND
  8
0
  0
SOLID
  8
0
 62
    15
 10
4.862440
 20
1.656160
 11
5.503960
 21
2.036320
 12
4.855400
 22
1.596760
 13
5.496920
 23
1.976920
  0
POLYLINE
  8
0
  6
CONTINUOUS
 66
     1
 40
0.000000
 41
0.000000
  0
VERTEX
  8
0
  6
CONTINUOUS
 10
4.862440
 20
1.656160
  0
VERTEX
  8
0
  6
CONTINUOUS
 10
5.503960
 20
2.036320
  0
VERTEX
  8
0
  6
CONTINUOUS
 10
5.496920
 20
1.976920
  0
VERTEX
  8
0
  6
CONTINUOUS
 10
4.855400
 20
1.596760
  0
VERTEX
  8
0
  6
CONTINUOUS
 10
4.862440
 20
1.656160
  0
SEQEND
  8
0
  0
SOLID
  8
0
 62
    15
 10
4.855400
 20
1.596760
 11
5.496920
 21
1.976920
 12
4.841760
 22
1.537360
 13
5.483280
 23
1.917520
  0
POLYLINE
  8
0
  6
CONTINUOUS
 66
     1
 40
0.000000
 41
0.000000
  0
VERTEX
  8
0
  6
CONTINUOUS
 10
4.855400
 20
1.596760
  0
VERTEX
  8
0
  6
CONTINUOUS
 10
5.496920
 20
1.976920
  0
VERTEX
  8
0
  6
CONTINUOUS
 10
5.483280
 20
1.917520
  0
VERTEX
  8
0
  6
CONTINUOUS
 10
4.841760
 20
1.537360
  0
VERTEX
  8
0
  6
CONTINUOUS
 10
4.855400
 20
1.596760
  0
SEQEND
  8
0
  0
SOLID
  8
0
 62
    15
 10
4.841760
 20
1.537360
 11
5.483280
 21
1.917520
 12
4.796880
 22
1.421200
 13
5.438400
 23
1.800920
  0
POLYLINE
  8
0
  6
CONTINUOUS
 66
     1
 40
0.000000
 41
0.000000
  0
VERTEX
  8
0
  6
CONTINUOUS
 10
4.841760
 20
1.537360
  0
VERTEX
  8
0
  6
CONTINUOUS
 10
5.483280
 20
1.917520
  0
VERTEX
  8
0
  6
CONTINUOUS
 10
5.438400
 20
1.800920
  0
VERTEX
  8
0
  6
CONTINUOUS
 10
4.796880
 20
1.421200
  0
VERTEX
  8
0
  6
CONTINUOUS
 10
4.841760
 20
1.537360
  0
SEQEND
  8
0
  0
SOLID
  8
0
 62
    15
 10
4.796880
 20
1.421200
 11
5.438400
 21
1.800920
 12
4.734840
 22
1.312960
 13
5.376360
 23
1.693120
  0
POLYLINE
  8
0
  6
CONTINUOUS
 66
     1
 40
0.000000
 41
0.000000
  0
VERTEX
  8
0
  6
CONTINUOUS
 10
4.796880
 20
1.421200
  0
VERTEX
  8
0
  6
CONTINUOUS
 10
5.438400
 20
1.800920
  0
VERTEX
  8
0
  6
CONTINUOUS
 10
5.376360
 20
1.693120
  0
VERTEX
  8
0
  6
CONTINUOUS
 10
4.734840
 20
1.312960
  0
VERTEX
  8
0
  6
CONTINUOUS
 10
4.796880
 20
1.421200
  0
SEQEND
  8
0
  0
SOLID
  8
0
 62
    15
 10
4.734840
 20
1.312960
 11
5.376360
 21
1.693120
 12
4.664000
 22
1.218360
 13
5.305520
 23
1.598080
  0
POLYLINE
  8
0
  6
CONTINUOUS
 66
     1
 40
0.000000
 41
0.000000
  0
VERTEX
  8
0
  6
CONTINUOUS
 10
4.734840
 20
1.312960
  0
VERTEX
  8
0
  6
CONTINUOUS
 10
5.376360
 20
1.693120
  0
VERTEX
  8
0
  6
CONTINUOUS
 10
5.305520
 20
1.598080
  0
VERTEX
  8
0
  6
CONTINUOUS
 10
4.664000
 20
1.218360
  0
VERTEX
  8
0
  6
CONTINUOUS
 10
4.734840
 20
1.312960
  0
SEQEND
  8
0
  0
SOLID
  8
0
 62
    15
 10
4.664000
 20
1.218360
 11
5.305520
 21
1.598080
 12
4.591840
 22
1.142240
 13
5.233360
 23
1.521960
  0
POLYLINE
  8
0
  6
CONTINUOUS
 66
     1
 40
0.000000
 41
0.000000
  0
VERTEX
  8
0
  6
CONTINUOUS
 10
4.664000
 20
1.218360
  0
VERTEX
  8
0
  6
CONTINUOUS
 10
5.305520
 20
1.598080
  0
VERTEX
  8
0
  6
CONTINUOUS
 10
5.233360
 20
1.521960
  0
VERTEX
  8
0
  6
CONTINUOUS
 10
4.591840
 20
1.142240
  0
VERTEX
  8
0
  6
CONTINUOUS
 10
4.664000
 20
1.218360
  0
SEQEND
  8
0
  0
POLYLINE
  8
0
  6
CONTINUOUS
 66
     1
 40
0.000000
 41
0.000000
  0
VERTEX
  8
0
  6
CONTINUOUS
 10
4.330040
 20
1.114960
  0
VERTEX
  8
0
  6
CONTINUOUS
 10
4.330040
 20
0.838640
  0
VERTEX
  8
0
  6
CONTINUOUS
 10
3.482160
 20
0.838640
  0
VERTEX
  8
0
  6
CONTINUOUS
 10
3.482160
 20
3.149080
  0
VERTEX
  8
0
  6
CONTINUOUS
 10
3.573240
 20
3.142480
  0
VERTEX
  8
0
  6
CONTINUOUS
 10
3.668720
 20
3.122680
  0
VERTEX
  8
0
  6
CONTINUOUS
 10
3.765520
 20
3.089680
  0
VERTEX
  8
0
  6
CONTINUOUS
 10
3.859680
 20
3.043040
  0
VERTEX
  8
0
  6
CONTINUOUS
 10
3.948120
 20
2.982320
  0
VERTEX
  8
0
  6
CONTINUOUS
 10
4.026440
 20
2.907520
  0
VERTEX
  8
0
  6
CONTINUOUS
 10
4.091120
 20
2.818200
  0
VERTEX
  8
0
  6
CONTINUOUS
 10
4.138640
 20
2.714360
  0
VERTEX
  8
0
  6
CONTINUOUS
 10
4.276360
 20
2.714360
  0
VERTEX
  8
0
  6
CONTINUOUS
 10
4.280320
 20
2.612280
  0
VERTEX
  8
0
  6
CONTINUOUS
 10
4.296160
 20
2.514160
  0
VERTEX
  8
0
  6
CONTINUOUS
 10
4.324760
 20
2.420000
  0
VERTEX
  8
0
  6
CONTINUOUS
 10
4.367880
 20
2.328480
  0
VERTEX
  8
0
  6
CONTINUOUS
 10
4.425960
 20
2.239600
  0
VERTEX
  8
0
  6
CONTINUOUS
 10
4.501200
 20
2.152040
  0
VERTEX
  8
0
  6
CONTINUOUS
 10
4.594040
 20
2.064920
  0
VERTEX
  8
0
  6
CONTINUOUS
 10
4.705800
 20
1.977360
  0
VERTEX
  8
0
  6
CONTINUOUS
 10
4.760360
 20
1.931600
  0
VERTEX
  8
0
  6
CONTINUOUS
 10
4.802160
 20
1.881880
  0
VERTEX
  8
0
  6
CONTINUOUS
 10
4.832520
 20
1.828640
  0
VERTEX
  8
0
  6
CONTINUOUS
 10
4.851880
 20
1.772760
  0
VERTEX
  8
0
  6
CONTINUOUS
 10
4.861560
 20
1.715120
  0
VERTEX
  8
0
  6
CONTINUOUS
 10
4.862440
 20
1.656160
  0
VERTEX
  8
0
  6
CONTINUOUS
 10
4.855400
 20
1.596760
  0
VERTEX
  8
0
  6
CONTINUOUS
 10
4.841760
 20
1.537360
  0
VERTEX
  8
0
  6
CONTINUOUS
 10
4.796880
 20
1.421200
  0
VERTEX
  8
0
  6
CONTINUOUS
 10
4.734840
 20
1.312960
  0
VERTEX
  8
0
  6
CONTINUOUS
 10
4.664000
 20
1.218360
  0
VERTEX
  8
0
  6
CONTINUOUS
 10
4.591840
 20
1.142240
  0
VERTEX
  8
0
  6
CONTINUOUS
 10
4.330040
 20
1.114960
  0
SEQEND
  8
0
  0
TEXT
  8
0
 10
4.197600
 20
0.604560
 40
0.138103
  1
BA  694
 41
1.000000
  7
SN0
 71
     0
 72
     5
 11
4.788587
 21
0.604560
  0
TEXT
  8
0
 10
3.921720
 20
0.413160
 40
0.138103
  1
1-3/8" x 2-5/16"
 41
1.000000
  7
SN0
 71
     0
 72
     5
 11
5.063460
 21
0.413160
  0
ENDSEC
  0
EOF
