  0
SECTION
  2
HEADER
  9
$ACADVER
  1
AC1006
  9
$EXTMIN
 10
0.928840
 20
3.982000
  9
$EXTMAX
 10
7.571080
 20
7.017560
  9
$LTSCALE
 40
0.044000
  9
$PDMODE
 70
    35
  9
$PDSIZE
 40
0.035200
  0
ENDSEC
  0
SECTION
  2
TABLES
  0
TABLE
  2
LTYPE
 70
     9
  0
LTYPE
  2
CONTINUOUS
 70
    64
  3
Solid line
 72
    65
 73
     0
 40
0.000000
  0
LTYPE
  2
DASHED
 70
    64
  3
__ __ __ __ __ __ __ __ __ __ __ __ __ __ __
 72
    65
 73
     2
 40
0.000330
 49
0.000220
 49
-0.000110
  0
LTYPE
  2
HIDDEN
 70
    64
  3
 _ _ _ _ _ _ _ _ _ _ _ _ _ _ _ _ _ _ _ _ _ _
 72
    65
 73
     2
 40
0.000165
 49
0.000110
 49
-0.000055
  0
LTYPE
  2
CENTER
 70
    64
  3
____ _ ____ _ ____ _ ____ _ ____ _ ____ _ ____
 72
    65
 73
     4
 40
0.000880
 49
0.000550
 49
-0.000110
 49
0.000110
 49
-0.000110
  0
LTYPE
  2
PHANTOM
 70
    64
  3
_____ _ _ _____ _ _ _____ _ _ _____ _ _ ____
 72
    65
 73
     6
 40
0.001100
 49
0.000550
 49
-0.000110
 49
0.000110
 49
-0.000110
 49
0.000110
 49
-0.000110
  0
LTYPE
  2
DOT
 70
    64
  3
...............................................
 72
    65
 73
     2
 40
0.000110
 49
0.000000
 49
-0.000110
  0
LTYPE
  2
DASHDOT
 70
    64
  3
__ . __ . __ . __ . __ . __ . __ . __ . __ . __
 72
    65
 73
     4
 40
0.000440
 49
0.000220
 49
-0.000110
 49
0.000000
 49
-0.000110
  0
LTYPE
  2
BORDER
 70
    64
  3
__ __ . __ __ . __ __ . __ __ . __ __ . __ __
 72
    65
 73
     6
 40
0.000770
 49
0.000220
 49
-0.000110
 49
0.000220
 49
-0.000110
 49
0.000000
 49
-0.000110
  0
LTYPE
  2
DIVIDE
 70
    64
  3
__ . . __ . . __ . . __ . . __ . . __ . . __
 72
    65
 73
     6
 40
0.000550
 49
0.000220
 49
-0.000110
 49
0.000000
 49
-0.000110
 49
0.000000
 49
-0.000110
  0
LTYPE
  2
DOTDOT
 70
    64
  3
 . .  . .  . .  . .  . .  . . 
 72
    65
 73
     5
 40
0.000242
 49
-0.000110
 49
0.000000
 49
-0.000110
 49
0.000000
 49
-0.000110
  0
ENDTAB
  0
TABLE
  2
STYLE
 70
     2
  0
STYLE
 70
     0
  2
SN0
 40
0.000000
 41
0.000440
 50
0.000000
 71
     0
 42
0.000000
  3
ROMAND
  0
STYLE
 70
    68
  2
SV0
 40
0.000000
 41
0.000440
 50
0.000000
 71
     0
 42
0.000000
  3
ROMAND
  0
ENDTAB
  0
TABLE
  2
LAYER
 70
     3
  0
LAYER
  2
FOREGROUND
 70
    64
 62
     7
  6
CONTINUOUS
  0
LAYER
  2
BACKGROUND
 70
    65
 62
    -7
  6
CONTINUOUS
  0
LAYER
  2
0
 70
    64
 62
     7
  6
CONTINUOUS
  0
ENDTAB
  0
ENDSEC
  0
SECTION
  2
ENTITIES
  0
POLYLINE
  8
FOREGROUND
  6
CONTINUOUS
 66
     1
 40
0.000000
 41
0.000000
  0
VERTEX
  8
FOREGROUND
  6
CONTINUOUS
 10
0.000000
 20
10.999560
  0
VERTEX
  8
FOREGROUND
  6
CONTINUOUS
 10
8.499920
 20
10.999560
  0
VERTEX
  8
FOREGROUND
  6
CONTINUOUS
 10
8.499920
 20
-0.000440
  0
VERTEX
  8
FOREGROUND
  6
CONTINUOUS
 10
0.000000
 20
-0.000440
  0
VERTEX
  8
FOREGROUND
  6
CONTINUOUS
 10
0.000000
 20
10.999560
  0
SEQEND
  8
0
  0
POLYLINE
  8
FOREGROUND
  6
CONTINUOUS
 66
     1
 40
0.000000
 41
0.000000
  0
VERTEX
  8
FOREGROUND
  6
CONTINUOUS
 10
0.000000
 20
10.999560
  0
VERTEX
  8
FOREGROUND
  6
CONTINUOUS
 10
8.499920
 20
10.999560
  0
VERTEX
  8
FOREGROUND
  6
CONTINUOUS
 10
8.499920
 20
-0.000440
  0
VERTEX
  8
FOREGROUND
  6
CONTINUOUS
 10
0.000000
 20
-0.000440
  0
VERTEX
  8
FOREGROUND
  6
CONTINUOUS
 10
0.000000
 20
10.999560
  0
SEQEND
  8
0
  0
POLYLINE
  8
0
  6
CONTINUOUS
 66
     1
 40
0.014080
 41
0.014080
  0
VERTEX
  8
0
  6
CONTINUOUS
 10
7.556120
 20
6.505840
  0
VERTEX
  8
0
  6
CONTINUOUS
 10
7.519160
 20
6.508480
  0
VERTEX
  8
0
  6
CONTINUOUS
 10
7.483520
 20
6.516400
  0
VERTEX
  8
0
  6
CONTINUOUS
 10
7.449200
 20
6.528720
  0
VERTEX
  8
0
  6
CONTINUOUS
 10
7.416200
 20
6.545440
  0
VERTEX
  8
0
  6
CONTINUOUS
 10
7.384520
 20
6.565680
  0
VERTEX
  8
0
  6
CONTINUOUS
 10
7.354600
 20
6.589000
  0
VERTEX
  8
0
  6
CONTINUOUS
 10
7.313680
 20
6.628600
  0
VERTEX
  8
0
  6
CONTINUOUS
 10
7.288600
 20
6.657640
  0
VERTEX
  8
0
  6
CONTINUOUS
 10
7.256040
 20
6.703840
  0
VERTEX
  8
0
  6
CONTINUOUS
 10
7.237120
 20
6.735520
  0
VERTEX
  8
0
  6
CONTINUOUS
 10
7.214680
 20
6.783040
  0
VERTEX
  8
0
  6
CONTINUOUS
 10
7.198400
 20
6.829240
  0
VERTEX
  8
0
  6
CONTINUOUS
 10
7.191800
 20
6.858720
  0
VERTEX
  8
0
  6
CONTINUOUS
 10
7.188280
 20
6.886000
  0
VERTEX
  8
0
  6
CONTINUOUS
 10
7.010520
 20
6.886000
  0
VERTEX
  8
0
  6
CONTINUOUS
 10
7.010520
 20
7.009640
  0
VERTEX
  8
0
  6
CONTINUOUS
 10
6.469320
 20
7.009640
  0
VERTEX
  8
0
  6
CONTINUOUS
 10
6.469320
 20
6.881600
  0
VERTEX
  8
0
  6
CONTINUOUS
 10
5.766200
 20
6.881160
  0
VERTEX
  8
0
  6
CONTINUOUS
 10
5.728800
 20
6.876320
  0
VERTEX
  8
0
  6
CONTINUOUS
 10
5.691400
 20
6.867520
  0
VERTEX
  8
0
  6
CONTINUOUS
 10
5.654880
 20
6.854320
  0
VERTEX
  8
0
  6
CONTINUOUS
 10
5.619240
 20
6.837160
  0
VERTEX
  8
0
  6
CONTINUOUS
 10
5.584920
 20
6.816480
  0
VERTEX
  8
0
  6
CONTINUOUS
 10
5.551480
 20
6.791840
  0
VERTEX
  8
0
  6
CONTINUOUS
 10
5.520680
 20
6.764120
  0
VERTEX
  8
0
  6
CONTINUOUS
 10
5.491640
 20
6.732880
  0
VERTEX
  8
0
  6
CONTINUOUS
 10
5.464800
 20
6.698560
  0
VERTEX
  8
0
  6
CONTINUOUS
 10
5.441040
 20
6.661600
  0
VERTEX
  8
0
  6
CONTINUOUS
 10
5.420360
 20
6.621560
  0
VERTEX
  8
0
  6
CONTINUOUS
 10
5.403200
 20
6.579320
  0
VERTEX
  8
0
  6
CONTINUOUS
 10
5.390000
 20
6.534880
  0
VERTEX
  8
0
  6
CONTINUOUS
 10
5.380760
 20
6.488240
  0
VERTEX
  8
0
  6
CONTINUOUS
 10
5.375920
 20
6.439840
  0
VERTEX
  8
0
  6
CONTINUOUS
 10
5.375480
 20
6.414760
  0
VERTEX
  8
0
  6
CONTINUOUS
 10
5.065720
 20
6.414760
  0
VERTEX
  8
0
  6
CONTINUOUS
 10
5.065720
 20
5.260640
  0
VERTEX
  8
0
  6
CONTINUOUS
 10
7.027680
 20
5.260640
  0
VERTEX
  8
0
  6
CONTINUOUS
 10
7.027680
 20
6.307400
  0
VERTEX
  8
0
  6
CONTINUOUS
 10
7.563600
 20
6.307400
  0
VERTEX
  8
0
  6
CONTINUOUS
 10
7.563600
 20
6.505840
  0
VERTEX
  8
0
  6
CONTINUOUS
 10
7.556120
 20
6.505840
  0
SEQEND
  8
0
  0
POLYLINE
  8
0
  6
CONTINUOUS
 66
     1
 40
0.014080
 41
0.014080
  0
VERTEX
  8
0
  6
CONTINUOUS
 10
4.564120
 20
5.795240
  0
VERTEX
  8
0
  6
CONTINUOUS
 10
4.600640
 20
5.808440
  0
VERTEX
  8
0
  6
CONTINUOUS
 10
4.631880
 20
5.826480
  0
VERTEX
  8
0
  6
CONTINUOUS
 10
4.649480
 20
5.841000
  0
VERTEX
  8
0
  6
CONTINUOUS
 10
4.678960
 20
5.873120
  0
VERTEX
  8
0
  6
CONTINUOUS
 10
4.701400
 20
5.908760
  0
VERTEX
  8
0
  6
CONTINUOUS
 10
4.718560
 20
5.945720
  0
VERTEX
  8
0
  6
CONTINUOUS
 10
4.748920
 20
6.028880
  0
VERTEX
  8
0
  6
CONTINUOUS
 10
4.765640
 20
6.064080
  0
VERTEX
  8
0
  6
CONTINUOUS
 10
4.778400
 20
6.083440
  0
VERTEX
  8
0
  6
CONTINUOUS
 10
4.796000
 20
6.099720
  0
VERTEX
  8
0
  6
CONTINUOUS
 10
4.814040
 20
6.109840
  0
VERTEX
  8
0
  6
CONTINUOUS
 10
4.847480
 20
6.120840
  0
VERTEX
  8
0
  6
CONTINUOUS
 10
4.881360
 20
6.127440
  0
VERTEX
  8
0
  6
CONTINUOUS
 10
4.940320
 20
6.134040
  0
VERTEX
  8
0
  6
CONTINUOUS
 10
5.040640
 20
6.138440
  0
VERTEX
  8
0
  6
CONTINUOUS
 10
5.064840
 20
6.138880
  0
VERTEX
  8
0
  6
CONTINUOUS
 10
5.064840
 20
5.260640
  0
VERTEX
  8
0
  6
CONTINUOUS
 10
4.564120
 20
5.260640
  0
VERTEX
  8
0
  6
CONTINUOUS
 10
4.564120
 20
5.795240
  0
SEQEND
  8
0
  0
TEXT
  8
0
 10
4.843080
 20
5.033600
 40
0.138219
  1
BA  693A 1-3/4" x 2-1/2"
 41
1.000000
  7
SN0
 71
     0
 72
     5
 11
6.637813
 21
5.033600
  0
TEXT
  8
0
 10
4.843080
 20
4.841760
 40
0.138219
  1
BA  693C 1/2 x 7/8"
 41
1.000000
  7
SN0
 71
     0
 72
     5
 11
6.293413
 21
4.841760
  0
SOLID
  8
0
 62
    15
 10
2.145440
 20
6.063640
 11
2.151160
 21
6.806800
 12
2.829640
 22
6.063640
 13
2.835360
 23
6.806800
  0
POLYLINE
  8
0
  6
CONTINUOUS
 66
     1
 40
0.000000
 41
0.000000
  0
VERTEX
  8
0
  6
CONTINUOUS
 10
2.145440
 20
6.063640
  0
VERTEX
  8
0
  6
CONTINUOUS
 10
2.151160
 20
6.806800
  0
VERTEX
  8
0
  6
CONTINUOUS
 10
2.835360
 20
6.806800
  0
VERTEX
  8
0
  6
CONTINUOUS
 10
2.829640
 20
6.063640
  0
VERTEX
  8
0
  6
CONTINUOUS
 10
2.145440
 20
6.063640
  0
SEQEND
  8
0
  0
SOLID
  8
0
 62
    15
 10
3.924360
 20
5.687880
 11
3.930080
 21
6.431040
 12
3.924360
 22
5.489440
 13
3.930080
 23
6.232600
  0
POLYLINE
  8
0
  6
CONTINUOUS
 66
     1
 40
0.000000
 41
0.000000
  0
VERTEX
  8
0
  6
CONTINUOUS
 10
3.924360
 20
5.687880
  0
VERTEX
  8
0
  6
CONTINUOUS
 10
3.930080
 20
6.431040
  0
VERTEX
  8
0
  6
CONTINUOUS
 10
3.930080
 20
6.232600
  0
VERTEX
  8
0
  6
CONTINUOUS
 10
3.924360
 20
5.489440
  0
VERTEX
  8
0
  6
CONTINUOUS
 10
3.924360
 20
5.687880
  0
SEQEND
  8
0
  0
SOLID
  8
0
 62
    15
 10
3.388440
 20
5.489440
 11
3.394160
 21
6.232600
 12
3.388440
 22
4.442680
 13
3.394160
 23
5.185840
  0
POLYLINE
  8
0
  6
CONTINUOUS
 66
     1
 40
0.000000
 41
0.000000
  0
VERTEX
  8
0
  6
CONTINUOUS
 10
3.388440
 20
5.489440
  0
VERTEX
  8
0
  6
CONTINUOUS
 10
3.394160
 20
6.232600
  0
VERTEX
  8
0
  6
CONTINUOUS
 10
3.394160
 20
5.185840
  0
VERTEX
  8
0
  6
CONTINUOUS
 10
3.388440
 20
4.442680
  0
VERTEX
  8
0
  6
CONTINUOUS
 10
3.388440
 20
5.489440
  0
SEQEND
  8
0
  0
SOLID
  8
0
 62
    15
 10
1.426480
 20
5.596800
 11
1.432200
 21
6.339960
 12
1.736240
 22
5.596800
 13
1.741960
 23
6.339960
  0
POLYLINE
  8
0
  6
CONTINUOUS
 66
     1
 40
0.000000
 41
0.000000
  0
VERTEX
  8
0
  6
CONTINUOUS
 10
1.426480
 20
5.596800
  0
VERTEX
  8
0
  6
CONTINUOUS
 10
1.432200
 20
6.339960
  0
VERTEX
  8
0
  6
CONTINUOUS
 10
1.741960
 20
6.339960
  0
VERTEX
  8
0
  6
CONTINUOUS
 10
1.736240
 20
5.596800
  0
VERTEX
  8
0
  6
CONTINUOUS
 10
1.426480
 20
5.596800
  0
SEQEND
  8
0
  0
SOLID
  8
0
 62
    15
 10
1.736240
 20
5.596800
 11
1.741960
 21
6.339960
 12
1.745920
 22
5.694040
 13
1.751640
 23
6.437200
  0
POLYLINE
  8
0
  6
CONTINUOUS
 66
     1
 40
0.000000
 41
0.000000
  0
VERTEX
  8
0
  6
CONTINUOUS
 10
1.736240
 20
5.596800
  0
VERTEX
  8
0
  6
CONTINUOUS
 10
1.741960
 20
6.339960
  0
VERTEX
  8
0
  6
CONTINUOUS
 10
1.751640
 20
6.437200
  0
VERTEX
  8
0
  6
CONTINUOUS
 10
1.745920
 20
5.694040
  0
VERTEX
  8
0
  6
CONTINUOUS
 10
1.736240
 20
5.596800
  0
SEQEND
  8
0
  0
SOLID
  8
0
 62
    15
 10
1.745920
 20
5.694040
 11
1.751640
 21
6.437200
 12
1.772320
 22
5.782920
 13
1.778040
 23
6.526080
  0
POLYLINE
  8
0
  6
CONTINUOUS
 66
     1
 40
0.000000
 41
0.000000
  0
VERTEX
  8
0
  6
CONTINUOUS
 10
1.745920
 20
5.694040
  0
VERTEX
  8
0
  6
CONTINUOUS
 10
1.751640
 20
6.437200
  0
VERTEX
  8
0
  6
CONTINUOUS
 10
1.778040
 20
6.526080
  0
VERTEX
  8
0
  6
CONTINUOUS
 10
1.772320
 20
5.782920
  0
VERTEX
  8
0
  6
CONTINUOUS
 10
1.745920
 20
5.694040
  0
SEQEND
  8
0
  0
SOLID
  8
0
 62
    15
 10
1.772320
 20
5.782920
 11
1.778040
 21
6.526080
 12
1.813240
 22
5.862560
 13
1.819400
 23
6.605720
  0
POLYLINE
  8
0
  6
CONTINUOUS
 66
     1
 40
0.000000
 41
0.000000
  0
VERTEX
  8
0
  6
CONTINUOUS
 10
1.772320
 20
5.782920
  0
VERTEX
  8
0
  6
CONTINUOUS
 10
1.778040
 20
6.526080
  0
VERTEX
  8
0
  6
CONTINUOUS
 10
1.819400
 20
6.605720
  0
VERTEX
  8
0
  6
CONTINUOUS
 10
1.813240
 20
5.862560
  0
VERTEX
  8
0
  6
CONTINUOUS
 10
1.772320
 20
5.782920
  0
SEQEND
  8
0
  0
SOLID
  8
0
 62
    15
 10
1.813240
 20
5.862560
 11
1.819400
 21
6.605720
 12
1.866480
 22
5.930760
 13
1.872200
 23
6.673920
  0
POLYLINE
  8
0
  6
CONTINUOUS
 66
     1
 40
0.000000
 41
0.000000
  0
VERTEX
  8
0
  6
CONTINUOUS
 10
1.813240
 20
5.862560
  0
VERTEX
  8
0
  6
CONTINUOUS
 10
1.819400
 20
6.605720
  0
VERTEX
  8
0
  6
CONTINUOUS
 10
1.872200
 20
6.673920
  0
VERTEX
  8
0
  6
CONTINUOUS
 10
1.866480
 20
5.930760
  0
VERTEX
  8
0
  6
CONTINUOUS
 10
1.813240
 20
5.862560
  0
SEQEND
  8
0
  0
SOLID
  8
0
 62
    15
 10
1.866480
 20
5.930760
 11
1.872200
 21
6.673920
 12
1.928960
 22
5.986640
 13
1.934680
 23
6.729800
  0
POLYLINE
  8
0
  6
CONTINUOUS
 66
     1
 40
0.000000
 41
0.000000
  0
VERTEX
  8
0
  6
CONTINUOUS
 10
1.866480
 20
5.930760
  0
VERTEX
  8
0
  6
CONTINUOUS
 10
1.872200
 20
6.673920
  0
VERTEX
  8
0
  6
CONTINUOUS
 10
1.934680
 20
6.729800
  0
VERTEX
  8
0
  6
CONTINUOUS
 10
1.928960
 20
5.986640
  0
VERTEX
  8
0
  6
CONTINUOUS
 10
1.866480
 20
5.930760
  0
SEQEND
  8
0
  0
SOLID
  8
0
 62
    15
 10
1.928960
 20
5.986640
 11
1.934680
 21
6.729800
 12
1.997600
 22
6.028440
 13
2.003760
 23
6.771600
  0
POLYLINE
  8
0
  6
CONTINUOUS
 66
     1
 40
0.000000
 41
0.000000
  0
VERTEX
  8
0
  6
CONTINUOUS
 10
1.928960
 20
5.986640
  0
VERTEX
  8
0
  6
CONTINUOUS
 10
1.934680
 20
6.729800
  0
VERTEX
  8
0
  6
CONTINUOUS
 10
2.003760
 20
6.771600
  0
VERTEX
  8
0
  6
CONTINUOUS
 10
1.997600
 20
6.028440
  0
VERTEX
  8
0
  6
CONTINUOUS
 10
1.928960
 20
5.986640
  0
SEQEND
  8
0
  0
SOLID
  8
0
 62
    15
 10
1.997600
 20
6.028440
 11
2.003760
 21
6.771600
 12
2.071080
 22
6.054840
 13
2.076800
 23
6.797560
  0
POLYLINE
  8
0
  6
CONTINUOUS
 66
     1
 40
0.000000
 41
0.000000
  0
VERTEX
  8
0
  6
CONTINUOUS
 10
1.997600
 20
6.028440
  0
VERTEX
  8
0
  6
CONTINUOUS
 10
2.003760
 20
6.771600
  0
VERTEX
  8
0
  6
CONTINUOUS
 10
2.076800
 20
6.797560
  0
VERTEX
  8
0
  6
CONTINUOUS
 10
2.071080
 20
6.054840
  0
VERTEX
  8
0
  6
CONTINUOUS
 10
1.997600
 20
6.028440
  0
SEQEND
  8
0
  0
SOLID
  8
0
 62
    15
 10
2.071080
 20
6.054840
 11
2.076800
 21
6.797560
 12
2.145440
 22
6.063640
 13
2.151160
 23
6.806800
  0
POLYLINE
  8
0
  6
CONTINUOUS
 66
     1
 40
0.000000
 41
0.000000
  0
VERTEX
  8
0
  6
CONTINUOUS
 10
2.071080
 20
6.054840
  0
VERTEX
  8
0
  6
CONTINUOUS
 10
2.076800
 20
6.797560
  0
VERTEX
  8
0
  6
CONTINUOUS
 10
2.151160
 20
6.806800
  0
VERTEX
  8
0
  6
CONTINUOUS
 10
2.145440
 20
6.063640
  0
VERTEX
  8
0
  6
CONTINUOUS
 10
2.071080
 20
6.054840
  0
SEQEND
  8
0
  0
SOLID
  8
0
 62
    15
 10
3.844280
 20
5.698440
 11
3.850000
 21
6.441160
 12
3.916440
 22
5.687440
 13
3.922600
 23
6.430600
  0
POLYLINE
  8
0
  6
CONTINUOUS
 66
     1
 40
0.000000
 41
0.000000
  0
VERTEX
  8
0
  6
CONTINUOUS
 10
3.844280
 20
5.698440
  0
VERTEX
  8
0
  6
CONTINUOUS
 10
3.850000
 20
6.441160
  0
VERTEX
  8
0
  6
CONTINUOUS
 10
3.922600
 20
6.430600
  0
VERTEX
  8
0
  6
CONTINUOUS
 10
3.916440
 20
5.687440
  0
VERTEX
  8
0
  6
CONTINUOUS
 10
3.844280
 20
5.698440
  0
SEQEND
  8
0
  0
SOLID
  8
0
 62
    15
 10
3.371280
 20
6.068040
 11
3.377000
 21
6.810760
 12
3.548600
 22
6.068040
 13
3.554760
 23
6.810760
  0
POLYLINE
  8
0
  6
CONTINUOUS
 66
     1
 40
0.000000
 41
0.000000
  0
VERTEX
  8
0
  6
CONTINUOUS
 10
3.371280
 20
6.068040
  0
VERTEX
  8
0
  6
CONTINUOUS
 10
3.377000
 20
6.810760
  0
VERTEX
  8
0
  6
CONTINUOUS
 10
3.554760
 20
6.810760
  0
VERTEX
  8
0
  6
CONTINUOUS
 10
3.548600
 20
6.068040
  0
VERTEX
  8
0
  6
CONTINUOUS
 10
3.371280
 20
6.068040
  0
SEQEND
  8
0
  0
SOLID
  8
0
 62
    15
 10
3.371280
 20
6.191680
 11
3.377000
 21
6.934840
 12
3.371280
 22
6.068040
 13
3.377000
 23
6.810760
  0
POLYLINE
  8
0
  6
CONTINUOUS
 66
     1
 40
0.000000
 41
0.000000
  0
VERTEX
  8
0
  6
CONTINUOUS
 10
3.371280
 20
6.191680
  0
VERTEX
  8
0
  6
CONTINUOUS
 10
3.377000
 20
6.934840
  0
VERTEX
  8
0
  6
CONTINUOUS
 10
3.377000
 20
6.810760
  0
VERTEX
  8
0
  6
CONTINUOUS
 10
3.371280
 20
6.068040
  0
VERTEX
  8
0
  6
CONTINUOUS
 10
3.371280
 20
6.191680
  0
SEQEND
  8
0
  0
SOLID
  8
0
 62
    15
 10
2.829640
 20
6.191680
 11
2.835360
 21
6.934840
 12
3.371280
 22
6.191680
 13
3.377000
 23
6.934840
  0
POLYLINE
  8
0
  6
CONTINUOUS
 66
     1
 40
0.000000
 41
0.000000
  0
VERTEX
  8
0
  6
CONTINUOUS
 10
2.829640
 20
6.191680
  0
VERTEX
  8
0
  6
CONTINUOUS
 10
2.835360
 20
6.934840
  0
VERTEX
  8
0
  6
CONTINUOUS
 10
3.377000
 20
6.934840
  0
VERTEX
  8
0
  6
CONTINUOUS
 10
3.371280
 20
6.191680
  0
VERTEX
  8
0
  6
CONTINUOUS
 10
2.829640
 20
6.191680
  0
SEQEND
  8
0
  0
SOLID
  8
0
 62
    15
 10
3.548600
 20
6.068040
 11
3.554760
 21
6.810760
 12
3.558720
 22
6.011280
 13
3.564440
 23
6.754440
  0
POLYLINE
  8
0
  6
CONTINUOUS
 66
     1
 40
0.000000
 41
0.000000
  0
VERTEX
  8
0
  6
CONTINUOUS
 10
3.548600
 20
6.068040
  0
VERTEX
  8
0
  6
CONTINUOUS
 10
3.554760
 20
6.810760
  0
VERTEX
  8
0
  6
CONTINUOUS
 10
3.564440
 20
6.754440
  0
VERTEX
  8
0
  6
CONTINUOUS
 10
3.558720
 20
6.011280
  0
VERTEX
  8
0
  6
CONTINUOUS
 10
3.548600
 20
6.068040
  0
SEQEND
  8
0
  0
SOLID
  8
0
 62
    15
 10
3.558720
 20
6.011280
 11
3.564440
 21
6.754440
 12
3.582040
 22
5.949240
 13
3.587760
 23
6.692400
  0
POLYLINE
  8
0
  6
CONTINUOUS
 66
     1
 40
0.000000
 41
0.000000
  0
VERTEX
  8
0
  6
CONTINUOUS
 10
3.558720
 20
6.011280
  0
VERTEX
  8
0
  6
CONTINUOUS
 10
3.564440
 20
6.754440
  0
VERTEX
  8
0
  6
CONTINUOUS
 10
3.587760
 20
6.692400
  0
VERTEX
  8
0
  6
CONTINUOUS
 10
3.582040
 20
5.949240
  0
VERTEX
  8
0
  6
CONTINUOUS
 10
3.558720
 20
6.011280
  0
SEQEND
  8
0
  0
SOLID
  8
0
 62
    15
 10
3.582040
 20
5.949240
 11
3.587760
 21
6.692400
 12
3.616360
 22
5.885880
 13
3.622080
 23
6.629040
  0
POLYLINE
  8
0
  6
CONTINUOUS
 66
     1
 40
0.000000
 41
0.000000
  0
VERTEX
  8
0
  6
CONTINUOUS
 10
3.582040
 20
5.949240
  0
VERTEX
  8
0
  6
CONTINUOUS
 10
3.587760
 20
6.692400
  0
VERTEX
  8
0
  6
CONTINUOUS
 10
3.622080
 20
6.629040
  0
VERTEX
  8
0
  6
CONTINUOUS
 10
3.616360
 20
5.885880
  0
VERTEX
  8
0
  6
CONTINUOUS
 10
3.582040
 20
5.949240
  0
SEQEND
  8
0
  0
SOLID
  8
0
 62
    15
 10
3.616360
 20
5.885880
 11
3.622080
 21
6.629040
 12
3.661240
 22
5.825160
 13
3.667400
 23
6.568320
  0
POLYLINE
  8
0
  6
CONTINUOUS
 66
     1
 40
0.000000
 41
0.000000
  0
VERTEX
  8
0
  6
CONTINUOUS
 10
3.616360
 20
5.885880
  0
VERTEX
  8
0
  6
CONTINUOUS
 10
3.622080
 20
6.629040
  0
VERTEX
  8
0
  6
CONTINUOUS
 10
3.667400
 20
6.568320
  0
VERTEX
  8
0
  6
CONTINUOUS
 10
3.661240
 20
5.825160
  0
VERTEX
  8
0
  6
CONTINUOUS
 10
3.616360
 20
5.885880
  0
SEQEND
  8
0
  0
SOLID
  8
0
 62
    15
 10
3.661240
 20
5.825160
 11
3.667400
 21
6.568320
 12
3.715360
 22
5.771040
 13
3.721080
 23
6.513760
  0
POLYLINE
  8
0
  6
CONTINUOUS
 66
     1
 40
0.000000
 41
0.000000
  0
VERTEX
  8
0
  6
CONTINUOUS
 10
3.661240
 20
5.825160
  0
VERTEX
  8
0
  6
CONTINUOUS
 10
3.667400
 20
6.568320
  0
VERTEX
  8
0
  6
CONTINUOUS
 10
3.721080
 20
6.513760
  0
VERTEX
  8
0
  6
CONTINUOUS
 10
3.715360
 20
5.771040
  0
VERTEX
  8
0
  6
CONTINUOUS
 10
3.661240
 20
5.825160
  0
SEQEND
  8
0
  0
SOLID
  8
0
 62
    15
 10
3.715360
 20
5.771040
 11
3.721080
 21
6.513760
 12
3.776520
 22
5.727480
 13
3.782240
 23
6.470200
  0
POLYLINE
  8
0
  6
CONTINUOUS
 66
     1
 40
0.000000
 41
0.000000
  0
VERTEX
  8
0
  6
CONTINUOUS
 10
3.715360
 20
5.771040
  0
VERTEX
  8
0
  6
CONTINUOUS
 10
3.721080
 20
6.513760
  0
VERTEX
  8
0
  6
CONTINUOUS
 10
3.782240
 20
6.470200
  0
VERTEX
  8
0
  6
CONTINUOUS
 10
3.776520
 20
5.727480
  0
VERTEX
  8
0
  6
CONTINUOUS
 10
3.715360
 20
5.771040
  0
SEQEND
  8
0
  0
SOLID
  8
0
 62
    15
 10
3.776520
 20
5.727480
 11
3.782240
 21
6.470200
 12
3.844280
 22
5.698440
 13
3.850000
 23
6.441160
  0
POLYLINE
  8
0
  6
CONTINUOUS
 66
     1
 40
0.000000
 41
0.000000
  0
VERTEX
  8
0
  6
CONTINUOUS
 10
3.776520
 20
5.727480
  0
VERTEX
  8
0
  6
CONTINUOUS
 10
3.782240
 20
6.470200
  0
VERTEX
  8
0
  6
CONTINUOUS
 10
3.850000
 20
6.441160
  0
VERTEX
  8
0
  6
CONTINUOUS
 10
3.844280
 20
5.698440
  0
VERTEX
  8
0
  6
CONTINUOUS
 10
3.776520
 20
5.727480
  0
SEQEND
  8
0
  0
SOLID
  8
0
 62
    15
 10
3.916440
 20
5.687880
 11
3.922600
 21
6.431040
 12
3.924360
 22
5.687880
 13
3.930080
 23
6.431040
  0
POLYLINE
  8
0
  6
CONTINUOUS
 66
     1
 40
0.000000
 41
0.000000
  0
VERTEX
  8
0
  6
CONTINUOUS
 10
3.916440
 20
5.687880
  0
VERTEX
  8
0
  6
CONTINUOUS
 10
3.922600
 20
6.431040
  0
VERTEX
  8
0
  6
CONTINUOUS
 10
3.930080
 20
6.431040
  0
VERTEX
  8
0
  6
CONTINUOUS
 10
3.924360
 20
5.687880
  0
VERTEX
  8
0
  6
CONTINUOUS
 10
3.916440
 20
5.687880
  0
SEQEND
  8
0
  0
POLYLINE
  8
0
  6
CONTINUOUS
 66
     1
 40
0.000000
 41
0.000000
  0
VERTEX
  8
0
  6
CONTINUOUS
 10
3.916440
 20
5.687880
  0
VERTEX
  8
0
  6
CONTINUOUS
 10
3.924360
 20
5.687880
  0
VERTEX
  8
0
  6
CONTINUOUS
 10
3.924360
 20
5.489440
  0
VERTEX
  8
0
  6
CONTINUOUS
 10
3.388440
 20
5.489440
  0
VERTEX
  8
0
  6
CONTINUOUS
 10
3.388440
 20
4.442680
  0
VERTEX
  8
0
  6
CONTINUOUS
 10
1.426480
 20
4.442680
  0
VERTEX
  8
0
  6
CONTINUOUS
 10
1.426480
 20
5.596800
  0
VERTEX
  8
0
  6
CONTINUOUS
 10
1.736240
 20
5.596800
  0
VERTEX
  8
0
  6
CONTINUOUS
 10
1.745920
 20
5.694040
  0
VERTEX
  8
0
  6
CONTINUOUS
 10
1.772320
 20
5.782920
  0
VERTEX
  8
0
  6
CONTINUOUS
 10
1.813240
 20
5.862560
  0
VERTEX
  8
0
  6
CONTINUOUS
 10
1.866480
 20
5.930760
  0
VERTEX
  8
0
  6
CONTINUOUS
 10
1.928960
 20
5.986640
  0
VERTEX
  8
0
  6
CONTINUOUS
 10
1.997600
 20
6.028440
  0
VERTEX
  8
0
  6
CONTINUOUS
 10
2.071080
 20
6.054840
  0
VERTEX
  8
0
  6
CONTINUOUS
 10
2.145440
 20
6.063640
  0
VERTEX
  8
0
  6
CONTINUOUS
 10
2.829640
 20
6.063640
  0
VERTEX
  8
0
  6
CONTINUOUS
 10
2.829640
 20
6.191680
  0
VERTEX
  8
0
  6
CONTINUOUS
 10
3.371280
 20
6.191680
  0
VERTEX
  8
0
  6
CONTINUOUS
 10
3.371280
 20
6.068040
  0
VERTEX
  8
0
  6
CONTINUOUS
 10
3.548600
 20
6.068040
  0
VERTEX
  8
0
  6
CONTINUOUS
 10
3.558720
 20
6.011280
  0
VERTEX
  8
0
  6
CONTINUOUS
 10
3.582040
 20
5.949240
  0
VERTEX
  8
0
  6
CONTINUOUS
 10
3.616360
 20
5.885880
  0
VERTEX
  8
0
  6
CONTINUOUS
 10
3.661240
 20
5.825160
  0
VERTEX
  8
0
  6
CONTINUOUS
 10
3.715360
 20
5.771040
  0
VERTEX
  8
0
  6
CONTINUOUS
 10
3.776520
 20
5.727480
  0
VERTEX
  8
0
  6
CONTINUOUS
 10
3.844280
 20
5.698440
  0
VERTEX
  8
0
  6
CONTINUOUS
 10
3.916440
 20
5.687440
  0
VERTEX
  8
0
  6
CONTINUOUS
 10
3.916440
 20
5.687880
  0
SEQEND
  8
0
  0
SOLID
  8
0
 62
    15
 10
1.143560
 20
5.266360
 11
1.144440
 21
5.998960
 12
1.161160
 22
5.282640
 13
1.162040
 23
6.015240
  0
POLYLINE
  8
0
  6
CONTINUOUS
 66
     1
 40
0.000000
 41
0.000000
  0
VERTEX
  8
0
  6
CONTINUOUS
 10
1.143560
 20
5.266360
  0
VERTEX
  8
0
  6
CONTINUOUS
 10
1.144440
 20
5.998960
  0
VERTEX
  8
0
  6
CONTINUOUS
 10
1.162040
 20
6.015240
  0
VERTEX
  8
0
  6
CONTINUOUS
 10
1.161160
 20
5.282640
  0
VERTEX
  8
0
  6
CONTINUOUS
 10
1.143560
 20
5.266360
  0
SEQEND
  8
0
  0
SOLID
  8
0
 62
    15
 10
0.954360
 20
4.986520
 11
0.955240
 21
5.719120
 12
0.977240
 22
4.997080
 13
0.977680
 23
5.729680
  0
POLYLINE
  8
0
  6
CONTINUOUS
 66
     1
 40
0.000000
 41
0.000000
  0
VERTEX
  8
0
  6
CONTINUOUS
 10
0.954360
 20
4.986520
  0
VERTEX
  8
0
  6
CONTINUOUS
 10
0.955240
 20
5.719120
  0
VERTEX
  8
0
  6
CONTINUOUS
 10
0.977680
 20
5.729680
  0
VERTEX
  8
0
  6
CONTINUOUS
 10
0.977240
 20
4.997080
  0
VERTEX
  8
0
  6
CONTINUOUS
 10
0.954360
 20
4.986520
  0
SEQEND
  8
0
  0
SOLID
  8
0
 62
    15
 10
0.977240
 20
4.997080
 11
0.977680
 21
5.729680
 12
0.997040
 22
5.009840
 13
0.997920
 23
5.742440
  0
POLYLINE
  8
0
  6
CONTINUOUS
 66
     1
 40
0.000000
 41
0.000000
  0
VERTEX
  8
0
  6
CONTINUOUS
 10
0.977240
 20
4.997080
  0
VERTEX
  8
0
  6
CONTINUOUS
 10
0.977680
 20
5.729680
  0
VERTEX
  8
0
  6
CONTINUOUS
 10
0.997920
 20
5.742440
  0
VERTEX
  8
0
  6
CONTINUOUS
 10
0.997040
 20
5.009840
  0
VERTEX
  8
0
  6
CONTINUOUS
 10
0.977240
 20
4.997080
  0
SEQEND
  8
0
  0
SOLID
  8
0
 62
    15
 10
0.997040
 20
5.009840
 11
0.997920
 21
5.742440
 12
1.014640
 22
5.023920
 13
1.015520
 23
5.756520
  0
POLYLINE
  8
0
  6
CONTINUOUS
 66
     1
 40
0.000000
 41
0.000000
  0
VERTEX
  8
0
  6
CONTINUOUS
 10
0.997040
 20
5.009840
  0
VERTEX
  8
0
  6
CONTINUOUS
 10
0.997920
 20
5.742440
  0
VERTEX
  8
0
  6
CONTINUOUS
 10
1.015520
 20
5.756520
  0
VERTEX
  8
0
  6
CONTINUOUS
 10
1.014640
 20
5.023920
  0
VERTEX
  8
0
  6
CONTINUOUS
 10
0.997040
 20
5.009840
  0
SEQEND
  8
0
  0
SOLID
  8
0
 62
    15
 10
1.014640
 20
5.023920
 11
1.015520
 21
5.756520
 12
1.044120
 22
5.056040
 13
1.045000
 23
5.789080
  0
POLYLINE
  8
0
  6
CONTINUOUS
 66
     1
 40
0.000000
 41
0.000000
  0
VERTEX
  8
0
  6
CONTINUOUS
 10
1.014640
 20
5.023920
  0
VERTEX
  8
0
  6
CONTINUOUS
 10
1.015520
 20
5.756520
  0
VERTEX
  8
0
  6
CONTINUOUS
 10
1.045000
 20
5.789080
  0
VERTEX
  8
0
  6
CONTINUOUS
 10
1.044120
 20
5.056040
  0
VERTEX
  8
0
  6
CONTINUOUS
 10
1.014640
 20
5.023920
  0
SEQEND
  8
0
  0
SOLID
  8
0
 62
    15
 10
1.044120
 20
5.056040
 11
1.045000
 21
5.789080
 12
1.066560
 22
5.092120
 13
1.067440
 23
5.824720
  0
POLYLINE
  8
0
  6
CONTINUOUS
 66
     1
 40
0.000000
 41
0.000000
  0
VERTEX
  8
0
  6
CONTINUOUS
 10
1.044120
 20
5.056040
  0
VERTEX
  8
0
  6
CONTINUOUS
 10
1.045000
 20
5.789080
  0
VERTEX
  8
0
  6
CONTINUOUS
 10
1.067440
 20
5.824720
  0
VERTEX
  8
0
  6
CONTINUOUS
 10
1.066560
 20
5.092120
  0
VERTEX
  8
0
  6
CONTINUOUS
 10
1.044120
 20
5.056040
  0
SEQEND
  8
0
  0
SOLID
  8
0
 62
    15
 10
1.066560
 20
5.092120
 11
1.067440
 21
5.824720
 12
1.083720
 22
5.129080
 13
1.084600
 23
5.861680
  0
POLYLINE
  8
0
  6
CONTINUOUS
 66
     1
 40
0.000000
 41
0.000000
  0
VERTEX
  8
0
  6
CONTINUOUS
 10
1.066560
 20
5.092120
  0
VERTEX
  8
0
  6
CONTINUOUS
 10
1.067440
 20
5.824720
  0
VERTEX
  8
0
  6
CONTINUOUS
 10
1.084600
 20
5.861680
  0
VERTEX
  8
0
  6
CONTINUOUS
 10
1.083720
 20
5.129080
  0
VERTEX
  8
0
  6
CONTINUOUS
 10
1.066560
 20
5.092120
  0
SEQEND
  8
0
  0
SOLID
  8
0
 62
    15
 10
1.083720
 20
5.129080
 11
1.084600
 21
5.861680
 12
1.097360
 22
5.164720
 13
1.098240
 23
5.897760
  0
POLYLINE
  8
0
  6
CONTINUOUS
 66
     1
 40
0.000000
 41
0.000000
  0
VERTEX
  8
0
  6
CONTINUOUS
 10
1.083720
 20
5.129080
  0
VERTEX
  8
0
  6
CONTINUOUS
 10
1.084600
 20
5.861680
  0
VERTEX
  8
0
  6
CONTINUOUS
 10
1.098240
 20
5.897760
  0
VERTEX
  8
0
  6
CONTINUOUS
 10
1.097360
 20
5.164720
  0
VERTEX
  8
0
  6
CONTINUOUS
 10
1.083720
 20
5.129080
  0
SEQEND
  8
0
  0
SOLID
  8
0
 62
    15
 10
1.097360
 20
5.164720
 11
1.098240
 21
5.897760
 12
1.108800
 22
5.197720
 13
1.109680
 23
5.930320
  0
POLYLINE
  8
0
  6
CONTINUOUS
 66
     1
 40
0.000000
 41
0.000000
  0
VERTEX
  8
0
  6
CONTINUOUS
 10
1.097360
 20
5.164720
  0
VERTEX
  8
0
  6
CONTINUOUS
 10
1.098240
 20
5.897760
  0
VERTEX
  8
0
  6
CONTINUOUS
 10
1.109680
 20
5.930320
  0
VERTEX
  8
0
  6
CONTINUOUS
 10
1.108800
 20
5.197720
  0
VERTEX
  8
0
  6
CONTINUOUS
 10
1.097360
 20
5.164720
  0
SEQEND
  8
0
  0
SOLID
  8
0
 62
    15
 10
1.108800
 20
5.197720
 11
1.109680
 21
5.930320
 12
1.119800
 22
5.225000
 13
1.120680
 23
5.957600
  0
POLYLINE
  8
0
  6
CONTINUOUS
 66
     1
 40
0.000000
 41
0.000000
  0
VERTEX
  8
0
  6
CONTINUOUS
 10
1.108800
 20
5.197720
  0
VERTEX
  8
0
  6
CONTINUOUS
 10
1.109680
 20
5.930320
  0
VERTEX
  8
0
  6
CONTINUOUS
 10
1.120680
 20
5.957600
  0
VERTEX
  8
0
  6
CONTINUOUS
 10
1.119800
 20
5.225000
  0
VERTEX
  8
0
  6
CONTINUOUS
 10
1.108800
 20
5.197720
  0
SEQEND
  8
0
  0
SOLID
  8
0
 62
    15
 10
1.119800
 20
5.225000
 11
1.120680
 21
5.957600
 12
1.130800
 22
5.247000
 13
1.131680
 23
5.980040
  0
POLYLINE
  8
0
  6
CONTINUOUS
 66
     1
 40
0.000000
 41
0.000000
  0
VERTEX
  8
0
  6
CONTINUOUS
 10
1.119800
 20
5.225000
  0
VERTEX
  8
0
  6
CONTINUOUS
 10
1.120680
 20
5.957600
  0
VERTEX
  8
0
  6
CONTINUOUS
 10
1.131680
 20
5.980040
  0
VERTEX
  8
0
  6
CONTINUOUS
 10
1.130800
 20
5.247000
  0
VERTEX
  8
0
  6
CONTINUOUS
 10
1.119800
 20
5.225000
  0
SEQEND
  8
0
  0
SOLID
  8
0
 62
    15
 10
1.130800
 20
5.247000
 11
1.131680
 21
5.980040
 12
1.143560
 22
5.266360
 13
1.144440
 23
5.998960
  0
POLYLINE
  8
0
  6
CONTINUOUS
 66
     1
 40
0.000000
 41
0.000000
  0
VERTEX
  8
0
  6
CONTINUOUS
 10
1.130800
 20
5.247000
  0
VERTEX
  8
0
  6
CONTINUOUS
 10
1.131680
 20
5.980040
  0
VERTEX
  8
0
  6
CONTINUOUS
 10
1.144440
 20
5.998960
  0
VERTEX
  8
0
  6
CONTINUOUS
 10
1.143560
 20
5.266360
  0
VERTEX
  8
0
  6
CONTINUOUS
 10
1.130800
 20
5.247000
  0
SEQEND
  8
0
  0
SOLID
  8
0
 62
    15
 10
0.929280
 20
4.978160
 11
0.930160
 21
5.710760
 12
0.954360
 22
4.986520
 13
0.955240
 23
5.719120
  0
POLYLINE
  8
0
  6
CONTINUOUS
 66
     1
 40
0.000000
 41
0.000000
  0
VERTEX
  8
0
  6
CONTINUOUS
 10
0.929280
 20
4.978160
  0
VERTEX
  8
0
  6
CONTINUOUS
 10
0.930160
 20
5.710760
  0
VERTEX
  8
0
  6
CONTINUOUS
 10
0.955240
 20
5.719120
  0
VERTEX
  8
0
  6
CONTINUOUS
 10
0.954360
 20
4.986520
  0
VERTEX
  8
0
  6
CONTINUOUS
 10
0.929280
 20
4.978160
  0
SEQEND
  8
0
  0
SOLID
  8
0
 62
    15
 10
1.161160
 20
5.282640
 11
1.162040
 21
6.015240
 12
1.173040
 22
5.289680
 13
1.173480
 23
6.022280
  0
POLYLINE
  8
0
  6
CONTINUOUS
 66
     1
 40
0.000000
 41
0.000000
  0
VERTEX
  8
0
  6
CONTINUOUS
 10
1.161160
 20
5.282640
  0
VERTEX
  8
0
  6
CONTINUOUS
 10
1.162040
 20
6.015240
  0
VERTEX
  8
0
  6
CONTINUOUS
 10
1.173480
 20
6.022280
  0
VERTEX
  8
0
  6
CONTINUOUS
 10
1.173040
 20
5.289680
  0
VERTEX
  8
0
  6
CONTINUOUS
 10
1.161160
 20
5.282640
  0
SEQEND
  8
0
  0
SOLID
  8
0
 62
    15
 10
1.173040
 20
5.289680
 11
1.173480
 21
6.022280
 12
1.186680
 22
5.295840
 13
1.187560
 23
6.028440
  0
POLYLINE
  8
0
  6
CONTINUOUS
 66
     1
 40
0.000000
 41
0.000000
  0
VERTEX
  8
0
  6
CONTINUOUS
 10
1.173040
 20
5.289680
  0
VERTEX
  8
0
  6
CONTINUOUS
 10
1.173480
 20
6.022280
  0
VERTEX
  8
0
  6
CONTINUOUS
 10
1.187560
 20
6.028440
  0
VERTEX
  8
0
  6
CONTINUOUS
 10
1.186680
 20
5.295840
  0
VERTEX
  8
0
  6
CONTINUOUS
 10
1.173040
 20
5.289680
  0
SEQEND
  8
0
  0
SOLID
  8
0
 62
    15
 10
1.186680
 20
5.295840
 11
1.187560
 21
6.028440
 12
1.203400
 22
5.301560
 13
1.204280
 23
6.034160
  0
POLYLINE
  8
0
  6
CONTINUOUS
 66
     1
 40
0.000000
 41
0.000000
  0
VERTEX
  8
0
  6
CONTINUOUS
 10
1.186680
 20
5.295840
  0
VERTEX
  8
0
  6
CONTINUOUS
 10
1.187560
 20
6.028440
  0
VERTEX
  8
0
  6
CONTINUOUS
 10
1.204280
 20
6.034160
  0
VERTEX
  8
0
  6
CONTINUOUS
 10
1.203400
 20
5.301560
  0
VERTEX
  8
0
  6
CONTINUOUS
 10
1.186680
 20
5.295840
  0
SEQEND
  8
0
  0
SOLID
  8
0
 62
    15
 10
1.203400
 20
5.301560
 11
1.204280
 21
6.034160
 12
1.223200
 22
5.306400
 13
1.224080
 23
6.039000
  0
POLYLINE
  8
0
  6
CONTINUOUS
 66
     1
 40
0.000000
 41
0.000000
  0
VERTEX
  8
0
  6
CONTINUOUS
 10
1.203400
 20
5.301560
  0
VERTEX
  8
0
  6
CONTINUOUS
 10
1.204280
 20
6.034160
  0
VERTEX
  8
0
  6
CONTINUOUS
 10
1.224080
 20
6.039000
  0
VERTEX
  8
0
  6
CONTINUOUS
 10
1.223200
 20
5.306400
  0
VERTEX
  8
0
  6
CONTINUOUS
 10
1.203400
 20
5.301560
  0
SEQEND
  8
0
  0
SOLID
  8
0
 62
    15
 10
1.223200
 20
5.306400
 11
1.224080
 21
6.039000
 12
1.246520
 22
5.310800
 13
1.247400
 23
6.043400
  0
POLYLINE
  8
0
  6
CONTINUOUS
 66
     1
 40
0.000000
 41
0.000000
  0
VERTEX
  8
0
  6
CONTINUOUS
 10
1.223200
 20
5.306400
  0
VERTEX
  8
0
  6
CONTINUOUS
 10
1.224080
 20
6.039000
  0
VERTEX
  8
0
  6
CONTINUOUS
 10
1.247400
 20
6.043400
  0
VERTEX
  8
0
  6
CONTINUOUS
 10
1.246520
 20
5.310800
  0
VERTEX
  8
0
  6
CONTINUOUS
 10
1.223200
 20
5.306400
  0
SEQEND
  8
0
  0
SOLID
  8
0
 62
    15
 10
1.246520
 20
5.310800
 11
1.247400
 21
6.043400
 12
1.273800
 22
5.314320
 13
1.274680
 23
6.046920
  0
POLYLINE
  8
0
  6
CONTINUOUS
 66
     1
 40
0.000000
 41
0.000000
  0
VERTEX
  8
0
  6
CONTINUOUS
 10
1.246520
 20
5.310800
  0
VERTEX
  8
0
  6
CONTINUOUS
 10
1.247400
 20
6.043400
  0
VERTEX
  8
0
  6
CONTINUOUS
 10
1.274680
 20
6.046920
  0
VERTEX
  8
0
  6
CONTINUOUS
 10
1.273800
 20
5.314320
  0
VERTEX
  8
0
  6
CONTINUOUS
 10
1.246520
 20
5.310800
  0
SEQEND
  8
0
  0
SOLID
  8
0
 62
    15
 10
1.273800
 20
5.314320
 11
1.274680
 21
6.046920
 12
1.305480
 22
5.316960
 13
1.306360
 23
6.050000
  0
POLYLINE
  8
0
  6
CONTINUOUS
 66
     1
 40
0.000000
 41
0.000000
  0
VERTEX
  8
0
  6
CONTINUOUS
 10
1.273800
 20
5.314320
  0
VERTEX
  8
0
  6
CONTINUOUS
 10
1.274680
 20
6.046920
  0
VERTEX
  8
0
  6
CONTINUOUS
 10
1.306360
 20
6.050000
  0
VERTEX
  8
0
  6
CONTINUOUS
 10
1.305480
 20
5.316960
  0
VERTEX
  8
0
  6
CONTINUOUS
 10
1.273800
 20
5.314320
  0
SEQEND
  8
0
  0
SOLID
  8
0
 62
    15
 10
1.305480
 20
5.316960
 11
1.306360
 21
6.050000
 12
1.342000
 22
5.319160
 13
1.342880
 23
6.052200
  0
POLYLINE
  8
0
  6
CONTINUOUS
 66
     1
 40
0.000000
 41
0.000000
  0
VERTEX
  8
0
  6
CONTINUOUS
 10
1.305480
 20
5.316960
  0
VERTEX
  8
0
  6
CONTINUOUS
 10
1.306360
 20
6.050000
  0
VERTEX
  8
0
  6
CONTINUOUS
 10
1.342880
 20
6.052200
  0
VERTEX
  8
0
  6
CONTINUOUS
 10
1.342000
 20
5.319160
  0
VERTEX
  8
0
  6
CONTINUOUS
 10
1.305480
 20
5.316960
  0
SEQEND
  8
0
  0
SOLID
  8
0
 62
    15
 10
1.342000
 20
5.319160
 11
1.342880
 21
6.052200
 12
1.383360
 22
5.320920
 13
1.384240
 23
6.053520
  0
POLYLINE
  8
0
  6
CONTINUOUS
 66
     1
 40
0.000000
 41
0.000000
  0
VERTEX
  8
0
  6
CONTINUOUS
 10
1.342000
 20
5.319160
  0
VERTEX
  8
0
  6
CONTINUOUS
 10
1.342880
 20
6.052200
  0
VERTEX
  8
0
  6
CONTINUOUS
 10
1.384240
 20
6.053520
  0
VERTEX
  8
0
  6
CONTINUOUS
 10
1.383360
 20
5.320920
  0
VERTEX
  8
0
  6
CONTINUOUS
 10
1.342000
 20
5.319160
  0
SEQEND
  8
0
  0
SOLID
  8
0
 62
    15
 10
1.430000
 20
5.310800
 11
1.430880
 21
6.043840
 12
1.430000
 22
5.115000
 13
1.430440
 23
5.848040
  0
POLYLINE
  8
0
  6
CONTINUOUS
 66
     1
 40
0.000000
 41
0.000000
  0
VERTEX
  8
0
  6
CONTINUOUS
 10
1.430000
 20
5.310800
  0
VERTEX
  8
0
  6
CONTINUOUS
 10
1.430880
 20
6.043840
  0
VERTEX
  8
0
  6
CONTINUOUS
 10
1.430440
 20
5.848040
  0
VERTEX
  8
0
  6
CONTINUOUS
 10
1.430000
 20
5.115000
  0
VERTEX
  8
0
  6
CONTINUOUS
 10
1.430000
 20
5.310800
  0
SEQEND
  8
0
  0
SOLID
  8
0
 62
    15
 10
1.430000
 20
5.115000
 11
1.430440
 21
5.848040
 12
1.430000
 22
4.443560
 13
1.430880
 23
5.176600
  0
POLYLINE
  8
0
  6
CONTINUOUS
 66
     1
 40
0.000000
 41
0.000000
  0
VERTEX
  8
0
  6
CONTINUOUS
 10
1.430000
 20
5.115000
  0
VERTEX
  8
0
  6
CONTINUOUS
 10
1.430440
 20
5.848040
  0
VERTEX
  8
0
  6
CONTINUOUS
 10
1.430880
 20
5.176600
  0
VERTEX
  8
0
  6
CONTINUOUS
 10
1.430000
 20
4.443560
  0
VERTEX
  8
0
  6
CONTINUOUS
 10
1.430000
 20
5.115000
  0
SEQEND
  8
0
  0
SOLID
  8
0
 62
    15
 10
1.383360
 20
5.320920
 11
1.384240
 21
6.053520
 12
1.430000
 22
5.321800
 13
1.430880
 23
6.054840
  0
POLYLINE
  8
0
  6
CONTINUOUS
 66
     1
 40
0.000000
 41
0.000000
  0
VERTEX
  8
0
  6
CONTINUOUS
 10
1.383360
 20
5.320920
  0
VERTEX
  8
0
  6
CONTINUOUS
 10
1.384240
 20
6.053520
  0
VERTEX
  8
0
  6
CONTINUOUS
 10
1.430880
 20
6.054840
  0
VERTEX
  8
0
  6
CONTINUOUS
 10
1.430000
 20
5.321800
  0
VERTEX
  8
0
  6
CONTINUOUS
 10
1.383360
 20
5.320920
  0
SEQEND
  8
0
  0
POLYLINE
  8
0
  6
CONTINUOUS
 66
     1
 40
0.000000
 41
0.000000
  0
VERTEX
  8
0
  6
CONTINUOUS
 10
0.929280
 20
4.978160
  0
VERTEX
  8
0
  6
CONTINUOUS
 10
0.954360
 20
4.986520
  0
VERTEX
  8
0
  6
CONTINUOUS
 10
0.977240
 20
4.997080
  0
VERTEX
  8
0
  6
CONTINUOUS
 10
0.997040
 20
5.009840
  0
VERTEX
  8
0
  6
CONTINUOUS
 10
1.014640
 20
5.023920
  0
VERTEX
  8
0
  6
CONTINUOUS
 10
1.044120
 20
5.056040
  0
VERTEX
  8
0
  6
CONTINUOUS
 10
1.066560
 20
5.092120
  0
VERTEX
  8
0
  6
CONTINUOUS
 10
1.083720
 20
5.129080
  0
VERTEX
  8
0
  6
CONTINUOUS
 10
1.097360
 20
5.164720
  0
VERTEX
  8
0
  6
CONTINUOUS
 10
1.108800
 20
5.197720
  0
VERTEX
  8
0
  6
CONTINUOUS
 10
1.119800
 20
5.225000
  0
VERTEX
  8
0
  6
CONTINUOUS
 10
1.130800
 20
5.247000
  0
VERTEX
  8
0
  6
CONTINUOUS
 10
1.143560
 20
5.266360
  0
VERTEX
  8
0
  6
CONTINUOUS
 10
1.161160
 20
5.282640
  0
VERTEX
  8
0
  6
CONTINUOUS
 10
1.173040
 20
5.289680
  0
VERTEX
  8
0
  6
CONTINUOUS
 10
1.186680
 20
5.295840
  0
VERTEX
  8
0
  6
CONTINUOUS
 10
1.203400
 20
5.301560
  0
VERTEX
  8
0
  6
CONTINUOUS
 10
1.223200
 20
5.306400
  0
VERTEX
  8
0
  6
CONTINUOUS
 10
1.246520
 20
5.310800
  0
VERTEX
  8
0
  6
CONTINUOUS
 10
1.273800
 20
5.314320
  0
VERTEX
  8
0
  6
CONTINUOUS
 10
1.305480
 20
5.316960
  0
VERTEX
  8
0
  6
CONTINUOUS
 10
1.342000
 20
5.319160
  0
VERTEX
  8
0
  6
CONTINUOUS
 10
1.383360
 20
5.320920
  0
VERTEX
  8
0
  6
CONTINUOUS
 10
1.430000
 20
5.321800
  0
VERTEX
  8
0
  6
CONTINUOUS
 10
1.430000
 20
5.310800
  0
VERTEX
  8
0
  6
CONTINUOUS
 10
1.430000
 20
5.115000
  0
VERTEX
  8
0
  6
CONTINUOUS
 10
1.430000
 20
4.443560
  0
VERTEX
  8
0
  6
CONTINUOUS
 10
0.929280
 20
4.443560
  0
VERTEX
  8
0
  6
CONTINUOUS
 10
0.929280
 20
4.978160
  0
SEQEND
  8
0
  0
TEXT
  8
0
 10
1.508320
 20
4.558400
 40
0.138219
  1
A
 41
1.000000
  7
SN0
 71
     0
 72
     5
 11
1.619245
 21
4.558400
  0
TEXT
  8
0
 10
1.011560
 20
4.565440
 40
0.138219
  1
C
 41
1.000000
  7
SN0
 71
     0
 72
     5
 11
1.131785
 21
4.565440
  0
TEXT
  8
0
 10
1.382040
 20
4.217400
 40
0.138219
  1
BA  693A 1-3/4" x 2-1/2"
 41
1.000000
  7
SN0
 71
     0
 72
     5
 11
3.176773
 21
4.217400
  0
TEXT
  8
0
 10
1.382040
 20
4.025560
 40
0.138219
  1
BA  693C 1/2 x 7/8"
 41
1.000000
  7
SN0
 71
     0
 72
     5
 11
2.832373
 21
4.025560
  0
ENDSEC
  0
EOF
