  0
SECTION
  2
HEADER
  9
$ACADVER
  1
AC1006
  9
$EXTMIN
 10
3.262160
 20
0.581240
  9
$EXTMAX
 10
7.628280
 20
6.117320
  9
$LTSCALE
 40
0.044000
  9
$PDMODE
 70
    35
  9
$PDSIZE
 40
0.035200
  0
ENDSEC
  0
SECTION
  2
TABLES
  0
TABLE
  2
LTYPE
 70
     9
  0
LTYPE
  2
CONTINUOUS
 70
    64
  3
Solid line
 72
    65
 73
     0
 40
0.000000
  0
LTYPE
  2
DASHED
 70
    64
  3
__ __ __ __ __ __ __ __ __ __ __ __ __ __ __
 72
    65
 73
     2
 40
0.000330
 49
0.000220
 49
-0.000110
  0
LTYPE
  2
HIDDEN
 70
    64
  3
 _ _ _ _ _ _ _ _ _ _ _ _ _ _ _ _ _ _ _ _ _ _
 72
    65
 73
     2
 40
0.000165
 49
0.000110
 49
-0.000055
  0
LTYPE
  2
CENTER
 70
    64
  3
____ _ ____ _ ____ _ ____ _ ____ _ ____ _ ____
 72
    65
 73
     4
 40
0.000880
 49
0.000550
 49
-0.000110
 49
0.000110
 49
-0.000110
  0
LTYPE
  2
PHANTOM
 70
    64
  3
_____ _ _ _____ _ _ _____ _ _ _____ _ _ ____
 72
    65
 73
     6
 40
0.001100
 49
0.000550
 49
-0.000110
 49
0.000110
 49
-0.000110
 49
0.000110
 49
-0.000110
  0
LTYPE
  2
DOT
 70
    64
  3
...............................................
 72
    65
 73
     2
 40
0.000110
 49
0.000000
 49
-0.000110
  0
LTYPE
  2
DASHDOT
 70
    64
  3
__ . __ . __ . __ . __ . __ . __ . __ . __ . __
 72
    65
 73
     4
 40
0.000440
 49
0.000220
 49
-0.000110
 49
0.000000
 49
-0.000110
  0
LTYPE
  2
BORDER
 70
    64
  3
__ __ . __ __ . __ __ . __ __ . __ __ . __ __
 72
    65
 73
     6
 40
0.000770
 49
0.000220
 49
-0.000110
 49
0.000220
 49
-0.000110
 49
0.000000
 49
-0.000110
  0
LTYPE
  2
DIVIDE
 70
    64
  3
__ . . __ . . __ . . __ . . __ . . __ . . __
 72
    65
 73
     6
 40
0.000550
 49
0.000220
 49
-0.000110
 49
0.000000
 49
-0.000110
 49
0.000000
 49
-0.000110
  0
LTYPE
  2
DOTDOT
 70
    64
  3
 . .  . .  . .  . .  . .  . . 
 72
    65
 73
     5
 40
0.000242
 49
-0.000110
 49
0.000000
 49
-0.000110
 49
0.000000
 49
-0.000110
  0
ENDTAB
  0
TABLE
  2
STYLE
 70
     2
  0
STYLE
 70
     0
  2
SN0
 40
0.000000
 41
0.000440
 50
0.000000
 71
     0
 42
0.000000
  3
ROMAND
  0
STYLE
 70
    68
  2
SV0
 40
0.000000
 41
0.000440
 50
0.000000
 71
     0
 42
0.000000
  3
ROMAND
  0
ENDTAB
  0
TABLE
  2
LAYER
 70
     3
  0
LAYER
  2
FOREGROUND
 70
    64
 62
     7
  6
CONTINUOUS
  0
LAYER
  2
BACKGROUND
 70
    65
 62
    -7
  6
CONTINUOUS
  0
LAYER
  2
0
 70
    64
 62
     7
  6
CONTINUOUS
  0
ENDTAB
  0
ENDSEC
  0
SECTION
  2
ENTITIES
  0
POLYLINE
  8
FOREGROUND
  6
CONTINUOUS
 66
     1
 40
0.000000
 41
0.000000
  0
VERTEX
  8
FOREGROUND
  6
CONTINUOUS
 10
0.000000
 20
6.698560
  0
VERTEX
  8
FOREGROUND
  6
CONTINUOUS
 10
8.499920
 20
6.698560
  0
VERTEX
  8
FOREGROUND
  6
CONTINUOUS
 10
8.499920
 20
-4.301440
  0
VERTEX
  8
FOREGROUND
  6
CONTINUOUS
 10
0.000000
 20
-4.301440
  0
VERTEX
  8
FOREGROUND
  6
CONTINUOUS
 10
0.000000
 20
6.698560
  0
SEQEND
  8
0
  0
POLYLINE
  8
FOREGROUND
  6
CONTINUOUS
 66
     1
 40
0.000000
 41
0.000000
  0
VERTEX
  8
FOREGROUND
  6
CONTINUOUS
 10
0.000000
 20
6.698560
  0
VERTEX
  8
FOREGROUND
  6
CONTINUOUS
 10
8.499920
 20
6.698560
  0
VERTEX
  8
FOREGROUND
  6
CONTINUOUS
 10
8.499920
 20
-4.301440
  0
VERTEX
  8
FOREGROUND
  6
CONTINUOUS
 10
0.000000
 20
-4.301440
  0
VERTEX
  8
FOREGROUND
  6
CONTINUOUS
 10
0.000000
 20
6.698560
  0
SEQEND
  8
0
  0
POLYLINE
  8
0
  6
CONTINUOUS
 66
     1
 40
0.014080
 41
0.014080
  0
VERTEX
  8
0
  6
CONTINUOUS
 10
6.849920
 20
5.280880
  0
VERTEX
  8
0
  6
CONTINUOUS
 10
7.373520
 20
5.230720
  0
VERTEX
  8
0
  6
CONTINUOUS
 10
7.373520
 20
4.789400
  0
VERTEX
  8
0
  6
CONTINUOUS
 10
6.843760
 20
4.747160
  0
VERTEX
  8
0
  6
CONTINUOUS
 10
6.842000
 20
3.850880
  0
VERTEX
  8
0
  6
CONTINUOUS
 10
3.669600
 20
3.850880
  0
VERTEX
  8
0
  6
CONTINUOUS
 10
3.669600
 20
4.744080
  0
VERTEX
  8
0
  6
CONTINUOUS
 10
4.193200
 20
4.785440
  0
VERTEX
  8
0
  6
CONTINUOUS
 10
4.193200
 20
5.226760
  0
VERTEX
  8
0
  6
CONTINUOUS
 10
3.659040
 20
5.278240
  0
VERTEX
  8
0
  6
CONTINUOUS
 10
3.659040
 20
6.109840
  0
VERTEX
  8
0
  6
CONTINUOUS
 10
3.679720
 20
6.109840
  0
VERTEX
  8
0
  6
CONTINUOUS
 10
6.842000
 20
6.109840
  0
VERTEX
  8
0
  6
CONTINUOUS
 10
6.843760
 20
5.280880
  0
VERTEX
  8
0
  6
CONTINUOUS
 10
6.849920
 20
5.280880
  0
SEQEND
  8
0
  0
SOLID
  8
0
 62
    15
 10
6.447320
 20
1.961520
 11
7.098080
 21
2.341240
 12
6.446000
 22
1.065240
 13
7.096760
 23
1.444960
  0
POLYLINE
  8
0
  6
CONTINUOUS
 66
     1
 40
0.000000
 41
0.000000
  0
VERTEX
  8
0
  6
CONTINUOUS
 10
6.447320
 20
1.961520
  0
VERTEX
  8
0
  6
CONTINUOUS
 10
7.098080
 20
2.341240
  0
VERTEX
  8
0
  6
CONTINUOUS
 10
7.096760
 20
1.444960
  0
VERTEX
  8
0
  6
CONTINUOUS
 10
6.446000
 20
1.065240
  0
VERTEX
  8
0
  6
CONTINUOUS
 10
6.447320
 20
1.961520
  0
SEQEND
  8
0
  0
SOLID
  8
0
 62
    15
 10
6.977080
 20
2.445080
 11
7.628280
 21
2.824800
 12
6.977080
 22
2.003320
 13
7.628280
 23
2.383480
  0
POLYLINE
  8
0
  6
CONTINUOUS
 66
     1
 40
0.000000
 41
0.000000
  0
VERTEX
  8
0
  6
CONTINUOUS
 10
6.977080
 20
2.445080
  0
VERTEX
  8
0
  6
CONTINUOUS
 10
7.628280
 20
2.824800
  0
VERTEX
  8
0
  6
CONTINUOUS
 10
7.628280
 20
2.383480
  0
VERTEX
  8
0
  6
CONTINUOUS
 10
6.977080
 20
2.003320
  0
VERTEX
  8
0
  6
CONTINUOUS
 10
6.977080
 20
2.445080
  0
SEQEND
  8
0
  0
SOLID
  8
0
 62
    15
 10
3.273160
 20
1.958440
 11
3.923920
 21
2.338600
 12
3.796760
 22
1.999800
 13
4.447520
 23
2.379520
  0
POLYLINE
  8
0
  6
CONTINUOUS
 66
     1
 40
0.000000
 41
0.000000
  0
VERTEX
  8
0
  6
CONTINUOUS
 10
3.273160
 20
1.958440
  0
VERTEX
  8
0
  6
CONTINUOUS
 10
3.923920
 20
2.338600
  0
VERTEX
  8
0
  6
CONTINUOUS
 10
4.447520
 20
2.379520
  0
VERTEX
  8
0
  6
CONTINUOUS
 10
3.796760
 20
1.999800
  0
VERTEX
  8
0
  6
CONTINUOUS
 10
3.273160
 20
1.958440
  0
SEQEND
  8
0
  0
SOLID
  8
0
 62
    15
 10
3.263040
 20
3.324200
 11
3.913800
 21
3.703920
 12
6.446000
 22
3.324200
 13
7.096760
 23
3.703920
  0
POLYLINE
  8
0
  6
CONTINUOUS
 66
     1
 40
0.000000
 41
0.000000
  0
VERTEX
  8
0
  6
CONTINUOUS
 10
3.263040
 20
3.324200
  0
VERTEX
  8
0
  6
CONTINUOUS
 10
3.913800
 20
3.703920
  0
VERTEX
  8
0
  6
CONTINUOUS
 10
7.096760
 20
3.703920
  0
VERTEX
  8
0
  6
CONTINUOUS
 10
6.446000
 20
3.324200
  0
VERTEX
  8
0
  6
CONTINUOUS
 10
3.263040
 20
3.324200
  0
SEQEND
  8
0
  0
SOLID
  8
0
 62
    15
 10
6.446000
 20
3.324200
 11
7.096760
 21
3.703920
 12
6.447320
 22
2.495240
 13
7.098080
 23
2.874960
  0
POLYLINE
  8
0
  6
CONTINUOUS
 66
     1
 40
0.000000
 41
0.000000
  0
VERTEX
  8
0
  6
CONTINUOUS
 10
6.446000
 20
3.324200
  0
VERTEX
  8
0
  6
CONTINUOUS
 10
7.096760
 20
3.703920
  0
VERTEX
  8
0
  6
CONTINUOUS
 10
7.098080
 20
2.874960
  0
VERTEX
  8
0
  6
CONTINUOUS
 10
6.447320
 20
2.495240
  0
VERTEX
  8
0
  6
CONTINUOUS
 10
6.446000
 20
3.324200
  0
SEQEND
  8
0
  0
SOLID
  8
0
 62
    15
 10
6.447320
 20
2.495240
 11
7.098080
 21
2.874960
 12
6.453480
 22
2.495240
 13
7.104240
 23
2.874960
  0
POLYLINE
  8
0
  6
CONTINUOUS
 66
     1
 40
0.000000
 41
0.000000
  0
VERTEX
  8
0
  6
CONTINUOUS
 10
6.447320
 20
2.495240
  0
VERTEX
  8
0
  6
CONTINUOUS
 10
7.098080
 20
2.874960
  0
VERTEX
  8
0
  6
CONTINUOUS
 10
7.104240
 20
2.874960
  0
VERTEX
  8
0
  6
CONTINUOUS
 10
6.453480
 20
2.495240
  0
VERTEX
  8
0
  6
CONTINUOUS
 10
6.447320
 20
2.495240
  0
SEQEND
  8
0
  0
SOLID
  8
0
 62
    15
 10
6.453480
 20
2.495240
 11
7.104240
 21
2.874960
 12
6.977080
 22
2.445080
 13
7.628280
 23
2.824800
  0
POLYLINE
  8
0
  6
CONTINUOUS
 66
     1
 40
0.000000
 41
0.000000
  0
VERTEX
  8
0
  6
CONTINUOUS
 10
6.453480
 20
2.495240
  0
VERTEX
  8
0
  6
CONTINUOUS
 10
7.104240
 20
2.874960
  0
VERTEX
  8
0
  6
CONTINUOUS
 10
7.628280
 20
2.824800
  0
VERTEX
  8
0
  6
CONTINUOUS
 10
6.977080
 20
2.445080
  0
VERTEX
  8
0
  6
CONTINUOUS
 10
6.453480
 20
2.495240
  0
SEQEND
  8
0
  0
POLYLINE
  8
0
  6
CONTINUOUS
 66
     1
 40
0.000000
 41
0.000000
  0
VERTEX
  8
0
  6
CONTINUOUS
 10
6.453480
 20
2.495240
  0
VERTEX
  8
0
  6
CONTINUOUS
 10
6.977080
 20
2.445080
  0
VERTEX
  8
0
  6
CONTINUOUS
 10
6.977080
 20
2.003320
  0
VERTEX
  8
0
  6
CONTINUOUS
 10
6.447320
 20
1.961520
  0
VERTEX
  8
0
  6
CONTINUOUS
 10
6.446000
 20
1.065240
  0
VERTEX
  8
0
  6
CONTINUOUS
 10
3.273160
 20
1.065240
  0
VERTEX
  8
0
  6
CONTINUOUS
 10
3.273160
 20
1.958440
  0
VERTEX
  8
0
  6
CONTINUOUS
 10
3.796760
 20
1.999800
  0
VERTEX
  8
0
  6
CONTINUOUS
 10
3.796760
 20
2.441120
  0
VERTEX
  8
0
  6
CONTINUOUS
 10
3.263040
 20
2.492600
  0
VERTEX
  8
0
  6
CONTINUOUS
 10
3.263040
 20
3.324200
  0
VERTEX
  8
0
  6
CONTINUOUS
 10
6.446000
 20
3.324200
  0
VERTEX
  8
0
  6
CONTINUOUS
 10
6.447320
 20
2.495240
  0
VERTEX
  8
0
  6
CONTINUOUS
 10
6.453480
 20
2.495240
  0
SEQEND
  8
0
  0
TEXT
  8
0
 10
5.149760
 20
0.816200
 40
0.138038
  1
BA  691
 41
1.000000
  7
SN0
 71
     0
 72
     5
 11
5.739906
 21
0.816200
  0
TEXT
  8
0
 10
4.827680
 20
0.624800
 40
0.138038
  1
2-1/4" x 3-11/16"
 41
1.000000
  7
SN0
 71
     0
 72
     5
 11
6.059735
 21
0.624800
  0
ENDSEC
  0
EOF
