  0
SECTION
  2
HEADER
  9
$ACADVER
  1
AC1006
  9
$EXTMIN
 10
3.105960
 20
0.737880
  9
$EXTMAX
 10
7.869840
 20
3.865400
  9
$LTSCALE
 40
0.044000
  9
$PDMODE
 70
    35
  9
$PDSIZE
 40
0.035200
  0
ENDSEC
  0
SECTION
  2
TABLES
  0
TABLE
  2
LTYPE
 70
     9
  0
LTYPE
  2
CONTINUOUS
 70
    64
  3
Solid line
 72
    65
 73
     0
 40
0.000000
  0
LTYPE
  2
DASHED
 70
    64
  3
__ __ __ __ __ __ __ __ __ __ __ __ __ __ __
 72
    65
 73
     2
 40
0.000330
 49
0.000220
 49
-0.000110
  0
LTYPE
  2
HIDDEN
 70
    64
  3
 _ _ _ _ _ _ _ _ _ _ _ _ _ _ _ _ _ _ _ _ _ _
 72
    65
 73
     2
 40
0.000165
 49
0.000110
 49
-0.000055
  0
LTYPE
  2
CENTER
 70
    64
  3
____ _ ____ _ ____ _ ____ _ ____ _ ____ _ ____
 72
    65
 73
     4
 40
0.000880
 49
0.000550
 49
-0.000110
 49
0.000110
 49
-0.000110
  0
LTYPE
  2
PHANTOM
 70
    64
  3
_____ _ _ _____ _ _ _____ _ _ _____ _ _ ____
 72
    65
 73
     6
 40
0.001100
 49
0.000550
 49
-0.000110
 49
0.000110
 49
-0.000110
 49
0.000110
 49
-0.000110
  0
LTYPE
  2
DOT
 70
    64
  3
...............................................
 72
    65
 73
     2
 40
0.000110
 49
0.000000
 49
-0.000110
  0
LTYPE
  2
DASHDOT
 70
    64
  3
__ . __ . __ . __ . __ . __ . __ . __ . __ . __
 72
    65
 73
     4
 40
0.000440
 49
0.000220
 49
-0.000110
 49
0.000000
 49
-0.000110
  0
LTYPE
  2
BORDER
 70
    64
  3
__ __ . __ __ . __ __ . __ __ . __ __ . __ __
 72
    65
 73
     6
 40
0.000770
 49
0.000220
 49
-0.000110
 49
0.000220
 49
-0.000110
 49
0.000000
 49
-0.000110
  0
LTYPE
  2
DIVIDE
 70
    64
  3
__ . . __ . . __ . . __ . . __ . . __ . . __
 72
    65
 73
     6
 40
0.000550
 49
0.000220
 49
-0.000110
 49
0.000000
 49
-0.000110
 49
0.000000
 49
-0.000110
  0
LTYPE
  2
DOTDOT
 70
    64
  3
 . .  . .  . .  . .  . .  . . 
 72
    65
 73
     5
 40
0.000242
 49
-0.000110
 49
0.000000
 49
-0.000110
 49
0.000000
 49
-0.000110
  0
ENDTAB
  0
TABLE
  2
STYLE
 70
     2
  0
STYLE
 70
     0
  2
SN0
 40
0.000000
 41
0.000440
 50
0.000000
 71
     0
 42
0.000000
  3
ROMAND
  0
STYLE
 70
    68
  2
SV0
 40
0.000000
 41
0.000440
 50
0.000000
 71
     0
 42
0.000000
  3
ROMAND
  0
ENDTAB
  0
TABLE
  2
LAYER
 70
     3
  0
LAYER
  2
FOREGROUND
 70
    64
 62
     7
  6
CONTINUOUS
  0
LAYER
  2
BACKGROUND
 70
    65
 62
    -7
  6
CONTINUOUS
  0
LAYER
  2
0
 70
    64
 62
     7
  6
CONTINUOUS
  0
ENDTAB
  0
ENDSEC
  0
SECTION
  2
ENTITIES
  0
POLYLINE
  8
FOREGROUND
  6
CONTINUOUS
 66
     1
 40
0.000000
 41
0.000000
  0
VERTEX
  8
FOREGROUND
  6
CONTINUOUS
 10
0.000000
 20
4.603280
  0
VERTEX
  8
FOREGROUND
  6
CONTINUOUS
 10
8.499920
 20
4.603280
  0
VERTEX
  8
FOREGROUND
  6
CONTINUOUS
 10
8.499920
 20
-6.396720
  0
VERTEX
  8
FOREGROUND
  6
CONTINUOUS
 10
0.000000
 20
-6.396720
  0
VERTEX
  8
FOREGROUND
  6
CONTINUOUS
 10
0.000000
 20
4.603280
  0
SEQEND
  8
0
  0
POLYLINE
  8
FOREGROUND
  6
CONTINUOUS
 66
     1
 40
0.000000
 41
0.000000
  0
VERTEX
  8
FOREGROUND
  6
CONTINUOUS
 10
0.000000
 20
4.603280
  0
VERTEX
  8
FOREGROUND
  6
CONTINUOUS
 10
8.499920
 20
4.603280
  0
VERTEX
  8
FOREGROUND
  6
CONTINUOUS
 10
8.499920
 20
-6.396720
  0
VERTEX
  8
FOREGROUND
  6
CONTINUOUS
 10
0.000000
 20
-6.396720
  0
VERTEX
  8
FOREGROUND
  6
CONTINUOUS
 10
0.000000
 20
4.603280
  0
SEQEND
  8
0
  0
SOLID
  8
0
 62
    15
 10
3.861440
 20
1.169520
 11
4.486680
 21
0.815760
 12
3.787960
 22
1.145320
 13
4.413200
 23
0.791120
  0
POLYLINE
  8
0
  6
CONTINUOUS
 66
     1
 40
0.012320
 41
0.012320
  0
VERTEX
  8
0
  6
CONTINUOUS
 10
3.861440
 20
1.169520
  0
VERTEX
  8
0
  6
CONTINUOUS
 10
4.486680
 20
0.815760
  0
VERTEX
  8
0
  6
CONTINUOUS
 10
4.413200
 20
0.791120
  0
VERTEX
  8
0
  6
CONTINUOUS
 10
3.787960
 20
1.145320
  0
VERTEX
  8
0
  6
CONTINUOUS
 10
3.861440
 20
1.169520
  0
SEQEND
  8
0
  0
SOLID
  8
0
 62
    15
 10
5.291880
 20
2.400200
 11
5.917120
 21
2.046440
 12
5.079800
 22
2.331560
 13
5.705040
 23
1.977360
  0
POLYLINE
  8
0
  6
CONTINUOUS
 66
     1
 40
0.012320
 41
0.012320
  0
VERTEX
  8
0
  6
CONTINUOUS
 10
5.291880
 20
2.400200
  0
VERTEX
  8
0
  6
CONTINUOUS
 10
5.917120
 20
2.046440
  0
VERTEX
  8
0
  6
CONTINUOUS
 10
5.705040
 20
1.977360
  0
VERTEX
  8
0
  6
CONTINUOUS
 10
5.079800
 20
2.331560
  0
VERTEX
  8
0
  6
CONTINUOUS
 10
5.291880
 20
2.400200
  0
SEQEND
  8
0
  0
SOLID
  8
0
 62
    15
 10
5.079800
 20
2.331560
 11
5.705040
 21
1.977360
 12
4.884880
 22
2.240920
 13
5.510120
 23
1.887160
  0
POLYLINE
  8
0
  6
CONTINUOUS
 66
     1
 40
0.012320
 41
0.012320
  0
VERTEX
  8
0
  6
CONTINUOUS
 10
5.079800
 20
2.331560
  0
VERTEX
  8
0
  6
CONTINUOUS
 10
5.705040
 20
1.977360
  0
VERTEX
  8
0
  6
CONTINUOUS
 10
5.510120
 20
1.887160
  0
VERTEX
  8
0
  6
CONTINUOUS
 10
4.884880
 20
2.240920
  0
VERTEX
  8
0
  6
CONTINUOUS
 10
5.079800
 20
2.331560
  0
SEQEND
  8
0
  0
SOLID
  8
0
 62
    15
 10
4.884880
 20
2.240920
 11
5.510120
 21
1.887160
 12
4.711520
 22
2.131800
 13
5.336760
 23
1.778040
  0
POLYLINE
  8
0
  6
CONTINUOUS
 66
     1
 40
0.012320
 41
0.012320
  0
VERTEX
  8
0
  6
CONTINUOUS
 10
4.884880
 20
2.240920
  0
VERTEX
  8
0
  6
CONTINUOUS
 10
5.510120
 20
1.887160
  0
VERTEX
  8
0
  6
CONTINUOUS
 10
5.336760
 20
1.778040
  0
VERTEX
  8
0
  6
CONTINUOUS
 10
4.711520
 20
2.131800
  0
VERTEX
  8
0
  6
CONTINUOUS
 10
4.884880
 20
2.240920
  0
SEQEND
  8
0
  0
SOLID
  8
0
 62
    15
 10
4.711520
 20
2.131800
 11
5.336760
 21
1.778040
 12
4.634520
 22
2.071520
 13
5.260200
 23
1.717320
  0
POLYLINE
  8
0
  6
CONTINUOUS
 66
     1
 40
0.012320
 41
0.012320
  0
VERTEX
  8
0
  6
CONTINUOUS
 10
4.711520
 20
2.131800
  0
VERTEX
  8
0
  6
CONTINUOUS
 10
5.336760
 20
1.778040
  0
VERTEX
  8
0
  6
CONTINUOUS
 10
5.260200
 20
1.717320
  0
VERTEX
  8
0
  6
CONTINUOUS
 10
4.634520
 20
2.071520
  0
VERTEX
  8
0
  6
CONTINUOUS
 10
4.711520
 20
2.131800
  0
SEQEND
  8
0
  0
SOLID
  8
0
 62
    15
 10
4.634520
 20
2.071520
 11
5.260200
 21
1.717320
 12
4.565440
 22
2.007280
 13
5.190680
 23
1.653520
  0
POLYLINE
  8
0
  6
CONTINUOUS
 66
     1
 40
0.012320
 41
0.012320
  0
VERTEX
  8
0
  6
CONTINUOUS
 10
4.634520
 20
2.071520
  0
VERTEX
  8
0
  6
CONTINUOUS
 10
5.260200
 20
1.717320
  0
VERTEX
  8
0
  6
CONTINUOUS
 10
5.190680
 20
1.653520
  0
VERTEX
  8
0
  6
CONTINUOUS
 10
4.565440
 20
2.007280
  0
VERTEX
  8
0
  6
CONTINUOUS
 10
4.634520
 20
2.071520
  0
SEQEND
  8
0
  0
SOLID
  8
0
 62
    15
 10
4.565440
 20
2.007280
 11
5.190680
 21
1.653520
 12
4.504280
 22
1.940400
 13
5.129520
 23
1.586640
  0
POLYLINE
  8
0
  6
CONTINUOUS
 66
     1
 40
0.012320
 41
0.012320
  0
VERTEX
  8
0
  6
CONTINUOUS
 10
4.565440
 20
2.007280
  0
VERTEX
  8
0
  6
CONTINUOUS
 10
5.190680
 20
1.653520
  0
VERTEX
  8
0
  6
CONTINUOUS
 10
5.129520
 20
1.586640
  0
VERTEX
  8
0
  6
CONTINUOUS
 10
4.504280
 20
1.940400
  0
VERTEX
  8
0
  6
CONTINUOUS
 10
4.565440
 20
2.007280
  0
SEQEND
  8
0
  0
SOLID
  8
0
 62
    15
 10
4.504280
 20
1.940400
 11
5.129520
 21
1.586640
 12
4.451480
 22
1.870880
 13
5.077160
 23
1.516680
  0
POLYLINE
  8
0
  6
CONTINUOUS
 66
     1
 40
0.012320
 41
0.012320
  0
VERTEX
  8
0
  6
CONTINUOUS
 10
4.504280
 20
1.940400
  0
VERTEX
  8
0
  6
CONTINUOUS
 10
5.129520
 20
1.586640
  0
VERTEX
  8
0
  6
CONTINUOUS
 10
5.077160
 20
1.516680
  0
VERTEX
  8
0
  6
CONTINUOUS
 10
4.451480
 20
1.870880
  0
VERTEX
  8
0
  6
CONTINUOUS
 10
4.504280
 20
1.940400
  0
SEQEND
  8
0
  0
SOLID
  8
0
 62
    15
 10
4.451480
 20
1.870880
 11
5.077160
 21
1.516680
 12
4.408800
 22
1.798720
 13
5.034040
 23
1.444520
  0
POLYLINE
  8
0
  6
CONTINUOUS
 66
     1
 40
0.012320
 41
0.012320
  0
VERTEX
  8
0
  6
CONTINUOUS
 10
4.451480
 20
1.870880
  0
VERTEX
  8
0
  6
CONTINUOUS
 10
5.077160
 20
1.516680
  0
VERTEX
  8
0
  6
CONTINUOUS
 10
5.034040
 20
1.444520
  0
VERTEX
  8
0
  6
CONTINUOUS
 10
4.408800
 20
1.798720
  0
VERTEX
  8
0
  6
CONTINUOUS
 10
4.451480
 20
1.870880
  0
SEQEND
  8
0
  0
SOLID
  8
0
 62
    15
 10
4.408800
 20
1.798720
 11
5.034040
 21
1.444520
 12
4.375360
 22
1.724360
 13
5.001040
 23
1.370600
  0
POLYLINE
  8
0
  6
CONTINUOUS
 66
     1
 40
0.012320
 41
0.012320
  0
VERTEX
  8
0
  6
CONTINUOUS
 10
4.408800
 20
1.798720
  0
VERTEX
  8
0
  6
CONTINUOUS
 10
5.034040
 20
1.444520
  0
VERTEX
  8
0
  6
CONTINUOUS
 10
5.001040
 20
1.370600
  0
VERTEX
  8
0
  6
CONTINUOUS
 10
4.375360
 20
1.724360
  0
VERTEX
  8
0
  6
CONTINUOUS
 10
4.408800
 20
1.798720
  0
SEQEND
  8
0
  0
SOLID
  8
0
 62
    15
 10
4.375360
 20
1.724360
 11
5.001040
 21
1.370600
 12
4.353360
 22
1.648680
 13
4.978600
 23
1.294920
  0
POLYLINE
  8
0
  6
CONTINUOUS
 66
     1
 40
0.012320
 41
0.012320
  0
VERTEX
  8
0
  6
CONTINUOUS
 10
4.375360
 20
1.724360
  0
VERTEX
  8
0
  6
CONTINUOUS
 10
5.001040
 20
1.370600
  0
VERTEX
  8
0
  6
CONTINUOUS
 10
4.978600
 20
1.294920
  0
VERTEX
  8
0
  6
CONTINUOUS
 10
4.353360
 20
1.648680
  0
VERTEX
  8
0
  6
CONTINUOUS
 10
4.375360
 20
1.724360
  0
SEQEND
  8
0
  0
SOLID
  8
0
 62
    15
 10
4.353360
 20
1.648680
 11
4.978600
 21
1.294920
 12
4.342360
 22
1.572120
 13
4.967600
 23
1.217920
  0
POLYLINE
  8
0
  6
CONTINUOUS
 66
     1
 40
0.012320
 41
0.012320
  0
VERTEX
  8
0
  6
CONTINUOUS
 10
4.353360
 20
1.648680
  0
VERTEX
  8
0
  6
CONTINUOUS
 10
4.978600
 20
1.294920
  0
VERTEX
  8
0
  6
CONTINUOUS
 10
4.967600
 20
1.217920
  0
VERTEX
  8
0
  6
CONTINUOUS
 10
4.342360
 20
1.572120
  0
VERTEX
  8
0
  6
CONTINUOUS
 10
4.353360
 20
1.648680
  0
SEQEND
  8
0
  0
SOLID
  8
0
 62
    15
 10
4.342360
 20
1.572120
 11
4.967600
 21
1.217920
 12
4.340160
 22
1.567720
 13
4.965400
 23
1.213960
  0
POLYLINE
  8
0
  6
CONTINUOUS
 66
     1
 40
0.012320
 41
0.012320
  0
VERTEX
  8
0
  6
CONTINUOUS
 10
4.342360
 20
1.572120
  0
VERTEX
  8
0
  6
CONTINUOUS
 10
4.967600
 20
1.217920
  0
VERTEX
  8
0
  6
CONTINUOUS
 10
4.965400
 20
1.213960
  0
VERTEX
  8
0
  6
CONTINUOUS
 10
4.340160
 20
1.567720
  0
VERTEX
  8
0
  6
CONTINUOUS
 10
4.342360
 20
1.572120
  0
SEQEND
  8
0
  0
SOLID
  8
0
 62
    15
 10
4.340160
 20
1.567720
 11
4.965400
 21
1.213960
 12
4.165040
 22
1.567720
 13
4.790280
 23
1.213960
  0
POLYLINE
  8
0
  6
CONTINUOUS
 66
     1
 40
0.012320
 41
0.012320
  0
VERTEX
  8
0
  6
CONTINUOUS
 10
4.340160
 20
1.567720
  0
VERTEX
  8
0
  6
CONTINUOUS
 10
4.965400
 20
1.213960
  0
VERTEX
  8
0
  6
CONTINUOUS
 10
4.790280
 20
1.213960
  0
VERTEX
  8
0
  6
CONTINUOUS
 10
4.165040
 20
1.567720
  0
VERTEX
  8
0
  6
CONTINUOUS
 10
4.340160
 20
1.567720
  0
SEQEND
  8
0
  0
SOLID
  8
0
 62
    15
 10
4.165040
 20
1.567720
 11
4.790280
 21
1.213960
 12
4.157120
 22
1.490720
 13
4.782360
 23
1.136960
  0
POLYLINE
  8
0
  6
CONTINUOUS
 66
     1
 40
0.012320
 41
0.012320
  0
VERTEX
  8
0
  6
CONTINUOUS
 10
4.165040
 20
1.567720
  0
VERTEX
  8
0
  6
CONTINUOUS
 10
4.790280
 20
1.213960
  0
VERTEX
  8
0
  6
CONTINUOUS
 10
4.782360
 20
1.136960
  0
VERTEX
  8
0
  6
CONTINUOUS
 10
4.157120
 20
1.490720
  0
VERTEX
  8
0
  6
CONTINUOUS
 10
4.165040
 20
1.567720
  0
SEQEND
  8
0
  0
SOLID
  8
0
 62
    15
 10
4.157120
 20
1.490720
 11
4.782360
 21
1.136960
 12
4.134240
 22
1.419440
 13
4.759480
 23
1.065680
  0
POLYLINE
  8
0
  6
CONTINUOUS
 66
     1
 40
0.012320
 41
0.012320
  0
VERTEX
  8
0
  6
CONTINUOUS
 10
4.157120
 20
1.490720
  0
VERTEX
  8
0
  6
CONTINUOUS
 10
4.782360
 20
1.136960
  0
VERTEX
  8
0
  6
CONTINUOUS
 10
4.759480
 20
1.065680
  0
VERTEX
  8
0
  6
CONTINUOUS
 10
4.134240
 20
1.419440
  0
VERTEX
  8
0
  6
CONTINUOUS
 10
4.157120
 20
1.490720
  0
SEQEND
  8
0
  0
SOLID
  8
0
 62
    15
 10
4.134240
 20
1.419440
 11
4.759480
 21
1.065680
 12
4.098160
 22
1.354760
 13
4.723400
 23
1.000560
  0
POLYLINE
  8
0
  6
CONTINUOUS
 66
     1
 40
0.012320
 41
0.012320
  0
VERTEX
  8
0
  6
CONTINUOUS
 10
4.134240
 20
1.419440
  0
VERTEX
  8
0
  6
CONTINUOUS
 10
4.759480
 20
1.065680
  0
VERTEX
  8
0
  6
CONTINUOUS
 10
4.723400
 20
1.000560
  0
VERTEX
  8
0
  6
CONTINUOUS
 10
4.098160
 20
1.354760
  0
VERTEX
  8
0
  6
CONTINUOUS
 10
4.134240
 20
1.419440
  0
SEQEND
  8
0
  0
SOLID
  8
0
 62
    15
 10
4.098160
 20
1.354760
 11
4.723400
 21
1.000560
 12
4.051080
 22
1.296680
 13
4.676320
 23
0.942480
  0
POLYLINE
  8
0
  6
CONTINUOUS
 66
     1
 40
0.012320
 41
0.012320
  0
VERTEX
  8
0
  6
CONTINUOUS
 10
4.098160
 20
1.354760
  0
VERTEX
  8
0
  6
CONTINUOUS
 10
4.723400
 20
1.000560
  0
VERTEX
  8
0
  6
CONTINUOUS
 10
4.676320
 20
0.942480
  0
VERTEX
  8
0
  6
CONTINUOUS
 10
4.051080
 20
1.296680
  0
VERTEX
  8
0
  6
CONTINUOUS
 10
4.098160
 20
1.354760
  0
SEQEND
  8
0
  0
SOLID
  8
0
 62
    15
 10
4.051080
 20
1.296680
 11
4.676320
 21
0.942480
 12
3.994760
 22
1.246080
 13
4.620000
 23
0.891880
  0
POLYLINE
  8
0
  6
CONTINUOUS
 66
     1
 40
0.012320
 41
0.012320
  0
VERTEX
  8
0
  6
CONTINUOUS
 10
4.051080
 20
1.296680
  0
VERTEX
  8
0
  6
CONTINUOUS
 10
4.676320
 20
0.942480
  0
VERTEX
  8
0
  6
CONTINUOUS
 10
4.620000
 20
0.891880
  0
VERTEX
  8
0
  6
CONTINUOUS
 10
3.994760
 20
1.246080
  0
VERTEX
  8
0
  6
CONTINUOUS
 10
4.051080
 20
1.296680
  0
SEQEND
  8
0
  0
SOLID
  8
0
 62
    15
 10
3.994760
 20
1.246080
 11
4.620000
 21
0.891880
 12
3.930960
 22
1.203400
 13
4.556200
 23
0.849640
  0
POLYLINE
  8
0
  6
CONTINUOUS
 66
     1
 40
0.012320
 41
0.012320
  0
VERTEX
  8
0
  6
CONTINUOUS
 10
3.994760
 20
1.246080
  0
VERTEX
  8
0
  6
CONTINUOUS
 10
4.620000
 20
0.891880
  0
VERTEX
  8
0
  6
CONTINUOUS
 10
4.556200
 20
0.849640
  0
VERTEX
  8
0
  6
CONTINUOUS
 10
3.930960
 20
1.203400
  0
VERTEX
  8
0
  6
CONTINUOUS
 10
3.994760
 20
1.246080
  0
SEQEND
  8
0
  0
SOLID
  8
0
 62
    15
 10
3.930960
 20
1.203400
 11
4.556200
 21
0.849640
 12
3.861440
 22
1.169520
 13
4.486680
 23
0.815760
  0
POLYLINE
  8
0
  6
CONTINUOUS
 66
     1
 40
0.012320
 41
0.012320
  0
VERTEX
  8
0
  6
CONTINUOUS
 10
3.930960
 20
1.203400
  0
VERTEX
  8
0
  6
CONTINUOUS
 10
4.556200
 20
0.849640
  0
VERTEX
  8
0
  6
CONTINUOUS
 10
4.486680
 20
0.815760
  0
VERTEX
  8
0
  6
CONTINUOUS
 10
3.861440
 20
1.169520
  0
VERTEX
  8
0
  6
CONTINUOUS
 10
3.930960
 20
1.203400
  0
SEQEND
  8
0
  0
SOLID
  8
0
 62
    15
 10
5.514960
 20
2.445080
 11
6.140640
 21
2.090880
 12
5.291880
 22
2.400200
 13
5.917120
 23
2.046440
  0
POLYLINE
  8
0
  6
CONTINUOUS
 66
     1
 40
0.012320
 41
0.012320
  0
VERTEX
  8
0
  6
CONTINUOUS
 10
5.514960
 20
2.445080
  0
VERTEX
  8
0
  6
CONTINUOUS
 10
6.140640
 20
2.090880
  0
VERTEX
  8
0
  6
CONTINUOUS
 10
5.917120
 20
2.046440
  0
VERTEX
  8
0
  6
CONTINUOUS
 10
5.291880
 20
2.400200
  0
VERTEX
  8
0
  6
CONTINUOUS
 10
5.514960
 20
2.445080
  0
SEQEND
  8
0
  0
SOLID
  8
0
 62
    15
 10
3.787960
 20
1.145320
 11
4.413200
 21
0.791120
 12
3.712720
 22
1.130800
 13
4.337960
 23
0.776600
  0
POLYLINE
  8
0
  6
CONTINUOUS
 66
     1
 40
0.012320
 41
0.012320
  0
VERTEX
  8
0
  6
CONTINUOUS
 10
3.787960
 20
1.145320
  0
VERTEX
  8
0
  6
CONTINUOUS
 10
4.413200
 20
0.791120
  0
VERTEX
  8
0
  6
CONTINUOUS
 10
4.337960
 20
0.776600
  0
VERTEX
  8
0
  6
CONTINUOUS
 10
3.712720
 20
1.130800
  0
VERTEX
  8
0
  6
CONTINUOUS
 10
3.787960
 20
1.145320
  0
SEQEND
  8
0
  0
SOLID
  8
0
 62
    15
 10
3.285920
 20
1.355200
 11
3.911160
 21
1.001440
 12
3.113000
 22
1.355200
 13
3.738240
 23
1.001440
  0
POLYLINE
  8
0
  6
CONTINUOUS
 66
     1
 40
0.012320
 41
0.012320
  0
VERTEX
  8
0
  6
CONTINUOUS
 10
3.285920
 20
1.355200
  0
VERTEX
  8
0
  6
CONTINUOUS
 10
3.911160
 20
1.001440
  0
VERTEX
  8
0
  6
CONTINUOUS
 10
3.738240
 20
1.001440
  0
VERTEX
  8
0
  6
CONTINUOUS
 10
3.113000
 20
1.355200
  0
VERTEX
  8
0
  6
CONTINUOUS
 10
3.285920
 20
1.355200
  0
SEQEND
  8
0
  0
SOLID
  8
0
 62
    15
 10
3.637480
 20
1.126400
 11
4.262720
 21
0.772640
 12
3.563560
 22
1.133440
 13
4.188800
 23
0.779680
  0
POLYLINE
  8
0
  6
CONTINUOUS
 66
     1
 40
0.012320
 41
0.012320
  0
VERTEX
  8
0
  6
CONTINUOUS
 10
3.637480
 20
1.126400
  0
VERTEX
  8
0
  6
CONTINUOUS
 10
4.262720
 20
0.772640
  0
VERTEX
  8
0
  6
CONTINUOUS
 10
4.188800
 20
0.779680
  0
VERTEX
  8
0
  6
CONTINUOUS
 10
3.563560
 20
1.133440
  0
VERTEX
  8
0
  6
CONTINUOUS
 10
3.637480
 20
1.126400
  0
SEQEND
  8
0
  0
SOLID
  8
0
 62
    15
 10
3.493600
 20
1.151920
 11
4.118840
 21
0.798160
 12
3.428920
 22
1.183160
 13
4.054160
 23
0.829400
  0
POLYLINE
  8
0
  6
CONTINUOUS
 66
     1
 40
0.012320
 41
0.012320
  0
VERTEX
  8
0
  6
CONTINUOUS
 10
3.493600
 20
1.151920
  0
VERTEX
  8
0
  6
CONTINUOUS
 10
4.118840
 20
0.798160
  0
VERTEX
  8
0
  6
CONTINUOUS
 10
4.054160
 20
0.829400
  0
VERTEX
  8
0
  6
CONTINUOUS
 10
3.428920
 20
1.183160
  0
VERTEX
  8
0
  6
CONTINUOUS
 10
3.493600
 20
1.151920
  0
SEQEND
  8
0
  0
SOLID
  8
0
 62
    15
 10
3.563560
 20
1.133440
 11
4.188800
 21
0.779680
 12
3.493600
 22
1.151920
 13
4.118840
 23
0.798160
  0
POLYLINE
  8
0
  6
CONTINUOUS
 66
     1
 40
0.012320
 41
0.012320
  0
VERTEX
  8
0
  6
CONTINUOUS
 10
3.563560
 20
1.133440
  0
VERTEX
  8
0
  6
CONTINUOUS
 10
4.188800
 20
0.779680
  0
VERTEX
  8
0
  6
CONTINUOUS
 10
4.118840
 20
0.798160
  0
VERTEX
  8
0
  6
CONTINUOUS
 10
3.493600
 20
1.151920
  0
VERTEX
  8
0
  6
CONTINUOUS
 10
3.563560
 20
1.133440
  0
SEQEND
  8
0
  0
SOLID
  8
0
 62
    15
 10
3.712720
 20
1.130800
 11
4.337960
 21
0.776600
 12
3.637480
 22
1.126400
 13
4.262720
 23
0.772640
  0
POLYLINE
  8
0
  6
CONTINUOUS
 66
     1
 40
0.012320
 41
0.012320
  0
VERTEX
  8
0
  6
CONTINUOUS
 10
3.712720
 20
1.130800
  0
VERTEX
  8
0
  6
CONTINUOUS
 10
4.337960
 20
0.776600
  0
VERTEX
  8
0
  6
CONTINUOUS
 10
4.262720
 20
0.772640
  0
VERTEX
  8
0
  6
CONTINUOUS
 10
3.637480
 20
1.126400
  0
VERTEX
  8
0
  6
CONTINUOUS
 10
3.712720
 20
1.130800
  0
SEQEND
  8
0
  0
SOLID
  8
0
 62
    15
 10
6.229520
 20
2.845040
 11
6.855200
 21
2.490840
 12
6.218080
 22
2.741640
 13
6.843320
 23
2.387880
  0
POLYLINE
  8
0
  6
CONTINUOUS
 66
     1
 40
0.012320
 41
0.012320
  0
VERTEX
  8
0
  6
CONTINUOUS
 10
6.229520
 20
2.845040
  0
VERTEX
  8
0
  6
CONTINUOUS
 10
6.855200
 20
2.490840
  0
VERTEX
  8
0
  6
CONTINUOUS
 10
6.843320
 20
2.387880
  0
VERTEX
  8
0
  6
CONTINUOUS
 10
6.218080
 20
2.741640
  0
VERTEX
  8
0
  6
CONTINUOUS
 10
6.229520
 20
2.845040
  0
SEQEND
  8
0
  0
SOLID
  8
0
 62
    15
 10
6.218080
 20
2.741640
 11
6.843320
 21
2.387880
 12
6.201800
 22
2.691920
 13
6.827040
 23
2.338160
  0
POLYLINE
  8
0
  6
CONTINUOUS
 66
     1
 40
0.012320
 41
0.012320
  0
VERTEX
  8
0
  6
CONTINUOUS
 10
6.218080
 20
2.741640
  0
VERTEX
  8
0
  6
CONTINUOUS
 10
6.843320
 20
2.387880
  0
VERTEX
  8
0
  6
CONTINUOUS
 10
6.827040
 20
2.338160
  0
VERTEX
  8
0
  6
CONTINUOUS
 10
6.201800
 20
2.691920
  0
VERTEX
  8
0
  6
CONTINUOUS
 10
6.218080
 20
2.741640
  0
SEQEND
  8
0
  0
SOLID
  8
0
 62
    15
 10
6.201800
 20
2.691920
 11
6.827040
 21
2.338160
 12
6.176720
 22
2.646160
 13
6.801960
 23
2.292400
  0
POLYLINE
  8
0
  6
CONTINUOUS
 66
     1
 40
0.012320
 41
0.012320
  0
VERTEX
  8
0
  6
CONTINUOUS
 10
6.201800
 20
2.691920
  0
VERTEX
  8
0
  6
CONTINUOUS
 10
6.827040
 20
2.338160
  0
VERTEX
  8
0
  6
CONTINUOUS
 10
6.801960
 20
2.292400
  0
VERTEX
  8
0
  6
CONTINUOUS
 10
6.176720
 20
2.646160
  0
VERTEX
  8
0
  6
CONTINUOUS
 10
6.201800
 20
2.691920
  0
SEQEND
  8
0
  0
SOLID
  8
0
 62
    15
 10
6.176720
 20
2.646160
 11
6.801960
 21
2.292400
 12
6.141080
 22
2.607000
 13
6.766320
 23
2.253240
  0
POLYLINE
  8
0
  6
CONTINUOUS
 66
     1
 40
0.012320
 41
0.012320
  0
VERTEX
  8
0
  6
CONTINUOUS
 10
6.176720
 20
2.646160
  0
VERTEX
  8
0
  6
CONTINUOUS
 10
6.801960
 20
2.292400
  0
VERTEX
  8
0
  6
CONTINUOUS
 10
6.766320
 20
2.253240
  0
VERTEX
  8
0
  6
CONTINUOUS
 10
6.141080
 20
2.607000
  0
VERTEX
  8
0
  6
CONTINUOUS
 10
6.176720
 20
2.646160
  0
SEQEND
  8
0
  0
SOLID
  8
0
 62
    15
 10
6.141080
 20
2.607000
 11
6.766320
 21
2.253240
 12
6.094440
 22
2.576200
 13
6.719680
 23
2.222440
  0
POLYLINE
  8
0
  6
CONTINUOUS
 66
     1
 40
0.012320
 41
0.012320
  0
VERTEX
  8
0
  6
CONTINUOUS
 10
6.141080
 20
2.607000
  0
VERTEX
  8
0
  6
CONTINUOUS
 10
6.766320
 20
2.253240
  0
VERTEX
  8
0
  6
CONTINUOUS
 10
6.719680
 20
2.222440
  0
VERTEX
  8
0
  6
CONTINUOUS
 10
6.094440
 20
2.576200
  0
VERTEX
  8
0
  6
CONTINUOUS
 10
6.141080
 20
2.607000
  0
SEQEND
  8
0
  0
SOLID
  8
0
 62
    15
 10
6.094440
 20
2.576200
 11
6.719680
 21
2.222440
 12
6.034600
 22
2.556400
 13
6.659840
 23
2.202200
  0
POLYLINE
  8
0
  6
CONTINUOUS
 66
     1
 40
0.012320
 41
0.012320
  0
VERTEX
  8
0
  6
CONTINUOUS
 10
6.094440
 20
2.576200
  0
VERTEX
  8
0
  6
CONTINUOUS
 10
6.719680
 20
2.222440
  0
VERTEX
  8
0
  6
CONTINUOUS
 10
6.659840
 20
2.202200
  0
VERTEX
  8
0
  6
CONTINUOUS
 10
6.034600
 20
2.556400
  0
VERTEX
  8
0
  6
CONTINUOUS
 10
6.094440
 20
2.576200
  0
SEQEND
  8
0
  0
SOLID
  8
0
 62
    15
 10
6.034600
 20
2.556400
 11
6.659840
 21
2.202200
 12
5.961120
 22
2.548920
 13
6.586360
 23
2.195160
  0
POLYLINE
  8
0
  6
CONTINUOUS
 66
     1
 40
0.012320
 41
0.012320
  0
VERTEX
  8
0
  6
CONTINUOUS
 10
6.034600
 20
2.556400
  0
VERTEX
  8
0
  6
CONTINUOUS
 10
6.659840
 20
2.202200
  0
VERTEX
  8
0
  6
CONTINUOUS
 10
6.586360
 20
2.195160
  0
VERTEX
  8
0
  6
CONTINUOUS
 10
5.961120
 20
2.548920
  0
VERTEX
  8
0
  6
CONTINUOUS
 10
6.034600
 20
2.556400
  0
SEQEND
  8
0
  0
SOLID
  8
0
 62
    15
 10
5.961120
 20
2.548920
 11
6.586360
 21
2.195160
 12
5.950560
 22
2.544960
 13
6.575800
 23
2.191200
  0
POLYLINE
  8
0
  6
CONTINUOUS
 66
     1
 40
0.012320
 41
0.012320
  0
VERTEX
  8
0
  6
CONTINUOUS
 10
5.961120
 20
2.548920
  0
VERTEX
  8
0
  6
CONTINUOUS
 10
6.586360
 20
2.195160
  0
VERTEX
  8
0
  6
CONTINUOUS
 10
6.575800
 20
2.191200
  0
VERTEX
  8
0
  6
CONTINUOUS
 10
5.950560
 20
2.544960
  0
VERTEX
  8
0
  6
CONTINUOUS
 10
5.961120
 20
2.548920
  0
SEQEND
  8
0
  0
SOLID
  8
0
 62
    15
 10
5.950560
 20
2.544960
 11
6.575800
 21
2.191200
 12
5.935600
 22
2.473680
 13
6.560840
 23
2.119480
  0
POLYLINE
  8
0
  6
CONTINUOUS
 66
     1
 40
0.012320
 41
0.012320
  0
VERTEX
  8
0
  6
CONTINUOUS
 10
5.950560
 20
2.544960
  0
VERTEX
  8
0
  6
CONTINUOUS
 10
6.575800
 20
2.191200
  0
VERTEX
  8
0
  6
CONTINUOUS
 10
6.560840
 20
2.119480
  0
VERTEX
  8
0
  6
CONTINUOUS
 10
5.935600
 20
2.473680
  0
VERTEX
  8
0
  6
CONTINUOUS
 10
5.950560
 20
2.544960
  0
SEQEND
  8
0
  0
SOLID
  8
0
 62
    15
 10
5.935600
 20
2.473680
 11
6.560840
 21
2.119480
 12
5.895560
 22
2.414280
 13
6.520800
 23
2.060520
  0
POLYLINE
  8
0
  6
CONTINUOUS
 66
     1
 40
0.012320
 41
0.012320
  0
VERTEX
  8
0
  6
CONTINUOUS
 10
5.935600
 20
2.473680
  0
VERTEX
  8
0
  6
CONTINUOUS
 10
6.560840
 20
2.119480
  0
VERTEX
  8
0
  6
CONTINUOUS
 10
6.520800
 20
2.060520
  0
VERTEX
  8
0
  6
CONTINUOUS
 10
5.895560
 20
2.414280
  0
VERTEX
  8
0
  6
CONTINUOUS
 10
5.935600
 20
2.473680
  0
SEQEND
  8
0
  0
SOLID
  8
0
 62
    15
 10
5.895560
 20
2.414280
 11
6.520800
 21
2.060520
 12
5.837480
 22
2.369400
 13
6.462720
 23
2.015640
  0
POLYLINE
  8
0
  6
CONTINUOUS
 66
     1
 40
0.012320
 41
0.012320
  0
VERTEX
  8
0
  6
CONTINUOUS
 10
5.895560
 20
2.414280
  0
VERTEX
  8
0
  6
CONTINUOUS
 10
6.520800
 20
2.060520
  0
VERTEX
  8
0
  6
CONTINUOUS
 10
6.462720
 20
2.015640
  0
VERTEX
  8
0
  6
CONTINUOUS
 10
5.837480
 20
2.369400
  0
VERTEX
  8
0
  6
CONTINUOUS
 10
5.895560
 20
2.414280
  0
SEQEND
  8
0
  0
SOLID
  8
0
 62
    15
 10
5.837480
 20
2.369400
 11
6.462720
 21
2.015640
 12
5.768400
 22
2.341680
 13
6.393640
 23
1.987480
  0
POLYLINE
  8
0
  6
CONTINUOUS
 66
     1
 40
0.012320
 41
0.012320
  0
VERTEX
  8
0
  6
CONTINUOUS
 10
5.837480
 20
2.369400
  0
VERTEX
  8
0
  6
CONTINUOUS
 10
6.462720
 20
2.015640
  0
VERTEX
  8
0
  6
CONTINUOUS
 10
6.393640
 20
1.987480
  0
VERTEX
  8
0
  6
CONTINUOUS
 10
5.768400
 20
2.341680
  0
VERTEX
  8
0
  6
CONTINUOUS
 10
5.837480
 20
2.369400
  0
SEQEND
  8
0
  0
SOLID
  8
0
 62
    15
 10
5.525520
 20
2.442440
 11
6.150760
 21
2.088680
 12
5.514960
 22
2.445080
 13
6.140640
 23
2.090880
  0
POLYLINE
  8
0
  6
CONTINUOUS
 66
     1
 40
0.012320
 41
0.012320
  0
VERTEX
  8
0
  6
CONTINUOUS
 10
5.525520
 20
2.442440
  0
VERTEX
  8
0
  6
CONTINUOUS
 10
6.150760
 20
2.088680
  0
VERTEX
  8
0
  6
CONTINUOUS
 10
6.140640
 20
2.090880
  0
VERTEX
  8
0
  6
CONTINUOUS
 10
5.514960
 20
2.445080
  0
VERTEX
  8
0
  6
CONTINUOUS
 10
5.525520
 20
2.442440
  0
SEQEND
  8
0
  0
SOLID
  8
0
 62
    15
 10
5.695360
 20
2.332440
 11
6.320600
 21
1.978680
 12
5.625840
 22
2.344760
 13
6.251080
 23
1.991000
  0
POLYLINE
  8
0
  6
CONTINUOUS
 66
     1
 40
0.012320
 41
0.012320
  0
VERTEX
  8
0
  6
CONTINUOUS
 10
5.695360
 20
2.332440
  0
VERTEX
  8
0
  6
CONTINUOUS
 10
6.320600
 20
1.978680
  0
VERTEX
  8
0
  6
CONTINUOUS
 10
6.251080
 20
1.991000
  0
VERTEX
  8
0
  6
CONTINUOUS
 10
5.625840
 20
2.344760
  0
VERTEX
  8
0
  6
CONTINUOUS
 10
5.695360
 20
2.332440
  0
SEQEND
  8
0
  0
SOLID
  8
0
 62
    15
 10
5.768400
 20
2.341680
 11
6.393640
 21
1.987480
 12
5.695360
 22
2.332440
 13
6.320600
 23
1.978680
  0
POLYLINE
  8
0
  6
CONTINUOUS
 66
     1
 40
0.012320
 41
0.012320
  0
VERTEX
  8
0
  6
CONTINUOUS
 10
5.768400
 20
2.341680
  0
VERTEX
  8
0
  6
CONTINUOUS
 10
6.393640
 20
1.987480
  0
VERTEX
  8
0
  6
CONTINUOUS
 10
6.320600
 20
1.978680
  0
VERTEX
  8
0
  6
CONTINUOUS
 10
5.695360
 20
2.332440
  0
VERTEX
  8
0
  6
CONTINUOUS
 10
5.768400
 20
2.341680
  0
SEQEND
  8
0
  0
POLYLINE
  8
0
  6
CONTINUOUS
 66
     1
 40
0.012320
 41
0.012320
  0
VERTEX
  8
0
  6
CONTINUOUS
 10
5.514960
 20
2.445080
  0
VERTEX
  8
0
  6
CONTINUOUS
 10
5.291880
 20
2.400200
  0
VERTEX
  8
0
  6
CONTINUOUS
 10
5.079800
 20
2.331560
  0
VERTEX
  8
0
  6
CONTINUOUS
 10
4.884880
 20
2.240920
  0
VERTEX
  8
0
  6
CONTINUOUS
 10
4.711520
 20
2.131800
  0
VERTEX
  8
0
  6
CONTINUOUS
 10
4.634520
 20
2.071520
  0
VERTEX
  8
0
  6
CONTINUOUS
 10
4.565440
 20
2.007280
  0
VERTEX
  8
0
  6
CONTINUOUS
 10
4.504280
 20
1.940400
  0
VERTEX
  8
0
  6
CONTINUOUS
 10
4.451480
 20
1.870880
  0
VERTEX
  8
0
  6
CONTINUOUS
 10
4.408800
 20
1.798720
  0
VERTEX
  8
0
  6
CONTINUOUS
 10
4.375360
 20
1.724360
  0
VERTEX
  8
0
  6
CONTINUOUS
 10
4.353360
 20
1.648680
  0
VERTEX
  8
0
  6
CONTINUOUS
 10
4.342360
 20
1.572120
  0
VERTEX
  8
0
  6
CONTINUOUS
 10
4.340160
 20
1.567720
  0
VERTEX
  8
0
  6
CONTINUOUS
 10
4.165040
 20
1.567720
  0
VERTEX
  8
0
  6
CONTINUOUS
 10
4.157120
 20
1.490720
  0
VERTEX
  8
0
  6
CONTINUOUS
 10
4.134240
 20
1.419440
  0
VERTEX
  8
0
  6
CONTINUOUS
 10
4.098160
 20
1.354760
  0
VERTEX
  8
0
  6
CONTINUOUS
 10
4.051080
 20
1.296680
  0
VERTEX
  8
0
  6
CONTINUOUS
 10
3.994760
 20
1.246080
  0
VERTEX
  8
0
  6
CONTINUOUS
 10
3.930960
 20
1.203400
  0
VERTEX
  8
0
  6
CONTINUOUS
 10
3.861440
 20
1.169520
  0
VERTEX
  8
0
  6
CONTINUOUS
 10
3.787960
 20
1.145320
  0
VERTEX
  8
0
  6
CONTINUOUS
 10
3.712720
 20
1.130800
  0
VERTEX
  8
0
  6
CONTINUOUS
 10
3.637480
 20
1.126400
  0
VERTEX
  8
0
  6
CONTINUOUS
 10
3.563560
 20
1.133440
  0
VERTEX
  8
0
  6
CONTINUOUS
 10
3.493600
 20
1.151920
  0
VERTEX
  8
0
  6
CONTINUOUS
 10
3.428920
 20
1.183160
  0
VERTEX
  8
0
  6
CONTINUOUS
 10
3.371720
 20
1.226720
  0
VERTEX
  8
0
  6
CONTINUOUS
 10
3.323320
 20
1.283920
  0
VERTEX
  8
0
  6
CONTINUOUS
 10
3.285920
 20
1.355200
  0
VERTEX
  8
0
  6
CONTINUOUS
 10
3.113000
 20
1.355200
  0
VERTEX
  8
0
  6
CONTINUOUS
 10
3.113000
 20
1.776280
  0
VERTEX
  8
0
  6
CONTINUOUS
 10
3.115200
 20
1.780240
  0
VERTEX
  8
0
  6
CONTINUOUS
 10
5.294080
 20
2.845040
  0
VERTEX
  8
0
  6
CONTINUOUS
 10
5.294520
 20
2.846800
  0
VERTEX
  8
0
  6
CONTINUOUS
 10
6.229520
 20
2.845040
  0
VERTEX
  8
0
  6
CONTINUOUS
 10
6.218080
 20
2.741640
  0
VERTEX
  8
0
  6
CONTINUOUS
 10
6.201800
 20
2.691920
  0
VERTEX
  8
0
  6
CONTINUOUS
 10
6.176720
 20
2.646160
  0
VERTEX
  8
0
  6
CONTINUOUS
 10
6.141080
 20
2.607000
  0
VERTEX
  8
0
  6
CONTINUOUS
 10
6.094440
 20
2.576200
  0
VERTEX
  8
0
  6
CONTINUOUS
 10
6.034600
 20
2.556400
  0
VERTEX
  8
0
  6
CONTINUOUS
 10
5.961120
 20
2.548920
  0
VERTEX
  8
0
  6
CONTINUOUS
 10
5.950560
 20
2.544960
  0
VERTEX
  8
0
  6
CONTINUOUS
 10
5.935600
 20
2.473680
  0
VERTEX
  8
0
  6
CONTINUOUS
 10
5.895560
 20
2.414280
  0
VERTEX
  8
0
  6
CONTINUOUS
 10
5.837480
 20
2.369400
  0
VERTEX
  8
0
  6
CONTINUOUS
 10
5.768400
 20
2.341680
  0
VERTEX
  8
0
  6
CONTINUOUS
 10
5.695360
 20
2.332440
  0
VERTEX
  8
0
  6
CONTINUOUS
 10
5.625840
 20
2.344760
  0
VERTEX
  8
0
  6
CONTINUOUS
 10
5.566880
 20
2.380840
  0
VERTEX
  8
0
  6
CONTINUOUS
 10
5.543560
 20
2.408560
  0
VERTEX
  8
0
  6
CONTINUOUS
 10
5.525520
 20
2.442440
  0
VERTEX
  8
0
  6
CONTINUOUS
 10
5.514960
 20
2.445080
  0
SEQEND
  8
0
  0
TEXT
  8
0
 10
5.470960
 20
0.973280
 40
0.138217
  1
BA  690
 41
1.000000
  7
SN0
 71
     0
 72
     5
 11
6.061919
 21
0.973280
  0
TEXT
  8
0
 10
5.269000
 20
0.781440
 40
0.138217
  1
7/8" x 3-7/16"
 41
1.000000
  7
SN0
 71
     0
 72
     5
 11
6.263698
 21
0.781440
  0
POLYLINE
  8
0
  6
CONTINUOUS
 66
     1
 40
0.014080
 41
0.014080
  0
VERTEX
  8
0
  6
CONTINUOUS
 10
7.047040
 20
3.435520
  0
VERTEX
  8
0
  6
CONTINUOUS
 10
6.992480
 20
3.418360
  0
VERTEX
  8
0
  6
CONTINUOUS
 10
6.937480
 20
3.402960
  0
VERTEX
  8
0
  6
CONTINUOUS
 10
6.882040
 20
3.389320
  0
VERTEX
  8
0
  6
CONTINUOUS
 10
6.826600
 20
3.377440
  0
VERTEX
  8
0
  6
CONTINUOUS
 10
6.771160
 20
3.367320
  0
VERTEX
  8
0
  6
CONTINUOUS
 10
6.660720
 20
3.351920
  0
VERTEX
  8
0
  6
CONTINUOUS
 10
6.606160
 20
3.346640
  0
VERTEX
  8
0
  6
CONTINUOUS
 10
6.551600
 20
3.343120
  0
VERTEX
  8
0
  6
CONTINUOUS
 10
6.443800
 20
3.340920
  0
VERTEX
  8
0
  6
CONTINUOUS
 10
6.338640
 20
3.345760
  0
VERTEX
  8
0
  6
CONTINUOUS
 10
6.287160
 20
3.350160
  0
VERTEX
  8
0
  6
CONTINUOUS
 10
6.236560
 20
3.356760
  0
VERTEX
  8
0
  6
CONTINUOUS
 10
6.138880
 20
3.373920
  0
VERTEX
  8
0
  6
CONTINUOUS
 10
6.091800
 20
3.385360
  0
VERTEX
  8
0
  6
CONTINUOUS
 10
6.046040
 20
3.398120
  0
VERTEX
  8
0
  6
CONTINUOUS
 10
6.001600
 20
3.412200
  0
VERTEX
  8
0
  6
CONTINUOUS
 10
5.917120
 20
3.445640
  0
VERTEX
  8
0
  6
CONTINUOUS
 10
5.877080
 20
3.465000
  0
VERTEX
  8
0
  6
CONTINUOUS
 10
5.839240
 20
3.485680
  0
VERTEX
  8
0
  6
CONTINUOUS
 10
5.785560
 20
3.519560
  0
VERTEX
  8
0
  6
CONTINUOUS
 10
5.736720
 20
3.556960
  0
VERTEX
  8
0
  6
CONTINUOUS
 10
5.692720
 20
3.597440
  0
VERTEX
  8
0
  6
CONTINUOUS
 10
5.665880
 20
3.626480
  0
VERTEX
  8
0
  6
CONTINUOUS
 10
5.630680
 20
3.673120
  0
VERTEX
  8
0
  6
CONTINUOUS
 10
5.610000
 20
3.706120
  0
VERTEX
  8
0
  6
CONTINUOUS
 10
5.606040
 20
3.709640
  0
VERTEX
  8
0
  6
CONTINUOUS
 10
5.446760
 20
3.631760
  0
VERTEX
  8
0
  6
CONTINUOUS
 10
5.447640
 20
3.631760
  0
VERTEX
  8
0
  6
CONTINUOUS
 10
5.428720
 20
3.666080
  0
VERTEX
  8
0
  6
CONTINUOUS
 10
5.406720
 20
3.697320
  0
VERTEX
  8
0
  6
CONTINUOUS
 10
5.382080
 20
3.725920
  0
VERTEX
  8
0
  6
CONTINUOUS
 10
5.340280
 20
3.763320
  0
VERTEX
  8
0
  6
CONTINUOUS
 10
5.294080
 20
3.794120
  0
VERTEX
  8
0
  6
CONTINUOUS
 10
5.243480
 20
3.818760
  0
VERTEX
  8
0
  6
CONTINUOUS
 10
5.208280
 20
3.831960
  0
VERTEX
  8
0
  6
CONTINUOUS
 10
5.153280
 20
3.846480
  0
VERTEX
  8
0
  6
CONTINUOUS
 10
5.096520
 20
3.855280
  0
VERTEX
  8
0
  6
CONTINUOUS
 10
5.038440
 20
3.857920
  0
VERTEX
  8
0
  6
CONTINUOUS
 10
4.999720
 20
3.856600
  0
VERTEX
  8
0
  6
CONTINUOUS
 10
4.942080
 20
3.850000
  0
VERTEX
  8
0
  6
CONTINUOUS
 10
4.885760
 20
3.837680
  0
VERTEX
  8
0
  6
CONTINUOUS
 10
4.831200
 20
3.820080
  0
VERTEX
  8
0
  6
CONTINUOUS
 10
4.779720
 20
3.797200
  0
VERTEX
  8
0
  6
CONTINUOUS
 10
4.731320
 20
3.769040
  0
VERTEX
  8
0
  6
CONTINUOUS
 10
4.687760
 20
3.736040
  0
VERTEX
  8
0
  6
CONTINUOUS
 10
4.649480
 20
3.697760
  0
VERTEX
  8
0
  6
CONTINUOUS
 10
4.616920
 20
3.655080
  0
VERTEX
  8
0
  6
CONTINUOUS
 10
4.599320
 20
3.623840
  0
VERTEX
  8
0
  6
CONTINUOUS
 10
4.584800
 20
3.590400
  0
VERTEX
  8
0
  6
CONTINUOUS
 10
4.573800
 20
3.555200
  0
VERTEX
  8
0
  6
CONTINUOUS
 10
4.566320
 20
3.517800
  0
VERTEX
  8
0
  6
CONTINUOUS
 10
4.563240
 20
3.478640
  0
VERTEX
  8
0
  6
CONTINUOUS
 10
4.564120
 20
3.437280
  0
VERTEX
  8
0
  6
CONTINUOUS
 10
4.557080
 20
3.435080
  0
VERTEX
  8
0
  6
CONTINUOUS
 10
4.409240
 20
3.362920
  0
VERTEX
  8
0
  6
CONTINUOUS
 10
4.593160
 20
2.984080
  0
VERTEX
  8
0
  6
CONTINUOUS
 10
4.596680
 20
2.981880
  0
VERTEX
  8
0
  6
CONTINUOUS
 10
7.021960
 20
2.980120
  0
VERTEX
  8
0
  6
CONTINUOUS
 10
7.023720
 20
2.977920
  0
VERTEX
  8
0
  6
CONTINUOUS
 10
7.863680
 20
3.389760
  0
VERTEX
  8
0
  6
CONTINUOUS
 10
7.863240
 20
3.389320
  0
VERTEX
  8
0
  6
CONTINUOUS
 10
7.838160
 20
3.434640
  0
VERTEX
  8
0
  6
CONTINUOUS
 10
7.823640
 20
3.456200
  0
VERTEX
  8
0
  6
CONTINUOUS
 10
7.790200
 20
3.496680
  0
VERTEX
  8
0
  6
CONTINUOUS
 10
7.761160
 20
3.522640
  0
VERTEX
  8
0
  6
CONTINUOUS
 10
7.728600
 20
3.544200
  0
VERTEX
  8
0
  6
CONTINUOUS
 10
7.692520
 20
3.560480
  0
VERTEX
  8
0
  6
CONTINUOUS
 10
7.652480
 20
3.569280
  0
VERTEX
  8
0
  6
CONTINUOUS
 10
7.623880
 20
3.571040
  0
VERTEX
  8
0
  6
CONTINUOUS
 10
7.593520
 20
3.569280
  0
VERTEX
  8
0
  6
CONTINUOUS
 10
7.561840
 20
3.563120
  0
VERTEX
  8
0
  6
CONTINUOUS
 10
7.527960
 20
3.552560
  0
VERTEX
  8
0
  6
CONTINUOUS
 10
7.492320
 20
3.537160
  0
VERTEX
  8
0
  6
CONTINUOUS
 10
7.483080
 20
3.537160
  0
VERTEX
  8
0
  6
CONTINUOUS
 10
7.463280
 20
3.568840
  0
VERTEX
  8
0
  6
CONTINUOUS
 10
7.438640
 20
3.594360
  0
VERTEX
  8
0
  6
CONTINUOUS
 10
7.409160
 20
3.615040
  0
VERTEX
  8
0
  6
CONTINUOUS
 10
7.393320
 20
3.623400
  0
VERTEX
  8
0
  6
CONTINUOUS
 10
7.359440
 20
3.635720
  0
VERTEX
  8
0
  6
CONTINUOUS
 10
7.323360
 20
3.643200
  0
VERTEX
  8
0
  6
CONTINUOUS
 10
7.285960
 20
3.645400
  0
VERTEX
  8
0
  6
CONTINUOUS
 10
7.267480
 20
3.644960
  0
VERTEX
  8
0
  6
CONTINUOUS
 10
7.230520
 20
3.639680
  0
VERTEX
  8
0
  6
CONTINUOUS
 10
7.194440
 20
3.630440
  0
VERTEX
  8
0
  6
CONTINUOUS
 10
7.161000
 20
3.615920
  0
VERTEX
  8
0
  6
CONTINUOUS
 10
7.130640
 20
3.597440
  0
VERTEX
  8
0
  6
CONTINUOUS
 10
7.103800
 20
3.574560
  0
VERTEX
  8
0
  6
CONTINUOUS
 10
7.082240
 20
3.547720
  0
VERTEX
  8
0
  6
CONTINUOUS
 10
7.066400
 20
3.516480
  0
VERTEX
  8
0
  6
CONTINUOUS
 10
7.061120
 20
3.499320
  0
VERTEX
  8
0
  6
CONTINUOUS
 10
7.057600
 20
3.481280
  0
VERTEX
  8
0
  6
CONTINUOUS
 10
7.055840
 20
3.462360
  0
VERTEX
  8
0
  6
CONTINUOUS
 10
7.056280
 20
3.442560
  0
VERTEX
  8
0
  6
CONTINUOUS
 10
7.047040
 20
3.435520
  0
SEQEND
  8
0
  0
TEXT
  8
0
 10
4.982560
 20
3.303520
 40
0.138217
  1
BA  690
 41
1.000000
  7
SN0
 71
     0
 72
     5
 11
5.573519
 21
3.303520
  0
TEXT
  8
0
 10
4.780600
 20
3.112120
 40
0.138217
  1
7/8" x 3-7/16"
 41
1.000000
  7
SN0
 71
     0
 72
     5
 11
5.775298
 21
3.112120
  0
ENDSEC
  0
EOF
