  0
SECTION
  2
HEADER
  9
$ACADVER
  1
AC1006
  9
$EXTMIN
 10
5.100920
 20
0.495880
  9
$EXTMAX
 10
7.651600
 20
2.879800
  9
$LTSCALE
 40
0.044000
  9
$PDMODE
 70
    35
  9
$PDSIZE
 40
0.035200
  0
ENDSEC
  0
SECTION
  2
TABLES
  0
TABLE
  2
LTYPE
 70
     9
  0
LTYPE
  2
CONTINUOUS
 70
    64
  3
Solid line
 72
    65
 73
     0
 40
0.000000
  0
LTYPE
  2
DASHED
 70
    64
  3
__ __ __ __ __ __ __ __ __ __ __ __ __ __ __
 72
    65
 73
     2
 40
0.000330
 49
0.000220
 49
-0.000110
  0
LTYPE
  2
HIDDEN
 70
    64
  3
 _ _ _ _ _ _ _ _ _ _ _ _ _ _ _ _ _ _ _ _ _ _
 72
    65
 73
     2
 40
0.000165
 49
0.000110
 49
-0.000055
  0
LTYPE
  2
CENTER
 70
    64
  3
____ _ ____ _ ____ _ ____ _ ____ _ ____ _ ____
 72
    65
 73
     4
 40
0.000880
 49
0.000550
 49
-0.000110
 49
0.000110
 49
-0.000110
  0
LTYPE
  2
PHANTOM
 70
    64
  3
_____ _ _ _____ _ _ _____ _ _ _____ _ _ ____
 72
    65
 73
     6
 40
0.001100
 49
0.000550
 49
-0.000110
 49
0.000110
 49
-0.000110
 49
0.000110
 49
-0.000110
  0
LTYPE
  2
DOT
 70
    64
  3
...............................................
 72
    65
 73
     2
 40
0.000110
 49
0.000000
 49
-0.000110
  0
LTYPE
  2
DASHDOT
 70
    64
  3
__ . __ . __ . __ . __ . __ . __ . __ . __ . __
 72
    65
 73
     4
 40
0.000440
 49
0.000220
 49
-0.000110
 49
0.000000
 49
-0.000110
  0
LTYPE
  2
BORDER
 70
    64
  3
__ __ . __ __ . __ __ . __ __ . __ __ . __ __
 72
    65
 73
     6
 40
0.000770
 49
0.000220
 49
-0.000110
 49
0.000220
 49
-0.000110
 49
0.000000
 49
-0.000110
  0
LTYPE
  2
DIVIDE
 70
    64
  3
__ . . __ . . __ . . __ . . __ . . __ . . __
 72
    65
 73
     6
 40
0.000550
 49
0.000220
 49
-0.000110
 49
0.000000
 49
-0.000110
 49
0.000000
 49
-0.000110
  0
LTYPE
  2
DOTDOT
 70
    64
  3
 . .  . .  . .  . .  . .  . . 
 72
    65
 73
     5
 40
0.000242
 49
-0.000110
 49
0.000000
 49
-0.000110
 49
0.000000
 49
-0.000110
  0
ENDTAB
  0
TABLE
  2
STYLE
 70
     2
  0
STYLE
 70
     0
  2
SN0
 40
0.000000
 41
0.000440
 50
0.000000
 71
     0
 42
0.000000
  3
ROMAND
  0
STYLE
 70
    68
  2
SV0
 40
0.000000
 41
0.000440
 50
0.000000
 71
     0
 42
0.000000
  3
ROMAND
  0
ENDTAB
  0
TABLE
  2
LAYER
 70
     3
  0
LAYER
  2
FOREGROUND
 70
    64
 62
     7
  6
CONTINUOUS
  0
LAYER
  2
BACKGROUND
 70
    65
 62
    -7
  6
CONTINUOUS
  0
LAYER
  2
0
 70
    64
 62
     7
  6
CONTINUOUS
  0
ENDTAB
  0
ENDSEC
  0
SECTION
  2
ENTITIES
  0
POLYLINE
  8
FOREGROUND
  6
CONTINUOUS
 66
     1
 40
0.000000
 41
0.000000
  0
VERTEX
  8
FOREGROUND
  6
CONTINUOUS
 10
0.000000
 20
3.375680
  0
VERTEX
  8
FOREGROUND
  6
CONTINUOUS
 10
8.499920
 20
3.375680
  0
VERTEX
  8
FOREGROUND
  6
CONTINUOUS
 10
8.499920
 20
-7.624320
  0
VERTEX
  8
FOREGROUND
  6
CONTINUOUS
 10
0.000000
 20
-7.624320
  0
VERTEX
  8
FOREGROUND
  6
CONTINUOUS
 10
0.000000
 20
3.375680
  0
SEQEND
  8
0
  0
POLYLINE
  8
FOREGROUND
  6
CONTINUOUS
 66
     1
 40
0.000000
 41
0.000000
  0
VERTEX
  8
FOREGROUND
  6
CONTINUOUS
 10
0.000000
 20
3.375680
  0
VERTEX
  8
FOREGROUND
  6
CONTINUOUS
 10
8.499920
 20
3.375680
  0
VERTEX
  8
FOREGROUND
  6
CONTINUOUS
 10
8.499920
 20
-7.624320
  0
VERTEX
  8
FOREGROUND
  6
CONTINUOUS
 10
0.000000
 20
-7.624320
  0
VERTEX
  8
FOREGROUND
  6
CONTINUOUS
 10
0.000000
 20
3.375680
  0
SEQEND
  8
0
  0
POLYLINE
  8
0
  6
CONTINUOUS
 66
     1
 40
0.014080
 41
0.014080
  0
VERTEX
  8
0
  6
CONTINUOUS
 10
6.927360
 20
2.800600
  0
VERTEX
  8
0
  6
CONTINUOUS
 10
6.933520
 20
2.666400
  0
VERTEX
  8
0
  6
CONTINUOUS
 10
6.949800
 20
2.665520
  0
VERTEX
  8
0
  6
CONTINUOUS
 10
6.980600
 20
2.657160
  0
VERTEX
  8
0
  6
CONTINUOUS
 10
6.994680
 20
2.650120
  0
VERTEX
  8
0
  6
CONTINUOUS
 10
7.007440
 20
2.641760
  0
VERTEX
  8
0
  6
CONTINUOUS
 10
7.018440
 20
2.631640
  0
VERTEX
  8
0
  6
CONTINUOUS
 10
7.031640
 20
2.614040
  0
VERTEX
  8
0
  6
CONTINUOUS
 10
7.040000
 20
2.593800
  0
VERTEX
  8
0
  6
CONTINUOUS
 10
7.042200
 20
2.578840
  0
VERTEX
  8
0
  6
CONTINUOUS
 10
7.040440
 20
2.555080
  0
VERTEX
  8
0
  6
CONTINUOUS
 10
7.031200
 20
2.530000
  0
VERTEX
  8
0
  6
CONTINUOUS
 10
7.013600
 20
2.503160
  0
VERTEX
  8
0
  6
CONTINUOUS
 10
6.986760
 20
2.476320
  0
VERTEX
  8
0
  6
CONTINUOUS
 10
6.980600
 20
2.448600
  0
VERTEX
  8
0
  6
CONTINUOUS
 10
6.980160
 20
2.425720
  0
VERTEX
  8
0
  6
CONTINUOUS
 10
6.985880
 20
2.397560
  0
VERTEX
  8
0
  6
CONTINUOUS
 10
6.999960
 20
2.365000
  0
VERTEX
  8
0
  6
CONTINUOUS
 10
7.018000
 20
2.337720
  0
VERTEX
  8
0
  6
CONTINUOUS
 10
7.043080
 20
2.307800
  0
VERTEX
  8
0
  6
CONTINUOUS
 10
7.090160
 20
2.265120
  0
VERTEX
  8
0
  6
CONTINUOUS
 10
7.131960
 20
2.235200
  0
VERTEX
  8
0
  6
CONTINUOUS
 10
7.156160
 20
2.222880
  0
VERTEX
  8
0
  6
CONTINUOUS
 10
7.194000
 20
2.210560
  0
VERTEX
  8
0
  6
CONTINUOUS
 10
7.219960
 20
2.205280
  0
VERTEX
  8
0
  6
CONTINUOUS
 10
7.273200
 20
2.199120
  0
VERTEX
  8
0
  6
CONTINUOUS
 10
7.352840
 20
2.192960
  0
VERTEX
  8
0
  6
CONTINUOUS
 10
7.378800
 20
2.189000
  0
VERTEX
  8
0
  6
CONTINUOUS
 10
7.415760
 20
2.179760
  0
VERTEX
  8
0
  6
CONTINUOUS
 10
7.439520
 20
2.170080
  0
VERTEX
  8
0
  6
CONTINUOUS
 10
7.472080
 20
2.148960
  0
VERTEX
  8
0
  6
CONTINUOUS
 10
7.492320
 20
2.129600
  0
VERTEX
  8
0
  6
CONTINUOUS
 10
7.510360
 20
2.105400
  0
VERTEX
  8
0
  6
CONTINUOUS
 10
7.525320
 20
2.078560
  0
VERTEX
  8
0
  6
CONTINUOUS
 10
7.538520
 20
2.045120
  0
VERTEX
  8
0
  6
CONTINUOUS
 10
7.547320
 20
2.006840
  0
VERTEX
  8
0
  6
CONTINUOUS
 10
7.549520
 20
1.986160
  0
VERTEX
  8
0
  6
CONTINUOUS
 10
7.549960
 20
1.965040
  0
VERTEX
  8
0
  6
CONTINUOUS
 10
7.546440
 20
1.932040
  0
VERTEX
  8
0
  6
CONTINUOUS
 10
7.536760
 20
1.899040
  0
VERTEX
  8
0
  6
CONTINUOUS
 10
7.520040
 20
1.866040
  0
VERTEX
  8
0
  6
CONTINUOUS
 10
7.494960
 20
1.833920
  0
VERTEX
  8
0
  6
CONTINUOUS
 10
7.461520
 20
1.803120
  0
VERTEX
  8
0
  6
CONTINUOUS
 10
7.447880
 20
1.793440
  0
VERTEX
  8
0
  6
CONTINUOUS
 10
7.447880
 20
1.767040
  0
VERTEX
  8
0
  6
CONTINUOUS
 10
7.644560
 20
1.757800
  0
VERTEX
  8
0
  6
CONTINUOUS
 10
7.644560
 20
1.266760
  0
VERTEX
  8
0
  6
CONTINUOUS
 10
6.805920
 20
1.266760
  0
VERTEX
  8
0
  6
CONTINUOUS
 10
6.805920
 20
2.802800
  0
VERTEX
  8
0
  6
CONTINUOUS
 10
6.927360
 20
2.802800
  0
SEQEND
  8
0
  0
SOLID
  8
0
 62
    15
 10
5.515840
 20
1.909600
 11
6.160440
 21
2.281400
 12
5.569080
 22
1.903880
 13
6.213240
 23
2.275680
  0
POLYLINE
  8
0
  6
CONTINUOUS
 66
     1
 40
0.000000
 41
0.000000
  0
VERTEX
  8
0
  6
CONTINUOUS
 10
5.515840
 20
1.909600
  0
VERTEX
  8
0
  6
CONTINUOUS
 10
6.160440
 20
2.281400
  0
VERTEX
  8
0
  6
CONTINUOUS
 10
6.213240
 20
2.275680
  0
VERTEX
  8
0
  6
CONTINUOUS
 10
5.569080
 20
1.903880
  0
VERTEX
  8
0
  6
CONTINUOUS
 10
5.515840
 20
1.909600
  0
SEQEND
  8
0
  0
SOLID
  8
0
 62
    15
 10
5.229400
 20
2.371160
 11
5.874000
 21
2.742960
 12
5.261520
 22
2.366760
 13
5.905680
 23
2.739000
  0
POLYLINE
  8
0
  6
CONTINUOUS
 66
     1
 40
0.000000
 41
0.000000
  0
VERTEX
  8
0
  6
CONTINUOUS
 10
5.229400
 20
2.371160
  0
VERTEX
  8
0
  6
CONTINUOUS
 10
5.874000
 20
2.742960
  0
VERTEX
  8
0
  6
CONTINUOUS
 10
5.905680
 20
2.739000
  0
VERTEX
  8
0
  6
CONTINUOUS
 10
5.261520
 20
2.366760
  0
VERTEX
  8
0
  6
CONTINUOUS
 10
5.229400
 20
2.371160
  0
SEQEND
  8
0
  0
SOLID
  8
0
 62
    15
 10
5.261520
 20
2.366760
 11
5.905680
 21
2.739000
 12
5.290560
 22
2.354880
 13
5.934720
 23
2.727120
  0
POLYLINE
  8
0
  6
CONTINUOUS
 66
     1
 40
0.000000
 41
0.000000
  0
VERTEX
  8
0
  6
CONTINUOUS
 10
5.261520
 20
2.366760
  0
VERTEX
  8
0
  6
CONTINUOUS
 10
5.905680
 20
2.739000
  0
VERTEX
  8
0
  6
CONTINUOUS
 10
5.934720
 20
2.727120
  0
VERTEX
  8
0
  6
CONTINUOUS
 10
5.290560
 20
2.354880
  0
VERTEX
  8
0
  6
CONTINUOUS
 10
5.261520
 20
2.366760
  0
SEQEND
  8
0
  0
SOLID
  8
0
 62
    15
 10
5.290560
 20
2.354880
 11
5.934720
 21
2.727120
 12
5.314320
 22
2.336400
 13
5.958480
 23
2.708200
  0
POLYLINE
  8
0
  6
CONTINUOUS
 66
     1
 40
0.000000
 41
0.000000
  0
VERTEX
  8
0
  6
CONTINUOUS
 10
5.290560
 20
2.354880
  0
VERTEX
  8
0
  6
CONTINUOUS
 10
5.934720
 20
2.727120
  0
VERTEX
  8
0
  6
CONTINUOUS
 10
5.958480
 20
2.708200
  0
VERTEX
  8
0
  6
CONTINUOUS
 10
5.314320
 20
2.336400
  0
VERTEX
  8
0
  6
CONTINUOUS
 10
5.290560
 20
2.354880
  0
SEQEND
  8
0
  0
SOLID
  8
0
 62
    15
 10
5.314320
 20
2.336400
 11
5.958480
 21
2.708200
 12
5.331040
 22
2.312200
 13
5.975200
 23
2.684000
  0
POLYLINE
  8
0
  6
CONTINUOUS
 66
     1
 40
0.000000
 41
0.000000
  0
VERTEX
  8
0
  6
CONTINUOUS
 10
5.314320
 20
2.336400
  0
VERTEX
  8
0
  6
CONTINUOUS
 10
5.958480
 20
2.708200
  0
VERTEX
  8
0
  6
CONTINUOUS
 10
5.975200
 20
2.684000
  0
VERTEX
  8
0
  6
CONTINUOUS
 10
5.331040
 20
2.312200
  0
VERTEX
  8
0
  6
CONTINUOUS
 10
5.314320
 20
2.336400
  0
SEQEND
  8
0
  0
SOLID
  8
0
 62
    15
 10
5.331040
 20
2.312200
 11
5.975200
 21
2.684000
 12
5.338080
 22
2.283600
 13
5.982680
 23
2.655400
  0
POLYLINE
  8
0
  6
CONTINUOUS
 66
     1
 40
0.000000
 41
0.000000
  0
VERTEX
  8
0
  6
CONTINUOUS
 10
5.331040
 20
2.312200
  0
VERTEX
  8
0
  6
CONTINUOUS
 10
5.975200
 20
2.684000
  0
VERTEX
  8
0
  6
CONTINUOUS
 10
5.982680
 20
2.655400
  0
VERTEX
  8
0
  6
CONTINUOUS
 10
5.338080
 20
2.283600
  0
VERTEX
  8
0
  6
CONTINUOUS
 10
5.331040
 20
2.312200
  0
SEQEND
  8
0
  0
SOLID
  8
0
 62
    15
 10
5.338080
 20
2.283600
 11
5.982680
 21
2.655400
 12
5.333680
 22
2.251480
 13
5.978280
 23
2.623280
  0
POLYLINE
  8
0
  6
CONTINUOUS
 66
     1
 40
0.000000
 41
0.000000
  0
VERTEX
  8
0
  6
CONTINUOUS
 10
5.338080
 20
2.283600
  0
VERTEX
  8
0
  6
CONTINUOUS
 10
5.982680
 20
2.655400
  0
VERTEX
  8
0
  6
CONTINUOUS
 10
5.978280
 20
2.623280
  0
VERTEX
  8
0
  6
CONTINUOUS
 10
5.333680
 20
2.251480
  0
VERTEX
  8
0
  6
CONTINUOUS
 10
5.338080
 20
2.283600
  0
SEQEND
  8
0
  0
SOLID
  8
0
 62
    15
 10
5.333680
 20
2.251480
 11
5.978280
 21
2.623280
 12
5.316080
 22
2.216720
 13
5.960240
 23
2.588960
  0
POLYLINE
  8
0
  6
CONTINUOUS
 66
     1
 40
0.000000
 41
0.000000
  0
VERTEX
  8
0
  6
CONTINUOUS
 10
5.333680
 20
2.251480
  0
VERTEX
  8
0
  6
CONTINUOUS
 10
5.978280
 20
2.623280
  0
VERTEX
  8
0
  6
CONTINUOUS
 10
5.960240
 20
2.588960
  0
VERTEX
  8
0
  6
CONTINUOUS
 10
5.316080
 20
2.216720
  0
VERTEX
  8
0
  6
CONTINUOUS
 10
5.333680
 20
2.251480
  0
SEQEND
  8
0
  0
SOLID
  8
0
 62
    15
 10
5.316080
 20
2.216720
 11
5.960240
 21
2.588960
 12
5.301560
 22
2.199120
 13
5.945720
 23
2.570920
  0
POLYLINE
  8
0
  6
CONTINUOUS
 66
     1
 40
0.000000
 41
0.000000
  0
VERTEX
  8
0
  6
CONTINUOUS
 10
5.316080
 20
2.216720
  0
VERTEX
  8
0
  6
CONTINUOUS
 10
5.960240
 20
2.588960
  0
VERTEX
  8
0
  6
CONTINUOUS
 10
5.945720
 20
2.570920
  0
VERTEX
  8
0
  6
CONTINUOUS
 10
5.301560
 20
2.199120
  0
VERTEX
  8
0
  6
CONTINUOUS
 10
5.316080
 20
2.216720
  0
SEQEND
  8
0
  0
SOLID
  8
0
 62
    15
 10
5.301560
 20
2.199120
 11
5.945720
 21
2.570920
 12
5.282640
 22
2.181080
 13
5.926800
 23
2.552880
  0
POLYLINE
  8
0
  6
CONTINUOUS
 66
     1
 40
0.000000
 41
0.000000
  0
VERTEX
  8
0
  6
CONTINUOUS
 10
5.301560
 20
2.199120
  0
VERTEX
  8
0
  6
CONTINUOUS
 10
5.945720
 20
2.570920
  0
VERTEX
  8
0
  6
CONTINUOUS
 10
5.926800
 20
2.552880
  0
VERTEX
  8
0
  6
CONTINUOUS
 10
5.282640
 20
2.181080
  0
VERTEX
  8
0
  6
CONTINUOUS
 10
5.301560
 20
2.199120
  0
SEQEND
  8
0
  0
SOLID
  8
0
 62
    15
 10
5.282640
 20
2.181080
 11
5.926800
 21
2.552880
 12
5.281320
 22
2.176240
 13
5.925480
 23
2.548040
  0
POLYLINE
  8
0
  6
CONTINUOUS
 66
     1
 40
0.000000
 41
0.000000
  0
VERTEX
  8
0
  6
CONTINUOUS
 10
5.282640
 20
2.181080
  0
VERTEX
  8
0
  6
CONTINUOUS
 10
5.926800
 20
2.552880
  0
VERTEX
  8
0
  6
CONTINUOUS
 10
5.925480
 20
2.548040
  0
VERTEX
  8
0
  6
CONTINUOUS
 10
5.281320
 20
2.176240
  0
VERTEX
  8
0
  6
CONTINUOUS
 10
5.282640
 20
2.181080
  0
SEQEND
  8
0
  0
SOLID
  8
0
 62
    15
 10
5.281320
 20
2.176240
 11
5.925480
 21
2.548040
 12
5.279560
 22
2.170080
 13
5.923720
 23
2.541880
  0
POLYLINE
  8
0
  6
CONTINUOUS
 66
     1
 40
0.000000
 41
0.000000
  0
VERTEX
  8
0
  6
CONTINUOUS
 10
5.281320
 20
2.176240
  0
VERTEX
  8
0
  6
CONTINUOUS
 10
5.925480
 20
2.548040
  0
VERTEX
  8
0
  6
CONTINUOUS
 10
5.923720
 20
2.541880
  0
VERTEX
  8
0
  6
CONTINUOUS
 10
5.279560
 20
2.170080
  0
VERTEX
  8
0
  6
CONTINUOUS
 10
5.281320
 20
2.176240
  0
SEQEND
  8
0
  0
SOLID
  8
0
 62
    15
 10
5.279560
 20
2.170080
 11
5.923720
 21
2.541880
 12
5.276480
 22
2.152920
 13
5.920640
 23
2.525160
  0
POLYLINE
  8
0
  6
CONTINUOUS
 66
     1
 40
0.000000
 41
0.000000
  0
VERTEX
  8
0
  6
CONTINUOUS
 10
5.279560
 20
2.170080
  0
VERTEX
  8
0
  6
CONTINUOUS
 10
5.923720
 20
2.541880
  0
VERTEX
  8
0
  6
CONTINUOUS
 10
5.920640
 20
2.525160
  0
VERTEX
  8
0
  6
CONTINUOUS
 10
5.276480
 20
2.152920
  0
VERTEX
  8
0
  6
CONTINUOUS
 10
5.279560
 20
2.170080
  0
SEQEND
  8
0
  0
SOLID
  8
0
 62
    15
 10
5.276480
 20
2.152920
 11
5.920640
 21
2.525160
 12
5.276480
 22
2.130480
 13
5.920640
 23
2.502280
  0
POLYLINE
  8
0
  6
CONTINUOUS
 66
     1
 40
0.000000
 41
0.000000
  0
VERTEX
  8
0
  6
CONTINUOUS
 10
5.276480
 20
2.152920
  0
VERTEX
  8
0
  6
CONTINUOUS
 10
5.920640
 20
2.525160
  0
VERTEX
  8
0
  6
CONTINUOUS
 10
5.920640
 20
2.502280
  0
VERTEX
  8
0
  6
CONTINUOUS
 10
5.276480
 20
2.130480
  0
VERTEX
  8
0
  6
CONTINUOUS
 10
5.276480
 20
2.152920
  0
SEQEND
  8
0
  0
SOLID
  8
0
 62
    15
 10
5.276480
 20
2.130480
 11
5.920640
 21
2.502280
 12
5.282200
 22
2.102320
 13
5.926360
 23
2.474120
  0
POLYLINE
  8
0
  6
CONTINUOUS
 66
     1
 40
0.000000
 41
0.000000
  0
VERTEX
  8
0
  6
CONTINUOUS
 10
5.276480
 20
2.130480
  0
VERTEX
  8
0
  6
CONTINUOUS
 10
5.920640
 20
2.502280
  0
VERTEX
  8
0
  6
CONTINUOUS
 10
5.926360
 20
2.474120
  0
VERTEX
  8
0
  6
CONTINUOUS
 10
5.282200
 20
2.102320
  0
VERTEX
  8
0
  6
CONTINUOUS
 10
5.276480
 20
2.130480
  0
SEQEND
  8
0
  0
SOLID
  8
0
 62
     7
 10
5.282200
 20
2.102320
 11
5.926360
 21
2.474120
 12
5.296280
 22
2.069760
 13
5.940440
 23
2.441560
  0
POLYLINE
  8
0
  6
CONTINUOUS
 66
     1
 40
0.000000
 41
0.000000
  0
VERTEX
  8
0
  6
CONTINUOUS
 10
5.282200
 20
2.102320
  0
VERTEX
  8
0
  6
CONTINUOUS
 10
5.926360
 20
2.474120
  0
VERTEX
  8
0
  6
CONTINUOUS
 10
5.940440
 20
2.441560
  0
VERTEX
  8
0
  6
CONTINUOUS
 10
5.296280
 20
2.069760
  0
VERTEX
  8
0
  6
CONTINUOUS
 10
5.282200
 20
2.102320
  0
SEQEND
  8
0
  0
SOLID
  8
0
 62
     7
 10
5.296280
 20
2.069760
 11
5.940440
 21
2.441560
 12
5.321360
 22
2.032360
 13
5.965960
 23
2.404600
  0
POLYLINE
  8
0
  6
CONTINUOUS
 66
     1
 40
0.000000
 41
0.000000
  0
VERTEX
  8
0
  6
CONTINUOUS
 10
5.296280
 20
2.069760
  0
VERTEX
  8
0
  6
CONTINUOUS
 10
5.940440
 20
2.441560
  0
VERTEX
  8
0
  6
CONTINUOUS
 10
5.965960
 20
2.404600
  0
VERTEX
  8
0
  6
CONTINUOUS
 10
5.321360
 20
2.032360
  0
VERTEX
  8
0
  6
CONTINUOUS
 10
5.296280
 20
2.069760
  0
SEQEND
  8
0
  0
SOLID
  8
0
 62
     7
 10
5.321360
 20
2.032360
 11
5.965960
 21
2.404600
 12
5.338960
 22
2.012560
 13
5.983560
 23
2.384360
  0
POLYLINE
  8
0
  6
CONTINUOUS
 66
     1
 40
0.000000
 41
0.000000
  0
VERTEX
  8
0
  6
CONTINUOUS
 10
5.321360
 20
2.032360
  0
VERTEX
  8
0
  6
CONTINUOUS
 10
5.965960
 20
2.404600
  0
VERTEX
  8
0
  6
CONTINUOUS
 10
5.983560
 20
2.384360
  0
VERTEX
  8
0
  6
CONTINUOUS
 10
5.338960
 20
2.012560
  0
VERTEX
  8
0
  6
CONTINUOUS
 10
5.321360
 20
2.032360
  0
SEQEND
  8
0
  0
SOLID
  8
0
 62
    15
 10
5.338960
 20
2.012560
 11
5.983560
 21
2.384360
 12
5.360520
 22
1.991440
 13
6.005120
 23
2.363240
  0
POLYLINE
  8
0
  6
CONTINUOUS
 66
     1
 40
0.000000
 41
0.000000
  0
VERTEX
  8
0
  6
CONTINUOUS
 10
5.338960
 20
2.012560
  0
VERTEX
  8
0
  6
CONTINUOUS
 10
5.983560
 20
2.384360
  0
VERTEX
  8
0
  6
CONTINUOUS
 10
6.005120
 20
2.363240
  0
VERTEX
  8
0
  6
CONTINUOUS
 10
5.360520
 20
1.991440
  0
VERTEX
  8
0
  6
CONTINUOUS
 10
5.338960
 20
2.012560
  0
SEQEND
  8
0
  0
SOLID
  8
0
 62
    15
 10
5.360520
 20
1.991440
 11
6.005120
 21
2.363240
 12
5.386480
 22
1.969880
 13
6.030640
 23
2.341680
  0
POLYLINE
  8
0
  6
CONTINUOUS
 66
     1
 40
0.000000
 41
0.000000
  0
VERTEX
  8
0
  6
CONTINUOUS
 10
5.360520
 20
1.991440
  0
VERTEX
  8
0
  6
CONTINUOUS
 10
6.005120
 20
2.363240
  0
VERTEX
  8
0
  6
CONTINUOUS
 10
6.030640
 20
2.341680
  0
VERTEX
  8
0
  6
CONTINUOUS
 10
5.386480
 20
1.969880
  0
VERTEX
  8
0
  6
CONTINUOUS
 10
5.360520
 20
1.991440
  0
SEQEND
  8
0
  0
SOLID
  8
0
 62
    15
 10
5.386480
 20
1.969880
 11
6.030640
 21
2.341680
 12
5.416400
 22
1.947000
 13
6.061000
 23
2.319240
  0
POLYLINE
  8
0
  6
CONTINUOUS
 66
     1
 40
0.000000
 41
0.000000
  0
VERTEX
  8
0
  6
CONTINUOUS
 10
5.386480
 20
1.969880
  0
VERTEX
  8
0
  6
CONTINUOUS
 10
6.030640
 20
2.341680
  0
VERTEX
  8
0
  6
CONTINUOUS
 10
6.061000
 20
2.319240
  0
VERTEX
  8
0
  6
CONTINUOUS
 10
5.416400
 20
1.947000
  0
VERTEX
  8
0
  6
CONTINUOUS
 10
5.386480
 20
1.969880
  0
SEQEND
  8
0
  0
SOLID
  8
0
 62
    15
 10
5.416400
 20
1.947000
 11
6.061000
 21
2.319240
 12
5.464360
 22
1.922360
 13
6.108960
 23
2.294600
  0
POLYLINE
  8
0
  6
CONTINUOUS
 66
     1
 40
0.000000
 41
0.000000
  0
VERTEX
  8
0
  6
CONTINUOUS
 10
5.416400
 20
1.947000
  0
VERTEX
  8
0
  6
CONTINUOUS
 10
6.061000
 20
2.319240
  0
VERTEX
  8
0
  6
CONTINUOUS
 10
6.108960
 20
2.294600
  0
VERTEX
  8
0
  6
CONTINUOUS
 10
5.464360
 20
1.922360
  0
VERTEX
  8
0
  6
CONTINUOUS
 10
5.416400
 20
1.947000
  0
SEQEND
  8
0
  0
SOLID
  8
0
 62
    15
 10
5.464360
 20
1.922360
 11
6.108960
 21
2.294600
 12
5.515840
 22
1.909600
 13
6.160440
 23
2.281400
  0
POLYLINE
  8
0
  6
CONTINUOUS
 66
     1
 40
0.000000
 41
0.000000
  0
VERTEX
  8
0
  6
CONTINUOUS
 10
5.464360
 20
1.922360
  0
VERTEX
  8
0
  6
CONTINUOUS
 10
6.108960
 20
2.294600
  0
VERTEX
  8
0
  6
CONTINUOUS
 10
6.160440
 20
2.281400
  0
VERTEX
  8
0
  6
CONTINUOUS
 10
5.515840
 20
1.909600
  0
VERTEX
  8
0
  6
CONTINUOUS
 10
5.464360
 20
1.922360
  0
SEQEND
  8
0
  0
SOLID
  8
0
 62
    15
 10
5.223240
 20
2.505360
 11
5.867840
 21
2.877160
 12
5.229400
 22
2.371160
 13
5.874000
 23
2.742960
  0
POLYLINE
  8
0
  6
CONTINUOUS
 66
     1
 40
0.000000
 41
0.000000
  0
VERTEX
  8
0
  6
CONTINUOUS
 10
5.223240
 20
2.505360
  0
VERTEX
  8
0
  6
CONTINUOUS
 10
5.867840
 20
2.877160
  0
VERTEX
  8
0
  6
CONTINUOUS
 10
5.874000
 20
2.742960
  0
VERTEX
  8
0
  6
CONTINUOUS
 10
5.229400
 20
2.371160
  0
VERTEX
  8
0
  6
CONTINUOUS
 10
5.223240
 20
2.505360
  0
SEQEND
  8
0
  0
SOLID
  8
0
 62
    15
 10
5.569080
 20
1.903880
 11
6.213240
 21
2.275680
 12
5.595920
 22
1.902120
 13
6.240080
 23
2.273920
  0
POLYLINE
  8
0
  6
CONTINUOUS
 66
     1
 40
0.000000
 41
0.000000
  0
VERTEX
  8
0
  6
CONTINUOUS
 10
5.569080
 20
1.903880
  0
VERTEX
  8
0
  6
CONTINUOUS
 10
6.213240
 20
2.275680
  0
VERTEX
  8
0
  6
CONTINUOUS
 10
6.240080
 20
2.273920
  0
VERTEX
  8
0
  6
CONTINUOUS
 10
5.595920
 20
1.902120
  0
VERTEX
  8
0
  6
CONTINUOUS
 10
5.569080
 20
1.903880
  0
SEQEND
  8
0
  0
SOLID
  8
0
 62
    15
 10
5.595920
 20
1.902120
 11
6.240080
 21
2.273920
 12
5.622320
 22
1.899920
 13
6.266920
 23
2.272160
  0
POLYLINE
  8
0
  6
CONTINUOUS
 66
     1
 40
0.000000
 41
0.000000
  0
VERTEX
  8
0
  6
CONTINUOUS
 10
5.595920
 20
1.902120
  0
VERTEX
  8
0
  6
CONTINUOUS
 10
6.240080
 20
2.273920
  0
VERTEX
  8
0
  6
CONTINUOUS
 10
6.266920
 20
2.272160
  0
VERTEX
  8
0
  6
CONTINUOUS
 10
5.622320
 20
1.899920
  0
VERTEX
  8
0
  6
CONTINUOUS
 10
5.595920
 20
1.902120
  0
SEQEND
  8
0
  0
SOLID
  8
0
 62
    15
 10
5.622320
 20
1.899920
 11
6.266920
 21
2.272160
 12
5.674680
 22
1.893760
 13
6.318840
 23
2.265560
  0
POLYLINE
  8
0
  6
CONTINUOUS
 66
     1
 40
0.000000
 41
0.000000
  0
VERTEX
  8
0
  6
CONTINUOUS
 10
5.622320
 20
1.899920
  0
VERTEX
  8
0
  6
CONTINUOUS
 10
6.266920
 20
2.272160
  0
VERTEX
  8
0
  6
CONTINUOUS
 10
6.318840
 20
2.265560
  0
VERTEX
  8
0
  6
CONTINUOUS
 10
5.674680
 20
1.893760
  0
VERTEX
  8
0
  6
CONTINUOUS
 10
5.622320
 20
1.899920
  0
SEQEND
  8
0
  0
SOLID
  8
0
 62
    15
 10
5.674680
 20
1.893760
 11
6.318840
 21
2.265560
 12
5.723520
 22
1.879680
 13
6.368120
 23
2.251480
  0
POLYLINE
  8
0
  6
CONTINUOUS
 66
     1
 40
0.000000
 41
0.000000
  0
VERTEX
  8
0
  6
CONTINUOUS
 10
5.674680
 20
1.893760
  0
VERTEX
  8
0
  6
CONTINUOUS
 10
6.318840
 20
2.265560
  0
VERTEX
  8
0
  6
CONTINUOUS
 10
6.368120
 20
2.251480
  0
VERTEX
  8
0
  6
CONTINUOUS
 10
5.723520
 20
1.879680
  0
VERTEX
  8
0
  6
CONTINUOUS
 10
5.674680
 20
1.893760
  0
SEQEND
  8
0
  0
SOLID
  8
0
 62
    15
 10
5.723520
 20
1.879680
 11
6.368120
 21
2.251480
 12
5.746400
 22
1.868240
 13
6.391000
 23
2.240480
  0
POLYLINE
  8
0
  6
CONTINUOUS
 66
     1
 40
0.000000
 41
0.000000
  0
VERTEX
  8
0
  6
CONTINUOUS
 10
5.723520
 20
1.879680
  0
VERTEX
  8
0
  6
CONTINUOUS
 10
6.368120
 20
2.251480
  0
VERTEX
  8
0
  6
CONTINUOUS
 10
6.391000
 20
2.240480
  0
VERTEX
  8
0
  6
CONTINUOUS
 10
5.746400
 20
1.868240
  0
VERTEX
  8
0
  6
CONTINUOUS
 10
5.723520
 20
1.879680
  0
SEQEND
  8
0
  0
SOLID
  8
0
 62
    15
 10
5.746400
 20
1.868240
 11
6.391000
 21
2.240480
 12
5.767960
 22
1.853280
 13
6.412560
 23
2.225520
  0
POLYLINE
  8
0
  6
CONTINUOUS
 66
     1
 40
0.000000
 41
0.000000
  0
VERTEX
  8
0
  6
CONTINUOUS
 10
5.746400
 20
1.868240
  0
VERTEX
  8
0
  6
CONTINUOUS
 10
6.391000
 20
2.240480
  0
VERTEX
  8
0
  6
CONTINUOUS
 10
6.412560
 20
2.225520
  0
VERTEX
  8
0
  6
CONTINUOUS
 10
5.767960
 20
1.853280
  0
VERTEX
  8
0
  6
CONTINUOUS
 10
5.746400
 20
1.868240
  0
SEQEND
  8
0
  0
SOLID
  8
0
 62
    15
 10
5.767960
 20
1.853280
 11
6.412560
 21
2.225520
 12
5.788200
 22
1.833920
 13
6.432360
 23
2.206160
  0
POLYLINE
  8
0
  6
CONTINUOUS
 66
     1
 40
0.000000
 41
0.000000
  0
VERTEX
  8
0
  6
CONTINUOUS
 10
5.767960
 20
1.853280
  0
VERTEX
  8
0
  6
CONTINUOUS
 10
6.412560
 20
2.225520
  0
VERTEX
  8
0
  6
CONTINUOUS
 10
6.432360
 20
2.206160
  0
VERTEX
  8
0
  6
CONTINUOUS
 10
5.788200
 20
1.833920
  0
VERTEX
  8
0
  6
CONTINUOUS
 10
5.767960
 20
1.853280
  0
SEQEND
  8
0
  0
SOLID
  8
0
 62
    15
 10
5.788200
 20
1.833920
 11
6.432360
 21
2.206160
 12
5.806240
 22
1.809720
 13
6.450840
 23
2.181960
  0
POLYLINE
  8
0
  6
CONTINUOUS
 66
     1
 40
0.000000
 41
0.000000
  0
VERTEX
  8
0
  6
CONTINUOUS
 10
5.788200
 20
1.833920
  0
VERTEX
  8
0
  6
CONTINUOUS
 10
6.432360
 20
2.206160
  0
VERTEX
  8
0
  6
CONTINUOUS
 10
6.450840
 20
2.181960
  0
VERTEX
  8
0
  6
CONTINUOUS
 10
5.806240
 20
1.809720
  0
VERTEX
  8
0
  6
CONTINUOUS
 10
5.788200
 20
1.833920
  0
SEQEND
  8
0
  0
SOLID
  8
0
 62
    15
 10
5.806240
 20
1.809720
 11
6.450840
 21
2.181960
 12
5.821200
 22
1.782880
 13
6.465360
 23
2.155120
  0
POLYLINE
  8
0
  6
CONTINUOUS
 66
     1
 40
0.000000
 41
0.000000
  0
VERTEX
  8
0
  6
CONTINUOUS
 10
5.806240
 20
1.809720
  0
VERTEX
  8
0
  6
CONTINUOUS
 10
6.450840
 20
2.181960
  0
VERTEX
  8
0
  6
CONTINUOUS
 10
6.465360
 20
2.155120
  0
VERTEX
  8
0
  6
CONTINUOUS
 10
5.821200
 20
1.782880
  0
VERTEX
  8
0
  6
CONTINUOUS
 10
5.806240
 20
1.809720
  0
SEQEND
  8
0
  0
SOLID
  8
0
 62
    15
 10
5.821200
 20
1.782880
 11
6.465360
 21
2.155120
 12
5.834400
 22
1.749440
 13
6.478560
 23
2.121680
  0
POLYLINE
  8
0
  6
CONTINUOUS
 66
     1
 40
0.000000
 41
0.000000
  0
VERTEX
  8
0
  6
CONTINUOUS
 10
5.821200
 20
1.782880
  0
VERTEX
  8
0
  6
CONTINUOUS
 10
6.465360
 20
2.155120
  0
VERTEX
  8
0
  6
CONTINUOUS
 10
6.478560
 20
2.121680
  0
VERTEX
  8
0
  6
CONTINUOUS
 10
5.834400
 20
1.749440
  0
VERTEX
  8
0
  6
CONTINUOUS
 10
5.821200
 20
1.782880
  0
SEQEND
  8
0
  0
SOLID
  8
0
 62
    15
 10
5.834400
 20
1.749440
 11
6.478560
 21
2.121680
 12
5.843640
 22
1.711160
 13
6.487800
 23
2.083400
  0
POLYLINE
  8
0
  6
CONTINUOUS
 66
     1
 40
0.000000
 41
0.000000
  0
VERTEX
  8
0
  6
CONTINUOUS
 10
5.834400
 20
1.749440
  0
VERTEX
  8
0
  6
CONTINUOUS
 10
6.478560
 20
2.121680
  0
VERTEX
  8
0
  6
CONTINUOUS
 10
6.487800
 20
2.083400
  0
VERTEX
  8
0
  6
CONTINUOUS
 10
5.843640
 20
1.711160
  0
VERTEX
  8
0
  6
CONTINUOUS
 10
5.834400
 20
1.749440
  0
SEQEND
  8
0
  0
SOLID
  8
0
 62
    15
 10
5.843640
 20
1.711160
 11
6.487800
 21
2.083400
 12
5.846280
 22
1.669360
 13
6.490440
 23
2.041600
  0
POLYLINE
  8
0
  6
CONTINUOUS
 66
     1
 40
0.000000
 41
0.000000
  0
VERTEX
  8
0
  6
CONTINUOUS
 10
5.843640
 20
1.711160
  0
VERTEX
  8
0
  6
CONTINUOUS
 10
6.487800
 20
2.083400
  0
VERTEX
  8
0
  6
CONTINUOUS
 10
6.490440
 20
2.041600
  0
VERTEX
  8
0
  6
CONTINUOUS
 10
5.846280
 20
1.669360
  0
VERTEX
  8
0
  6
CONTINUOUS
 10
5.843640
 20
1.711160
  0
SEQEND
  8
0
  0
SOLID
  8
0
 62
    15
 10
5.846280
 20
1.669360
 11
6.490440
 21
2.041600
 12
5.839680
 22
1.625800
 13
6.484280
 23
1.997600
  0
POLYLINE
  8
0
  6
CONTINUOUS
 66
     1
 40
0.000000
 41
0.000000
  0
VERTEX
  8
0
  6
CONTINUOUS
 10
5.846280
 20
1.669360
  0
VERTEX
  8
0
  6
CONTINUOUS
 10
6.490440
 20
2.041600
  0
VERTEX
  8
0
  6
CONTINUOUS
 10
6.484280
 20
1.997600
  0
VERTEX
  8
0
  6
CONTINUOUS
 10
5.839680
 20
1.625800
  0
VERTEX
  8
0
  6
CONTINUOUS
 10
5.846280
 20
1.669360
  0
SEQEND
  8
0
  0
SOLID
  8
0
 62
    15
 10
5.839680
 20
1.625800
 11
6.484280
 21
1.997600
 12
5.822520
 22
1.581800
 13
6.466680
 23
1.953600
  0
POLYLINE
  8
0
  6
CONTINUOUS
 66
     1
 40
0.000000
 41
0.000000
  0
VERTEX
  8
0
  6
CONTINUOUS
 10
5.839680
 20
1.625800
  0
VERTEX
  8
0
  6
CONTINUOUS
 10
6.484280
 20
1.997600
  0
VERTEX
  8
0
  6
CONTINUOUS
 10
6.466680
 20
1.953600
  0
VERTEX
  8
0
  6
CONTINUOUS
 10
5.822520
 20
1.581800
  0
VERTEX
  8
0
  6
CONTINUOUS
 10
5.839680
 20
1.625800
  0
SEQEND
  8
0
  0
SOLID
  8
0
 62
    15
 10
5.822520
 20
1.581800
 11
6.466680
 21
1.953600
 12
5.791280
 22
1.538680
 13
6.435440
 23
1.910480
  0
POLYLINE
  8
0
  6
CONTINUOUS
 66
     1
 40
0.000000
 41
0.000000
  0
VERTEX
  8
0
  6
CONTINUOUS
 10
5.822520
 20
1.581800
  0
VERTEX
  8
0
  6
CONTINUOUS
 10
6.466680
 20
1.953600
  0
VERTEX
  8
0
  6
CONTINUOUS
 10
6.435440
 20
1.910480
  0
VERTEX
  8
0
  6
CONTINUOUS
 10
5.791280
 20
1.538680
  0
VERTEX
  8
0
  6
CONTINUOUS
 10
5.822520
 20
1.581800
  0
SEQEND
  8
0
  0
SOLID
  8
0
 62
    15
 10
5.791280
 20
1.538680
 11
6.435440
 21
1.910480
 12
5.769720
 22
1.518000
 13
6.414320
 23
1.889800
  0
POLYLINE
  8
0
  6
CONTINUOUS
 66
     1
 40
0.000000
 41
0.000000
  0
VERTEX
  8
0
  6
CONTINUOUS
 10
5.791280
 20
1.538680
  0
VERTEX
  8
0
  6
CONTINUOUS
 10
6.435440
 20
1.910480
  0
VERTEX
  8
0
  6
CONTINUOUS
 10
6.414320
 20
1.889800
  0
VERTEX
  8
0
  6
CONTINUOUS
 10
5.769720
 20
1.518000
  0
VERTEX
  8
0
  6
CONTINUOUS
 10
5.791280
 20
1.538680
  0
SEQEND
  8
0
  0
SOLID
  8
0
 62
    15
 10
5.769720
 20
1.518000
 11
6.414320
 21
1.889800
 12
5.743760
 22
1.498200
 13
6.388360
 23
1.870000
  0
POLYLINE
  8
0
  6
CONTINUOUS
 66
     1
 40
0.000000
 41
0.000000
  0
VERTEX
  8
0
  6
CONTINUOUS
 10
5.769720
 20
1.518000
  0
VERTEX
  8
0
  6
CONTINUOUS
 10
6.414320
 20
1.889800
  0
VERTEX
  8
0
  6
CONTINUOUS
 10
6.388360
 20
1.870000
  0
VERTEX
  8
0
  6
CONTINUOUS
 10
5.743760
 20
1.498200
  0
VERTEX
  8
0
  6
CONTINUOUS
 10
5.769720
 20
1.518000
  0
SEQEND
  8
0
  0
SOLID
  8
0
 62
    15
 10
5.743760
 20
1.498200
 11
6.388360
 21
1.870000
 12
5.743760
 22
1.471800
 13
6.388360
 23
1.843600
  0
POLYLINE
  8
0
  6
CONTINUOUS
 66
     1
 40
0.000000
 41
0.000000
  0
VERTEX
  8
0
  6
CONTINUOUS
 10
5.743760
 20
1.498200
  0
VERTEX
  8
0
  6
CONTINUOUS
 10
6.388360
 20
1.870000
  0
VERTEX
  8
0
  6
CONTINUOUS
 10
6.388360
 20
1.843600
  0
VERTEX
  8
0
  6
CONTINUOUS
 10
5.743760
 20
1.471800
  0
VERTEX
  8
0
  6
CONTINUOUS
 10
5.743760
 20
1.498200
  0
SEQEND
  8
0
  0
SOLID
  8
0
 62
    15
 10
5.743760
 20
1.471800
 11
6.388360
 21
1.843600
 12
5.940440
 22
1.462120
 13
6.584600
 23
1.834360
  0
POLYLINE
  8
0
  6
CONTINUOUS
 66
     1
 40
0.000000
 41
0.000000
  0
VERTEX
  8
0
  6
CONTINUOUS
 10
5.743760
 20
1.471800
  0
VERTEX
  8
0
  6
CONTINUOUS
 10
6.388360
 20
1.843600
  0
VERTEX
  8
0
  6
CONTINUOUS
 10
6.584600
 20
1.834360
  0
VERTEX
  8
0
  6
CONTINUOUS
 10
5.940440
 20
1.462120
  0
VERTEX
  8
0
  6
CONTINUOUS
 10
5.743760
 20
1.471800
  0
SEQEND
  8
0
  0
SOLID
  8
0
 62
    15
 10
5.940440
 20
1.462120
 11
6.584600
 21
1.834360
 12
5.940440
 22
0.971520
 13
6.584600
 23
1.343320
  0
POLYLINE
  8
0
  6
CONTINUOUS
 66
     1
 40
0.000000
 41
0.000000
  0
VERTEX
  8
0
  6
CONTINUOUS
 10
5.940440
 20
1.462120
  0
VERTEX
  8
0
  6
CONTINUOUS
 10
6.584600
 20
1.834360
  0
VERTEX
  8
0
  6
CONTINUOUS
 10
6.584600
 20
1.343320
  0
VERTEX
  8
0
  6
CONTINUOUS
 10
5.940440
 20
0.971520
  0
VERTEX
  8
0
  6
CONTINUOUS
 10
5.940440
 20
1.462120
  0
SEQEND
  8
0
  0
SOLID
  8
0
 62
    15
 10
5.101800
 20
2.507120
 11
5.745960
 21
2.878920
 12
5.223240
 22
2.507120
 13
5.867840
 23
2.878920
  0
POLYLINE
  8
0
  6
CONTINUOUS
 66
     1
 40
0.000000
 41
0.000000
  0
VERTEX
  8
0
  6
CONTINUOUS
 10
5.101800
 20
2.507120
  0
VERTEX
  8
0
  6
CONTINUOUS
 10
5.745960
 20
2.878920
  0
VERTEX
  8
0
  6
CONTINUOUS
 10
5.867840
 20
2.878920
  0
VERTEX
  8
0
  6
CONTINUOUS
 10
5.223240
 20
2.507120
  0
VERTEX
  8
0
  6
CONTINUOUS
 10
5.101800
 20
2.507120
  0
SEQEND
  8
0
  0
SOLID
  8
0
 62
    15
 10
5.223240
 20
2.507120
 11
5.867840
 21
2.878920
 12
5.223240
 22
2.505360
 13
5.867840
 23
2.877160
  0
POLYLINE
  8
0
  6
CONTINUOUS
 66
     1
 40
0.000000
 41
0.000000
  0
VERTEX
  8
0
  6
CONTINUOUS
 10
5.223240
 20
2.507120
  0
VERTEX
  8
0
  6
CONTINUOUS
 10
5.867840
 20
2.878920
  0
VERTEX
  8
0
  6
CONTINUOUS
 10
5.867840
 20
2.877160
  0
VERTEX
  8
0
  6
CONTINUOUS
 10
5.223240
 20
2.505360
  0
VERTEX
  8
0
  6
CONTINUOUS
 10
5.223240
 20
2.507120
  0
SEQEND
  8
0
  0
POLYLINE
  8
0
  6
CONTINUOUS
 66
     1
 40
0.000000
 41
0.000000
  0
VERTEX
  8
0
  6
CONTINUOUS
 10
5.223240
 20
2.505360
  0
VERTEX
  8
0
  6
CONTINUOUS
 10
5.229400
 20
2.371160
  0
VERTEX
  8
0
  6
CONTINUOUS
 10
5.261520
 20
2.366760
  0
VERTEX
  8
0
  6
CONTINUOUS
 10
5.290560
 20
2.354880
  0
VERTEX
  8
0
  6
CONTINUOUS
 10
5.314320
 20
2.336400
  0
VERTEX
  8
0
  6
CONTINUOUS
 10
5.331040
 20
2.312200
  0
VERTEX
  8
0
  6
CONTINUOUS
 10
5.338080
 20
2.283600
  0
VERTEX
  8
0
  6
CONTINUOUS
 10
5.333680
 20
2.251480
  0
VERTEX
  8
0
  6
CONTINUOUS
 10
5.316080
 20
2.216720
  0
VERTEX
  8
0
  6
CONTINUOUS
 10
5.301560
 20
2.199120
  0
VERTEX
  8
0
  6
CONTINUOUS
 10
5.282640
 20
2.181080
  0
VERTEX
  8
0
  6
CONTINUOUS
 10
5.281320
 20
2.176240
  0
VERTEX
  8
0
  6
CONTINUOUS
 10
5.279560
 20
2.170080
  0
VERTEX
  8
0
  6
CONTINUOUS
 10
5.276480
 20
2.152920
  0
VERTEX
  8
0
  6
CONTINUOUS
 10
5.276480
 20
2.130480
  0
VERTEX
  8
0
  6
CONTINUOUS
 10
5.282200
 20
2.102320
  0
VERTEX
  8
0
  6
CONTINUOUS
 10
5.296280
 20
2.069760
  0
VERTEX
  8
0
  6
CONTINUOUS
 10
5.321360
 20
2.032360
  0
VERTEX
  8
0
  6
CONTINUOUS
 10
5.338960
 20
2.012560
  0
VERTEX
  8
0
  6
CONTINUOUS
 10
5.360520
 20
1.991440
  0
VERTEX
  8
0
  6
CONTINUOUS
 10
5.386480
 20
1.969880
  0
VERTEX
  8
0
  6
CONTINUOUS
 10
5.416400
 20
1.947000
  0
VERTEX
  8
0
  6
CONTINUOUS
 10
5.464360
 20
1.922360
  0
VERTEX
  8
0
  6
CONTINUOUS
 10
5.515840
 20
1.909600
  0
VERTEX
  8
0
  6
CONTINUOUS
 10
5.569080
 20
1.903880
  0
VERTEX
  8
0
  6
CONTINUOUS
 10
5.595920
 20
1.902120
  0
VERTEX
  8
0
  6
CONTINUOUS
 10
5.622320
 20
1.899920
  0
VERTEX
  8
0
  6
CONTINUOUS
 10
5.674680
 20
1.893760
  0
VERTEX
  8
0
  6
CONTINUOUS
 10
5.723520
 20
1.879680
  0
VERTEX
  8
0
  6
CONTINUOUS
 10
5.746400
 20
1.868240
  0
VERTEX
  8
0
  6
CONTINUOUS
 10
5.767960
 20
1.853280
  0
VERTEX
  8
0
  6
CONTINUOUS
 10
5.788200
 20
1.833920
  0
VERTEX
  8
0
  6
CONTINUOUS
 10
5.806240
 20
1.809720
  0
VERTEX
  8
0
  6
CONTINUOUS
 10
5.821200
 20
1.782880
  0
VERTEX
  8
0
  6
CONTINUOUS
 10
5.834400
 20
1.749440
  0
VERTEX
  8
0
  6
CONTINUOUS
 10
5.843640
 20
1.711160
  0
VERTEX
  8
0
  6
CONTINUOUS
 10
5.846280
 20
1.669360
  0
VERTEX
  8
0
  6
CONTINUOUS
 10
5.839680
 20
1.625800
  0
VERTEX
  8
0
  6
CONTINUOUS
 10
5.822520
 20
1.581800
  0
VERTEX
  8
0
  6
CONTINUOUS
 10
5.791280
 20
1.538680
  0
VERTEX
  8
0
  6
CONTINUOUS
 10
5.769720
 20
1.518000
  0
VERTEX
  8
0
  6
CONTINUOUS
 10
5.743760
 20
1.498200
  0
VERTEX
  8
0
  6
CONTINUOUS
 10
5.743760
 20
1.471800
  0
VERTEX
  8
0
  6
CONTINUOUS
 10
5.940440
 20
1.462120
  0
VERTEX
  8
0
  6
CONTINUOUS
 10
5.940440
 20
0.971520
  0
VERTEX
  8
0
  6
CONTINUOUS
 10
5.101800
 20
0.971520
  0
VERTEX
  8
0
  6
CONTINUOUS
 10
5.101800
 20
2.507120
  0
VERTEX
  8
0
  6
CONTINUOUS
 10
5.223240
 20
2.507120
  0
VERTEX
  8
0
  6
CONTINUOUS
 10
5.223240
 20
2.505360
  0
SEQEND
  8
0
  0
TEXT
  8
0
 10
5.548400
 20
0.730840
 40
0.138071
  1
BA  687
 41
1.000000
  7
SN0
 71
     0
 72
     5
 11
6.138372
 21
0.730840
  0
TEXT
  8
0
 10
5.346440
 20
0.539440
 40
0.138071
  1
7/8" x 1-9/16"
 41
1.000000
  7
SN0
 71
     0
 72
     5
 11
6.339037
 21
0.539440
  0
ENDSEC
  0
EOF
